ISO-10303-21;
HEADER;
FILE_DESCRIPTION(('STEP'), '1');
FILE_NAME('C:\\Users\\ds2002\\OneDrive - Sandvik\\HomeShare\\Documents\\Batchrepair\\CorSRT2\\NEW_MILSQ_SLD\\Output\\MOD000000000000000020082306500000.stp', '2019-01-02T12:10:10', (''), (''), 'Express v3.0.0.0', 'Express Tool', 'Unknown');
FILE_SCHEMA(('AUTOMOTIVE_DESIGN'));
ENDSEC;

DATA;
#1 = MANIFOLD_SOLID_BREP('NOCUT', #2);
#2 = CLOSED_SHELL('', (#3, #50, #89, #128, #167, #176));
#3 = ADVANCED_FACE('', (#4), #31, .T.);
#4 = FACE_OUTER_BOUND('', #5, .T.);
#5 = EDGE_LOOP('', (#6, #16, #23, #24));
#6 = ORIENTED_EDGE('', *, *, #7, .F.);
#7 = EDGE_CURVE('', #8, #10, #12, .T.);
#8 = VERTEX_POINT('', #9);
#9 = CARTESIAN_POINT('', (-4.85, 2.8564886590112E-15, -41.8));
#10 = VERTEX_POINT('', #11);
#11 = CARTESIAN_POINT('', (-4.85, 3.78722022636319E-15, -57.));
#12 = LINE('', #13, #14);
#13 = CARTESIAN_POINT('', (-4.85, 2.8564886590112E-15, -41.8));
#14 = VECTOR('', #15, 15.2);
#15 = DIRECTION('', (0., 9.3073156735199E-16, -15.2));
#16 = ORIENTED_EDGE('', *, *, #17, .T.);
#17 = EDGE_CURVE('', #8, #8, #18, .T.);
#18 = CIRCLE('', #19, 4.85);
#19 = AXIS2_PLACEMENT_3D('', #20, #21, #22);
#20 = CARTESIAN_POINT('', (1.27675647831893E-15, -1.66533453693773E-15, -41.8));
#21 = DIRECTION('', (4.64890708788781E-30, 4.98630715956691E-15, -1.));
#22 = DIRECTION('', (-1., 9.323346795771E-16, 0.));
#23 = ORIENTED_EDGE('', *, *, #7, .T.);
#24 = ORIENTED_EDGE('', *, *, #25, .F.);
#25 = EDGE_CURVE('', #10, #10, #26, .T.);
#26 = CIRCLE('', #27, 4.85);
#27 = AXIS2_PLACEMENT_3D('', #28, #29, #30);
#28 = CARTESIAN_POINT('', (8.88178419700125E-16, 1.11022302462516E-15, -57.));
#29 = DIRECTION('', (0., 0., -1.));
#30 = DIRECTION('', (-1., 5.51958185925368E-16, 0.));
#31 = (
   BOUNDED_SURFACE ()
   B_SPLINE_SURFACE (2, 1, ((#32, #33), (#34, #35), (#36, #37), (#38, #39), (#40, #41), (#42, #43), (#44, #45), (#46, #47), (#48, #49)), .UNSPECIFIED., .T., .F., .U.)
   B_SPLINE_SURFACE_WITH_KNOTS ((3, 2, 2, 2, 3), (2, 2), (0., 7.61836218495525, 15.2367243699105, 22.8550865548657, 30.473448739821), (0., 1.), .UNSPECIFIED.)
   GEOMETRIC_REPRESENTATION_ITEM ()
   RATIONAL_B_SPLINE_SURFACE (((1., 1.), (0.707106781186548, 0.707106781186548), (1., 1.), (0.707106781186548, 0.707106781186548), (1., 1.), (0.707106781186548, 0.707106781186548), (1., 1.), (0.707106781186548, 0.707106781186548), (1., 1.)))
   REPRESENTATION_ITEM ('')
   SURFACE ()
);
#32 = CARTESIAN_POINT('', (-4.85, 2.8564886590112E-15, -41.8));
#33 = CARTESIAN_POINT('', (-4.85, 2.19035484423611E-15, -57.));
#34 = CARTESIAN_POINT('', (-4.85, 4.85, -41.8));
#35 = CARTESIAN_POINT('', (-4.85, 4.85, -57.));
#36 = CARTESIAN_POINT('', (5.05599214661427E-16, 4.85, -41.8));
#37 = CARTESIAN_POINT('', (5.05599214661427E-16, 4.85, -57.));
#38 = CARTESIAN_POINT('', (4.85, 4.85, -41.8));
#39 = CARTESIAN_POINT('', (4.85, 4.85, -57.));
#40 = CARTESIAN_POINT('', (4.85, 1.29017871737577E-15, -41.8));
#41 = CARTESIAN_POINT('', (4.85, 6.24044902600674E-16, -57.));
#42 = CARTESIAN_POINT('', (4.85, -4.85, -41.8));
#43 = CARTESIAN_POINT('', (4.85, -4.85, -57.));
#44 = CARTESIAN_POINT('', (-4.66757029387539E-16, -4.85, -41.8));
#45 = CARTESIAN_POINT('', (-4.66757029387539E-16, -4.85, -57.));
#46 = CARTESIAN_POINT('', (-4.85, -4.85, -41.8));
#47 = CARTESIAN_POINT('', (-4.85, -4.85, -57.));
#48 = CARTESIAN_POINT('', (-4.85, 2.8564886590112E-15, -41.8));
#49 = CARTESIAN_POINT('', (-4.85, 2.19035484423611E-15, -57.));
#50 = ADVANCED_FACE('', (#51), #70, .T.);
#51 = FACE_OUTER_BOUND('', #52, .T.);
#52 = EDGE_LOOP('', (#53, #61, #68, #69));
#53 = ORIENTED_EDGE('', *, *, #54, .F.);
#54 = EDGE_CURVE('', #55, #8, #57, .T.);
#55 = VERTEX_POINT('', #56);
#56 = CARTESIAN_POINT('', (-5., 2.8473038080176E-15, -41.5));
#57 = LINE('', #58, #59);
#58 = CARTESIAN_POINT('', (-5., 2.8473038080176E-15, -41.5));
#59 = VECTOR('', #60, 0.335410196624966);
#60 = DIRECTION('', (0.15, 9.18485099360009E-18, -0.299999999999997));
#61 = ORIENTED_EDGE('', *, *, #62, .T.);
#62 = EDGE_CURVE('', #55, #55, #63, .T.);
#63 = CIRCLE('', #64, 5.);
#64 = AXIS2_PLACEMENT_3D('', #65, #66, #67);
#65 = CARTESIAN_POINT('', (-9.71445146547012E-17, -4.10782519111308E-15, -41.5));
#66 = DIRECTION('', (-6.72799944767087E-30, -4.83671794477989E-15, -1.));
#67 = DIRECTION('', (-1., 1.39102579982614E-15, 0.));
#68 = ORIENTED_EDGE('', *, *, #54, .T.);
#69 = ORIENTED_EDGE('', *, *, #17, .F.);
#70 = (
   BOUNDED_SURFACE ()
   B_SPLINE_SURFACE (2, 1, ((#71, #72), (#73, #74), (#75, #76), (#77, #78), (#79, #80), (#81, #82), (#83, #84), (#85, #86), (#87, #88)), .UNSPECIFIED., .T., .F., .U.)
   B_SPLINE_SURFACE_WITH_KNOTS ((3, 2, 2, 2, 3), (2, 2), (0., 0.25, 0.5, 0.75, 1.), (0., 1.), .UNSPECIFIED.)
   GEOMETRIC_REPRESENTATION_ITEM ()
   RATIONAL_B_SPLINE_SURFACE (((1., 1.), (0.707106781186548, 0.707106781186548), (1., 1.), (0.707106781186548, 0.707106781186548), (1., 1.), (0.707106781186548, 0.707106781186548), (1., 1.), (0.707106781186548, 0.707106781186548), (1., 1.)))
   REPRESENTATION_ITEM ('')
   SURFACE ()
);
#71 = CARTESIAN_POINT('', (-5., 2.8473038080176E-15, -41.5));
#72 = CARTESIAN_POINT('', (-4.85, 5.08114059221903E-15, -41.8));
#73 = CARTESIAN_POINT('', (-4.99999999999999, 5., -41.5));
#74 = CARTESIAN_POINT('', (-4.84999999999999, 4.85, -41.8));
#75 = CARTESIAN_POINT('', (6.55182278468914E-15, 5., -41.5));
#76 = CARTESIAN_POINT('', (6.35235376570883E-15, 4.85, -41.8));
#77 = CARTESIAN_POINT('', (5.00000000000001, 4.99999999999999, -41.5));
#78 = CARTESIAN_POINT('', (4.85000000000001, 4.84999999999999, -41.8));
#79 = CARTESIAN_POINT('', (5., -1.04506307906701E-14, -41.5));
#80 = CARTESIAN_POINT('', (4.85, -7.81785596850803E-15, -41.8));
#81 = CARTESIAN_POINT('', (4.99999999999999, -5.00000000000001, -41.5));
#82 = CARTESIAN_POINT('', (4.84999999999999, -4.85000000000001, -41.8));
#83 = CARTESIAN_POINT('', (-6.13378841442487E-15, -5., -41.5));
#84 = CARTESIAN_POINT('', (-5.95268909743176E-15, -4.85, -41.8));
#85 = CARTESIAN_POINT('', (-5.00000000000001, -5., -41.5));
#86 = CARTESIAN_POINT('', (-4.85, -4.85, -41.8));
#87 = CARTESIAN_POINT('', (-5., 2.8473038080176E-15, -41.5));
#88 = CARTESIAN_POINT('', (-4.85, 5.08114059221903E-15, -41.8));
#89 = ADVANCED_FACE('', (#90), #109, .T.);
#90 = FACE_OUTER_BOUND('', #91, .T.);
#91 = EDGE_LOOP('', (#92, #100, #107, #108));
#92 = ORIENTED_EDGE('', *, *, #93, .T.);
#93 = EDGE_CURVE('', #55, #94, #96, .T.);
#94 = VERTEX_POINT('', #95);
#95 = CARTESIAN_POINT('', (-5., 3.36777869765522E-16, -0.5));
#96 = LINE('', #97, #98);
#97 = CARTESIAN_POINT('', (-5., 2.8473038080176E-15, -41.5));
#98 = VECTOR('', #99, 41.);
#99 = DIRECTION('', (0., -2.51052593825208E-15, 41.));
#100 = ORIENTED_EDGE('', *, *, #101, .T.);
#101 = EDGE_CURVE('', #94, #94, #102, .T.);
#102 = CIRCLE('', #103, 5.);
#103 = AXIS2_PLACEMENT_3D('', #104, #105, #106);
#104 = CARTESIAN_POINT('', (8.88178419700125E-16, -1.99840144432528E-15, -0.5));
#105 = DIRECTION('', (0., 0., -1.));
#106 = DIRECTION('', (-1., 4.67035862818161E-16, 0.));
#107 = ORIENTED_EDGE('', *, *, #93, .F.);
#108 = ORIENTED_EDGE('', *, *, #62, .F.);
#109 = (
   BOUNDED_SURFACE ()
   B_SPLINE_SURFACE (1, 2, ((#110, #111, #112, #113, #114, #115, #116, #117, #118), (#119, #120, #121, #122, #123, #124, #125, #126, #127)), .UNSPECIFIED., .F., .T., .U.)
   B_SPLINE_SURFACE_WITH_KNOTS ((2, 2), (3, 2, 2, 2, 3), (0., 1.), (0., 7.85398163397447, 15.707963267949, 23.5619449019234, 31.4159265358979), .UNSPECIFIED.)
   GEOMETRIC_REPRESENTATION_ITEM ()
   RATIONAL_B_SPLINE_SURFACE (((1., 0.707106781186548, 1., 0.707106781186548, 1., 0.707106781186548, 1., 0.707106781186548, 1.), (1., 0.707106781186548, 1., 0.707106781186548, 1., 0.707106781186548, 1., 0.707106781186548, 1.)))
   REPRESENTATION_ITEM ('')
   SURFACE ()
);
#110 = CARTESIAN_POINT('', (-5., 2.55722391901583E-15, -41.5));
#111 = CARTESIAN_POINT('', (-5., 5., -41.5));
#112 = CARTESIAN_POINT('', (2.91719603400409E-15, 5., -41.5));
#113 = CARTESIAN_POINT('', (5., 5., -41.5));
#114 = CARTESIAN_POINT('', (5., -1.5008113095921E-15, -41.5));
#115 = CARTESIAN_POINT('', (5., -5., -41.5));
#116 = CARTESIAN_POINT('', (-5.28515795030162E-16, -5., -41.5));
#117 = CARTESIAN_POINT('', (-5., -5., -41.5));
#118 = CARTESIAN_POINT('', (-5., 2.55722391901583E-15, -41.5));
#119 = CARTESIAN_POINT('', (-5., 3.36777869765522E-16, -0.5));
#120 = CARTESIAN_POINT('', (-5., 5., -0.5));
#121 = CARTESIAN_POINT('', (2.91719603400409E-15, 5., -0.5));
#122 = CARTESIAN_POINT('', (5., 5., -0.5));
#123 = CARTESIAN_POINT('', (5., -3.72125735884241E-15, -0.5));
#124 = CARTESIAN_POINT('', (5., -5., -0.5));
#125 = CARTESIAN_POINT('', (-5.28515795030163E-16, -5., -0.5));
#126 = CARTESIAN_POINT('', (-5., -5., -0.5));
#127 = CARTESIAN_POINT('', (-5., 3.36777869765522E-16, -0.5));
#128 = ADVANCED_FACE('', (#129), #148, .T.);
#129 = FACE_OUTER_BOUND('', #130, .T.);
#130 = EDGE_LOOP('', (#131, #139, #146, #147));
#131 = ORIENTED_EDGE('', *, *, #132, .T.);
#132 = EDGE_CURVE('', #94, #133, #135, .T.);
#133 = VERTEX_POINT('', #134);
#134 = CARTESIAN_POINT('', (-4.5, 2.75545529808154E-16, 0.));
#135 = LINE('', #136, #137);
#136 = CARTESIAN_POINT('', (-5., 3.36777869765522E-16, -0.5));
#137 = VECTOR('', #138, 0.707106781186548);
#138 = DIRECTION('', (0.5, -6.1232339957368E-17, 0.5));
#139 = ORIENTED_EDGE('', *, *, #140, .T.);
#140 = EDGE_CURVE('', #133, #133, #141, .T.);
#141 = CIRCLE('', #142, 4.5);
#142 = AXIS2_PLACEMENT_3D('', #143, #144, #145);
#143 = CARTESIAN_POINT('', (2.28983498828939E-15, 0., -1.84889274661175E-32));
#144 = DIRECTION('', (-3.59251091371472E-34, 6.12323399573676E-17, -1.));
#145 = DIRECTION('', (-1., 6.12323399573675E-17, 4.1086505480261E-33));
#146 = ORIENTED_EDGE('', *, *, #132, .F.);
#147 = ORIENTED_EDGE('', *, *, #101, .F.);
#148 = (
   BOUNDED_SURFACE ()
   B_SPLINE_SURFACE (1, 2, ((#149, #150, #151, #152, #153, #154, #155, #156, #157), (#158, #159, #160, #161, #162, #163, #164, #165, #166)), .UNSPECIFIED., .F., .T., .U.)
   B_SPLINE_SURFACE_WITH_KNOTS ((2, 2), (3, 2, 2, 2, 3), (0., 1.), (0., 0.25, 0.5, 0.75, 1.), .UNSPECIFIED.)
   GEOMETRIC_REPRESENTATION_ITEM ()
   RATIONAL_B_SPLINE_SURFACE (((1., 0.707106781186548, 1., 0.707106781186548, 1., 0.707106781186548, 1., 0.707106781186548, 1.), (1., 0.707106781186548, 1., 0.707106781186548, 1., 0.707106781186548, 1., 0.707106781186548, 1.)))
   REPRESENTATION_ITEM ('')
   SURFACE ()
);
#149 = CARTESIAN_POINT('', (-5., -2.69144046670109E-15, -0.5));
#150 = CARTESIAN_POINT('', (-5., 5., -0.50000000000003));
#151 = CARTESIAN_POINT('', (2.28983498828938E-15, 5., -0.50000000000003));
#152 = CARTESIAN_POINT('', (5., 5., -0.50000000000003));
#153 = CARTESIAN_POINT('', (5., -2.69144046670108E-15, -0.5));
#154 = CARTESIAN_POINT('', (5., -5., -0.49999999999997));
#155 = CARTESIAN_POINT('', (2.90215838786306E-15, -5., -0.49999999999997));
#156 = CARTESIAN_POINT('', (-5., -5., -0.49999999999997));
#157 = CARTESIAN_POINT('', (-5., -2.69144046670109E-15, -0.5));
#158 = CARTESIAN_POINT('', (-4.5, 2.75545529808154E-16, -5.47382212626882E-48));
#159 = CARTESIAN_POINT('', (-4.5, 4.5, -2.69784194983913E-14));
#160 = CARTESIAN_POINT('', (2.28983498828938E-15, 4.5, -2.69784194983913E-14));
#161 = CARTESIAN_POINT('', (4.5, 4.5, -2.69784194983913E-14));
#162 = CARTESIAN_POINT('', (4.5, 2.75545529808155E-16, -3.34088136340818E-30));
#163 = CARTESIAN_POINT('', (4.5, -4.5, 2.69784194983913E-14));
#164 = CARTESIAN_POINT('', (2.8409260479057E-15, -4.5, 2.69784194983913E-14));
#165 = CARTESIAN_POINT('', (-4.5, -4.5, 2.69784194983913E-14));
#166 = CARTESIAN_POINT('', (-4.5, 2.75545529808154E-16, -5.47382212626882E-48));
#167 = ADVANCED_FACE('', (#168), #171, .T.);
#168 = FACE_OUTER_BOUND('', #169, .T.);
#169 = EDGE_LOOP('', (#170));
#170 = ORIENTED_EDGE('', *, *, #140, .F.);
#171 = B_SPLINE_SURFACE_WITH_KNOTS('', 1, 1, ((#172, #173), (#174, #175)), .UNSPECIFIED., .F., .F., .U., (2, 2), (2, 2), (0.0454545454545454, 0.954545454545454), (0.0454545454545454, 0.954545454545454), .UNSPECIFIED.);
#172 = CARTESIAN_POINT('', (4.5, -4.5, -2.75545529808155E-16));
#173 = CARTESIAN_POINT('', (-4.5, -4.5, -2.75545529808154E-16));
#174 = CARTESIAN_POINT('', (4.5, 4.5, 2.75545529808154E-16));
#175 = CARTESIAN_POINT('', (-4.5, 4.5, 2.75545529808155E-16));
#176 = ADVANCED_FACE('', (#177), #180, .T.);
#177 = FACE_OUTER_BOUND('', #178, .T.);
#178 = EDGE_LOOP('', (#179));
#179 = ORIENTED_EDGE('', *, *, #25, .T.);
#180 = B_SPLINE_SURFACE_WITH_KNOTS('', 1, 1, ((#181, #182), (#183, #184)), .UNSPECIFIED., .F., .F., .U., (2, 2), (2, 2), (0.486825808798569, 0.552923940380304), (0.447076059619696, 0.513174191201431), .UNSPECIFIED.);
#181 = CARTESIAN_POINT('', (-4.85000000000001, 4.85000000000001, -57.));
#182 = CARTESIAN_POINT('', (-4.85000000000001, -4.84999999999995, -57.));
#183 = CARTESIAN_POINT('', (4.84999999999998, 4.85000000000001, -57.));
#184 = CARTESIAN_POINT('', (4.84999999999998, -4.84999999999995, -57.));
#185 = DRAUGHTING_MODEL('', (#193, #317, #365, #370, #375, #380, #385, #390), #404);
#186 = PRESENTATION_STYLE_ASSIGNMENT((#187));
#187 = SURFACE_STYLE_USAGE(.POSITIVE., #188);
#188 = SURFACE_SIDE_STYLE('', (#189));
#189 = SURFACE_STYLE_FILL_AREA(#190);
#190 = FILL_AREA_STYLE('', (#191));
#191 = FILL_AREA_STYLE_COLOUR('', #192);
#192 = COLOUR_RGB('', 0.50196078431373, 0.50196078431373, 0.50196078431373);
#193 = STYLED_ITEM('', (#186), #1);
#194 = MANIFOLD_SOLID_BREP('CUT', #195);
#195 = CLOSED_SHELL('', (#196, #213, #252, #301));
#196 = ADVANCED_FACE('', (#197), #208, .T.);
#197 = FACE_OUTER_BOUND('', #198, .T.);
#198 = EDGE_LOOP('', (#199));
#199 = ORIENTED_EDGE('', *, *, #200, .F.);
#200 = EDGE_CURVE('', #201, #201, #203, .T.);
#201 = VERTEX_POINT('', #202);
#202 = CARTESIAN_POINT('', (-5., 3.7964050773568E-15, -57.));
#203 = CIRCLE('', #204, 5.);
#204 = AXIS2_PLACEMENT_3D('', #205, #206, #207);
#205 = CARTESIAN_POINT('', (-1.11022302462516E-16, -3.33066907387547E-15, -57.));
#206 = DIRECTION('', (0., 0., -1.));
#207 = DIRECTION('', (-1., 1.42541483024645E-15, 0.));
#208 = B_SPLINE_SURFACE_WITH_KNOTS('', 1, 1, ((#209, #210), (#211, #212)), .UNSPECIFIED., .F., .F., .U., (2, 2), (2, 2), (0.0454545454545454, 0.954545454545455), (0.0454545454545454, 0.954545454545455), .UNSPECIFIED.);
#209 = CARTESIAN_POINT('', (5., -5., -57.));
#210 = CARTESIAN_POINT('', (-5., -5., -57.));
#211 = CARTESIAN_POINT('', (5., 5., -57.));
#212 = CARTESIAN_POINT('', (-5., 5., -57.));
#213 = ADVANCED_FACE('', (#214), #233, .T.);
#214 = FACE_OUTER_BOUND('', #215, .T.);
#215 = EDGE_LOOP('', (#216, #224, #225, #226));
#216 = ORIENTED_EDGE('', *, *, #217, .F.);
#217 = EDGE_CURVE('', #201, #218, #220, .T.);
#218 = VERTEX_POINT('', #219);
#219 = CARTESIAN_POINT('', (-5., 4.7057053257237E-15, -71.85));
#220 = LINE('', #221, #222);
#221 = CARTESIAN_POINT('', (-5., 3.7964050773568E-15, -57.));
#222 = VECTOR('', #223, 14.85);
#223 = DIRECTION('', (0., 9.093002483669E-16, -14.85));
#224 = ORIENTED_EDGE('', *, *, #200, .T.);
#225 = ORIENTED_EDGE('', *, *, #217, .T.);
#226 = ORIENTED_EDGE('', *, *, #227, .F.);
#227 = EDGE_CURVE('', #218, #218, #228, .T.);
#228 = CIRCLE('', #229, 5.);
#229 = AXIS2_PLACEMENT_3D('', #230, #231, #232);
#230 = CARTESIAN_POINT('', (1.31838984174237E-15, -1.55431223447522E-15, -71.85));
#231 = DIRECTION('', (0., 0., -1.));
#232 = DIRECTION('', (-1., 1.25200351203978E-15, 0.));
#233 = (
   BOUNDED_SURFACE ()
   B_SPLINE_SURFACE (2, 1, ((#234, #235), (#236, #237), (#238, #239), (#240, #241), (#242, #243), (#244, #245), (#246, #247), (#248, #249), (#250, #251)), .UNSPECIFIED., .T., .F., .U.)
   B_SPLINE_SURFACE_WITH_KNOTS ((3, 2, 2, 2, 3), (2, 2), (0., 7.85398163397448, 15.707963267949, 23.5619449019234, 31.4159265358979), (0., 1.), .UNSPECIFIED.)
   GEOMETRIC_REPRESENTATION_ITEM ()
   RATIONAL_B_SPLINE_SURFACE (((1., 1.), (0.707106781186548, 0.707106781186548), (1., 1.), (0.707106781186548, 0.707106781186548), (1., 1.), (0.707106781186548, 0.707106781186548), (1., 1.), (0.707106781186548, 0.707106781186548), (1., 1.)))
   REPRESENTATION_ITEM ('')
   SURFACE ()
);
#234 = CARTESIAN_POINT('', (-5., 3.7964050773568E-15, -57.));
#235 = CARTESIAN_POINT('', (-5.00000000000002, 4.46253889213192E-15, -71.85));
#236 = CARTESIAN_POINT('', (-4.99999999999999, 5., -57.));
#237 = CARTESIAN_POINT('', (-5.00000000000001, 5.00000000000001, -71.85));
#238 = CARTESIAN_POINT('', (7.93113547607059E-15, 5., -57.));
#239 = CARTESIAN_POINT('', (-1.31719837760044E-14, 5., -71.85));
#240 = CARTESIAN_POINT('', (5.00000000000001, 4.99999999999999, -57.));
#241 = CARTESIAN_POINT('', (4.99999999999999, 4.99999999999999, -71.85));
#242 = CARTESIAN_POINT('', (5., -7.62497377628375E-15, -57.));
#243 = CARTESIAN_POINT('', (4.99999999999998, -6.95883996150863E-15, -71.85));
#244 = CARTESIAN_POINT('', (5., -5.00000000000001, -57.));
#245 = CARTESIAN_POINT('', (4.99999999999998, -5.00000000000001, -71.85));
#246 = CARTESIAN_POINT('', (-2.87791997799628E-15, -5., -57.));
#247 = CARTESIAN_POINT('', (-2.39810392300712E-14, -5., -71.85));
#248 = CARTESIAN_POINT('', (-5., -5., -57.));
#249 = CARTESIAN_POINT('', (-5.00000000000002, -5., -71.85));
#250 = CARTESIAN_POINT('', (-5., 3.7964050773568E-15, -57.));
#251 = CARTESIAN_POINT('', (-5.00000000000002, 4.46253889213192E-15, -71.85));
#252 = ADVANCED_FACE('', (#253), #273, .T.);
#253 = FACE_OUTER_BOUND('', #254, .T.);
#254 = EDGE_LOOP('', (#255, #264, #265, #266));
#255 = ORIENTED_EDGE('', *, *, #256, .F.);
#256 = EDGE_CURVE('', #218, #257, #259, .T.);
#257 = VERTEX_POINT('', #258);
#258 = CARTESIAN_POINT('', (-4.85, 4.7057053257237E-15, -72.));
#259 = CIRCLE('', #260, 0.150000000000056);
#260 = AXIS2_PLACEMENT_3D('', #261, #262, #263);
#261 = CARTESIAN_POINT('', (-4.84999999999994, 4.69652047473008E-15, -71.85));
#262 = DIRECTION('', (-6.12323399574199E-17, -1., -6.12323399574138E-17));
#263 = DIRECTION('', (-1., 6.12323399574315E-17, -1.89478062869288E-13));
#264 = ORIENTED_EDGE('', *, *, #227, .T.);
#265 = ORIENTED_EDGE('', *, *, #256, .T.);
#266 = ORIENTED_EDGE('', *, *, #267, .F.);
#267 = EDGE_CURVE('', #257, #257, #268, .T.);
#268 = CIRCLE('', #269, 4.85);
#269 = AXIS2_PLACEMENT_3D('', #270, #271, #272);
#270 = CARTESIAN_POINT('', (1.19348975147204E-15, 1.11022302462516E-16, -72.));
#271 = DIRECTION('', (0., 0., -1.));
#272 = DIRECTION('', (-1., 9.47357324383749E-16, 0.));
#273 = (
   BOUNDED_SURFACE ()
   B_SPLINE_SURFACE (2, 2, ((#274, #275, #276), (#277, #278, #279), (#280, #281, #282), (#283, #284, #285), (#286, #287, #288), (#289, #290, #291), (#292, #293, #294), (#295, #296, #297), (#298, #299, #300)), .UNSPECIFIED., .T., .F., .U.)
   B_SPLINE_SURFACE_WITH_KNOTS ((3, 2, 2, 2, 3), (3, 3), (0., 0.25, 0.5, 0.75, 1.), (0., 1.), .UNSPECIFIED.)
   GEOMETRIC_REPRESENTATION_ITEM ()
   RATIONAL_B_SPLINE_SURFACE (((1., 0.707106781186545, 1.), (0.707106781186548, 0.499999999999998, 0.707106781186548), (1., 0.707106781186545, 1.), (0.707106781186548, 0.499999999999998, 0.707106781186548), (1., 0.707106781186545, 1.), (0.707106781186548, 0.499999999999998, 0.707106781186548), (1., 0.707106781186545, 1.), (0.707106781186548, 0.499999999999998, 0.707106781186548), (1., 0.707106781186545, 1.)))
   REPRESENTATION_ITEM ('')
   SURFACE ()
);
#274 = CARTESIAN_POINT('', (-5., 4.7057053257237E-15, -71.85));
#275 = CARTESIAN_POINT('', (-5., 4.71489017671731E-15, -72.));
#276 = CARTESIAN_POINT('', (-4.85, 4.7057053257237E-15, -72.));
#277 = CARTESIAN_POINT('', (-4.99999999999999, 5., -71.85));
#278 = CARTESIAN_POINT('', (-4.99999999999999, 5., -72.));
#279 = CARTESIAN_POINT('', (-4.84999999999999, 4.85, -72.));
#280 = CARTESIAN_POINT('', (6.68937861422625E-15, 5., -71.85));
#281 = CARTESIAN_POINT('', (5.24754808178584E-15, 5., -72.));
#282 = CARTESIAN_POINT('', (5.24754808178583E-15, 4.85, -72.));
#283 = CARTESIAN_POINT('', (5.00000000000001, 4.99999999999999, -71.85));
#284 = CARTESIAN_POINT('', (5.00000000000001, 4.99999999999999, -72.));
#285 = CARTESIAN_POINT('', (4.85, 4.84999999999999, -72.));
#286 = CARTESIAN_POINT('', (5., -8.97836323450071E-15, -71.85));
#287 = CARTESIAN_POINT('', (5., -6.08551731862628E-15, -72.));
#288 = CARTESIAN_POINT('', (4.85, -6.09470216961988E-15, -72.));
#289 = CARTESIAN_POINT('', (4.99999999999999, -5.00000000000001, -71.85));
#290 = CARTESIAN_POINT('', (4.99999999999999, -5.00000000000001, -72.));
#291 = CARTESIAN_POINT('', (4.84999999999999, -4.85, -72.));
#292 = CARTESIAN_POINT('', (-6.38236654642449E-15, -5., -71.85));
#293 = CARTESIAN_POINT('', (-4.94053601398408E-15, -5., -72.));
#294 = CARTESIAN_POINT('', (-4.95890571597128E-15, -4.85, -72.));
#295 = CARTESIAN_POINT('', (-5.00000000000001, -5., -71.85));
#296 = CARTESIAN_POINT('', (-5., -5., -72.));
#297 = CARTESIAN_POINT('', (-4.85, -4.85, -72.));
#298 = CARTESIAN_POINT('', (-5., 4.7057053257237E-15, -71.85));
#299 = CARTESIAN_POINT('', (-5., 4.71489017671731E-15, -72.));
#300 = CARTESIAN_POINT('', (-4.85, 4.7057053257237E-15, -72.));
#301 = ADVANCED_FACE('', (#302), #305, .T.);
#302 = FACE_OUTER_BOUND('', #303, .T.);
#303 = EDGE_LOOP('', (#304));
#304 = ORIENTED_EDGE('', *, *, #267, .T.);
#305 = B_SPLINE_SURFACE_WITH_KNOTS('', 1, 1, ((#306, #307), (#308, #309)), .UNSPECIFIED., .F., .F., .U., (2, 2), (2, 2), (0.0454545454545454, 0.954545454545454), (0.0454545454545454, 0.954545454545454), .UNSPECIFIED.);
#306 = CARTESIAN_POINT('', (4.85, -4.85, -72.));
#307 = CARTESIAN_POINT('', (4.85, 4.85, -72.));
#308 = CARTESIAN_POINT('', (-4.85, -4.85, -72.));
#309 = CARTESIAN_POINT('', (-4.85, 4.85, -72.));
#310 = PRESENTATION_STYLE_ASSIGNMENT((#311));
#311 = SURFACE_STYLE_USAGE(.POSITIVE., #312);
#312 = SURFACE_SIDE_STYLE('', (#313));
#313 = SURFACE_STYLE_FILL_AREA(#314);
#314 = FILL_AREA_STYLE('', (#315));
#315 = FILL_AREA_STYLE_COLOUR('', #316);
#316 = COLOUR_RGB('', 0.8, 0.8, 0.8);
#317 = STYLED_ITEM('', (#310), #194);
#318 = TRIMMED_CURVE('cutting part line', #319, (#323), (#324), .T., .CARTESIAN.);
#319 = LINE('', #320, #321);
#320 = CARTESIAN_POINT('', (3.33066907387547E-16, 0., -72.));
#321 = VECTOR('', #322, 4.85);
#322 = DIRECTION('', (4.85, 0., -1.4210854715202E-14));
#323 = CARTESIAN_POINT('', (3.33066907387547E-16, 0., -72.));
#324 = CARTESIAN_POINT('', (4.85, 0., -72.));
#325 = TRIMMED_CURVE('cutting part line', #326, (#331), (#332), .T., .CARTESIAN.);
#326 = CIRCLE('', #327, 0.149999999999979);
#327 = AXIS2_PLACEMENT_3D('', #328, #329, #330);
#328 = CARTESIAN_POINT('', (4.85000000000001, -1.57048222785105E-15, -71.85));
#329 = DIRECTION('', (1.66533453693588E-15, -1., -1.92528798825925E-14));
#330 = DIRECTION('', (-6.51330841113524E-14, 1.92528798825923E-14, -1.));
#331 = CARTESIAN_POINT('', (4.85, 1.31744975453739E-15, -72.));
#332 = CARTESIAN_POINT('', (4.99999999999999, -1.32068204731134E-15, -71.85));
#333 = TRIMMED_CURVE('cutting part line', #334, (#338), (#339), .T., .CARTESIAN.);
#334 = LINE('', #335, #336);
#335 = CARTESIAN_POINT('', (4.99999999999998, 2.97732145086962E-16, -71.85));
#336 = VECTOR('', #337, 14.85);
#337 = DIRECTION('', (2.1316282072803E-14, -2.97732145086962E-16, 14.85));
#338 = CARTESIAN_POINT('', (4.99999999999998, 2.97732145086962E-16, -71.85));
#339 = CARTESIAN_POINT('', (5., 0., -57.));
#340 = TRIMMED_CURVE('cutting part line', #341, (#345), (#346), .T., .CARTESIAN.);
#341 = LINE('', #342, #343);
#342 = CARTESIAN_POINT('', (5., 0., -57.));
#343 = VECTOR('', #344, 5.);
#344 = DIRECTION('', (-5., 0., -7.105427357601E-15));
#345 = CARTESIAN_POINT('', (5., 0., -57.));
#346 = CARTESIAN_POINT('', (-1.38777878078145E-17, 0., -57.));
#347 = TRIMMED_CURVE('cutting part line', #348, (#352), (#353), .T., .CARTESIAN.);
#348 = LINE('', #349, #350);
#349 = CARTESIAN_POINT('', (0., 0., -57.));
#350 = VECTOR('', #351, 15.);
#351 = DIRECTION('', (0., 0., -15.));
#352 = CARTESIAN_POINT('', (0., 0., -57.));
#353 = CARTESIAN_POINT('', (0., 0., -72.));
#354 = COMPOSITE_CURVE('cutting part line', (#355, #356, #357, #358, #359), .U.);
#355 = COMPOSITE_CURVE_SEGMENT(.CONTINUOUS., .T., #318);
#356 = COMPOSITE_CURVE_SEGMENT(.CONTINUOUS., .T., #325);
#357 = COMPOSITE_CURVE_SEGMENT(.CONTINUOUS., .T., #333);
#358 = COMPOSITE_CURVE_SEGMENT(.CONTINUOUS., .T., #340);
#359 = COMPOSITE_CURVE_SEGMENT(.CONTINUOUS., .T., #347);
#360 = GEOMETRIC_SET('', (#354, #403));
#361 = PRESENTATION_STYLE_ASSIGNMENT((#362));
#362 = CURVE_STYLE('', #364, POSITIVE_LENGTH_MEASURE(1.E-6), #363);
#363 = COLOUR_RGB('', 0., 0., 1.);
#364 = DRAUGHTING_PRE_DEFINED_CURVE_FONT('continuous');
#365 = STYLED_ITEM('', (#361), #354);
#366 = PRESENTATION_STYLE_ASSIGNMENT((#367));
#367 = CURVE_STYLE('', #369, POSITIVE_LENGTH_MEASURE(1.E-6), #368);
#368 = COLOUR_RGB('', 0., 0., 1.);
#369 = DRAUGHTING_PRE_DEFINED_CURVE_FONT('continuous');
#370 = OVER_RIDING_STYLED_ITEM('', (#366), #318, #365);
#371 = PRESENTATION_STYLE_ASSIGNMENT((#372));
#372 = CURVE_STYLE('', #374, POSITIVE_LENGTH_MEASURE(1.E-6), #373);
#373 = COLOUR_RGB('', 0., 0., 1.);
#374 = DRAUGHTING_PRE_DEFINED_CURVE_FONT('continuous');
#375 = OVER_RIDING_STYLED_ITEM('', (#371), #325, #365);
#376 = PRESENTATION_STYLE_ASSIGNMENT((#377));
#377 = CURVE_STYLE('', #379, POSITIVE_LENGTH_MEASURE(1.E-6), #378);
#378 = COLOUR_RGB('', 0., 0., 1.);
#379 = DRAUGHTING_PRE_DEFINED_CURVE_FONT('continuous');
#380 = OVER_RIDING_STYLED_ITEM('', (#376), #333, #365);
#381 = PRESENTATION_STYLE_ASSIGNMENT((#382));
#382 = CURVE_STYLE('', #384, POSITIVE_LENGTH_MEASURE(1.E-6), #383);
#383 = COLOUR_RGB('', 0., 0., 1.);
#384 = DRAUGHTING_PRE_DEFINED_CURVE_FONT('continuous');
#385 = OVER_RIDING_STYLED_ITEM('', (#381), #340, #365);
#386 = PRESENTATION_STYLE_ASSIGNMENT((#387));
#387 = CURVE_STYLE('', #389, POSITIVE_LENGTH_MEASURE(1.E-6), #388);
#388 = COLOUR_RGB('', 0., 0., 1.);
#389 = DRAUGHTING_PRE_DEFINED_CURVE_FONT('continuous');
#390 = OVER_RIDING_STYLED_ITEM('', (#386), #347, #365);
#391 = AXIS2_PLACEMENT_3D('MCS', #392, #393, #394);
#392 = CARTESIAN_POINT('', (0., 0., -40.));
#393 = DIRECTION('', (0., 0., 1.));
#394 = DIRECTION('', (1., 0., 0.));
#395 = AXIS2_PLACEMENT_3D('PCS', #396, #397, #398);
#396 = CARTESIAN_POINT('', (0., 0., 0.));
#397 = DIRECTION('', (0., 0., 1.));
#398 = DIRECTION('', (1., 0., 0.));
#399 = AXIS2_PLACEMENT_3D('CIP', #400, #401, #402);
#400 = CARTESIAN_POINT('', (0., 0., -72.));
#401 = DIRECTION('', (0., 0., 1.));
#402 = DIRECTION('', (1., 0., 0.));
#403 = CARTESIAN_POINT('CRP', (5., 0., -72.));
#404 = (
   GEOMETRIC_REPRESENTATION_CONTEXT (3)
   GLOBAL_UNCERTAINTY_ASSIGNED_CONTEXT ((#406))
   GLOBAL_UNIT_ASSIGNED_CONTEXT ((#405, #407, #408))
   REPRESENTATION_CONTEXT ('', '3D')
);
#405 = (
   LENGTH_UNIT ()
   NAMED_UNIT (*)
   SI_UNIT (.MILLI., .METRE.)
);
#406 = UNCERTAINTY_MEASURE_WITH_UNIT(LENGTH_MEASURE(1.E-6), #405, 'DISTANCE_ACCURACY_VALUE', '');
#407 = (
   NAMED_UNIT (*)
   SI_UNIT ($, .STERADIAN.)
   SOLID_ANGLE_UNIT ()
);
#408 = (
   NAMED_UNIT (*)
   PLANE_ANGLE_UNIT ()
   SI_UNIT ($, .RADIAN.)
);
#409 = SHAPE_REPRESENTATION('', (), #404);
#410 = PRODUCT_DEFINITION_SHAPE('', '', #411);
#411 = PRODUCT_DEFINITION('', '', #414, #418);
#412 = APPLICATION_CONTEXT('configuration controlled 3D designs of mechanical parts and assemblies');
#413 = APPLICATION_PROTOCOL_DEFINITION('International Standard', 'automotive_design', 2002, #412);
#414 = PRODUCT_DEFINITION_FORMATION_WITH_SPECIFIED_SOURCE('', '', #415, .NOT_KNOWN.);
#415 = PRODUCT('product-name', '2P121-1000-NC       H10F', '', (#416));
#416 = PRODUCT_CONTEXT('', #412, 'mechanical');
#417 = PRODUCT_RELATED_PRODUCT_CATEGORY('detail', '', (#415));
#418 = PRODUCT_DEFINITION_CONTEXT('part definition', #412, 'design');
#419 = SHAPE_DEFINITION_REPRESENTATION(#410, #409);
#420 = CONSTRUCTIVE_GEOMETRY_REPRESENTATION('supplemental geometry', (#391, #395, #399), #404);
#421 = CONSTRUCTIVE_GEOMETRY_REPRESENTATION_RELATIONSHIP('', '', #409, #420);
#422 = SHAPE_REPRESENTATION_RELATIONSHIP('', '', #409, #423);
#423 = SHAPE_REPRESENTATION('', (#360), #404);
#424 = SHAPE_REPRESENTATION_RELATIONSHIP('', '', #409, #425);
#425 = ADVANCED_BREP_SHAPE_REPRESENTATION('', (#1, #194), #404);
ENDSEC;
END-ISO-10303-21;
