ISO-10303-21;
HEADER;
FILE_DESCRIPTION(('STEP'), '1');
FILE_NAME('C:\\Users\\ds2002\\OneDrive - Sandvik\\HomeShare\\Documents\\Batchrepair\\CorSRT2\\NEW_MILSQ_SLD\\Output\\MOD000000000000000020082306200000.stp', '2019-01-02T12:10:29', (''), (''), 'Express v3.0.0.0', 'Express Tool', 'Unknown');
FILE_SCHEMA(('AUTOMOTIVE_DESIGN'));
ENDSEC;

DATA;
#1 = MANIFOLD_SOLID_BREP('NOCUT', #2);
#2 = CLOSED_SHELL('', (#3, #50, #89, #128, #167, #176));
#3 = ADVANCED_FACE('', (#4), #31, .T.);
#4 = FACE_OUTER_BOUND('', #5, .T.);
#5 = EDGE_LOOP('', (#6, #16, #23, #24));
#6 = ORIENTED_EDGE('', *, *, #7, .F.);
#7 = EDGE_CURVE('', #8, #10, #12, .T.);
#8 = VERTEX_POINT('', #9);
#9 = CARTESIAN_POINT('', (-2.85, 2.55032695922436E-15, -38.8));
#10 = VERTEX_POINT('', #11);
#11 = CARTESIAN_POINT('', (-2.85, 3.11366448683215E-15, -48.));
#12 = LINE('', #13, #14);
#13 = CARTESIAN_POINT('', (-2.85, 2.55032695922436E-15, -38.8));
#14 = VECTOR('', #15, 9.2);
#15 = DIRECTION('', (0., 5.6333752760779E-16, -9.2));
#16 = ORIENTED_EDGE('', *, *, #17, .T.);
#17 = EDGE_CURVE('', #8, #8, #18, .T.);
#18 = CIRCLE('', #19, 2.85);
#19 = AXIS2_PLACEMENT_3D('', #20, #21, #22);
#20 = CARTESIAN_POINT('', (-8.32667268468867E-17, 1.11022302462516E-15, -38.8));
#21 = DIRECTION('', (0., 0., -1.));
#22 = DIRECTION('', (-1., 5.05299626175159E-16, 0.));
#23 = ORIENTED_EDGE('', *, *, #7, .T.);
#24 = ORIENTED_EDGE('', *, *, #25, .F.);
#25 = EDGE_CURVE('', #10, #10, #26, .T.);
#26 = CIRCLE('', #27, 2.85);
#27 = AXIS2_PLACEMENT_3D('', #28, #29, #30);
#28 = CARTESIAN_POINT('', (1.37390099297363E-15, 1.16573417585641E-15, -48.));
#29 = DIRECTION('', (0., 0., -1.));
#30 = DIRECTION('', (-1., 6.83484319640609E-16, 0.));
#31 = (
   BOUNDED_SURFACE ()
   B_SPLINE_SURFACE (2, 1, ((#32, #33), (#34, #35), (#36, #37), (#38, #39), (#40, #41), (#42, #43), (#44, #45), (#46, #47), (#48, #49)), .UNSPECIFIED., .T., .F., .U.)
   B_SPLINE_SURFACE_WITH_KNOTS ((3, 2, 2, 2, 3), (2, 2), (0., 4.47676953136545, 8.9535390627309, 13.4303085940963, 17.9070781254618), (0., 1.), .UNSPECIFIED.)
   GEOMETRIC_REPRESENTATION_ITEM ()
   RATIONAL_B_SPLINE_SURFACE (((1., 1.), (0.707106781186548, 0.707106781186548), (1., 1.), (0.707106781186548, 0.707106781186548), (1., 1.), (0.707106781186548, 0.707106781186548), (1., 1.), (0.707106781186548, 0.707106781186548), (1., 1.)))
   REPRESENTATION_ITEM ('')
   SURFACE ()
);
#32 = CARTESIAN_POINT('', (-2.85, 2.55032695922436E-15, -38.8));
#33 = CARTESIAN_POINT('', (-2.84999999999998, 2.99441616907441E-15, -48.));
#34 = CARTESIAN_POINT('', (-2.85, 2.85, -38.8));
#35 = CARTESIAN_POINT('', (-2.84999999999997, 2.85, -48.));
#36 = CARTESIAN_POINT('', (3.04194860512095E-15, 2.85, -38.8));
#37 = CARTESIAN_POINT('', (2.59787667419382E-14, 2.85, -48.));
#38 = CARTESIAN_POINT('', (2.85, 2.85, -38.8));
#39 = CARTESIAN_POINT('', (2.85000000000003, 2.85, -48.));
#40 = CARTESIAN_POINT('', (2.85, -7.5801268945466E-16, -38.8));
#41 = CARTESIAN_POINT('', (2.85000000000002, -3.13923479604612E-16, -48.));
#42 = CARTESIAN_POINT('', (2.85, -2.85, -38.8));
#43 = CARTESIAN_POINT('', (2.85000000000002, -2.85, -48.));
#44 = CARTESIAN_POINT('', (8.26332941989324E-17, -2.85, -38.8));
#45 = CARTESIAN_POINT('', (2.30194514310162E-14, -2.85, -48.));
#46 = CARTESIAN_POINT('', (-2.85, -2.85, -38.8));
#47 = CARTESIAN_POINT('', (-2.84999999999998, -2.85, -48.));
#48 = CARTESIAN_POINT('', (-2.85, 2.55032695922436E-15, -38.8));
#49 = CARTESIAN_POINT('', (-2.84999999999998, 2.99441616907441E-15, -48.));
#50 = ADVANCED_FACE('', (#51), #70, .T.);
#51 = FACE_OUTER_BOUND('', #52, .T.);
#52 = EDGE_LOOP('', (#53, #61, #68, #69));
#53 = ORIENTED_EDGE('', *, *, #54, .F.);
#54 = EDGE_CURVE('', #55, #8, #57, .T.);
#55 = VERTEX_POINT('', #56);
#56 = CARTESIAN_POINT('', (-3., 2.54114210823076E-15, -38.5));
#57 = LINE('', #58, #59);
#58 = CARTESIAN_POINT('', (-3., 2.54114210823076E-15, -38.5));
#59 = VECTOR('', #60, 0.335410196624966);
#60 = DIRECTION('', (0.15, 9.18485099360009E-18, -0.299999999999997));
#61 = ORIENTED_EDGE('', *, *, #62, .T.);
#62 = EDGE_CURVE('', #55, #55, #63, .T.);
#63 = CIRCLE('', #64, 3.);
#64 = AXIS2_PLACEMENT_3D('', #65, #66, #67);
#65 = CARTESIAN_POINT('', (6.66133814775094E-16, 2.16493489801906E-15, -38.5));
#66 = DIRECTION('', (2.368475785867E-15, -7.70540152533533E-15, -1.));
#67 = DIRECTION('', (-1., 1.25402403403901E-16, -2.368475785867E-15));
#68 = ORIENTED_EDGE('', *, *, #54, .T.);
#69 = ORIENTED_EDGE('', *, *, #17, .F.);
#70 = (
   BOUNDED_SURFACE ()
   B_SPLINE_SURFACE (2, 1, ((#71, #72), (#73, #74), (#75, #76), (#77, #78), (#79, #80), (#81, #82), (#83, #84), (#85, #86), (#87, #88)), .UNSPECIFIED., .T., .F., .U.)
   B_SPLINE_SURFACE_WITH_KNOTS ((3, 2, 2, 2, 3), (2, 2), (0., 0.25, 0.5, 0.75, 1.), (0., 1.), .UNSPECIFIED.)
   GEOMETRIC_REPRESENTATION_ITEM ()
   RATIONAL_B_SPLINE_SURFACE (((1., 1.), (0.707106781186548, 0.707106781186548), (1., 1.), (0.707106781186548, 0.707106781186548), (1., 1.), (0.707106781186548, 0.707106781186548), (1., 1.), (0.707106781186548, 0.707106781186548), (1., 1.)))
   REPRESENTATION_ITEM ('')
   SURFACE ()
);
#71 = CARTESIAN_POINT('', (-3., 2.54114210823076E-15, -38.5));
#72 = CARTESIAN_POINT('', (-2.85, 1.46761987432628E-15, -38.8));
#73 = CARTESIAN_POINT('', (-3., 3., -38.5));
#74 = CARTESIAN_POINT('', (-2.85, 2.85, -38.8));
#75 = CARTESIAN_POINT('', (8.58644005114721E-16, 3., -38.5));
#76 = CARTESIAN_POINT('', (1.55956123135785E-15, 2.85, -38.8));
#77 = CARTESIAN_POINT('', (3., 3., -38.5));
#78 = CARTESIAN_POINT('', (2.85, 2.85, -38.8));
#79 = CARTESIAN_POINT('', (3., 2.15612172755156E-15, -38.5));
#80 = CARTESIAN_POINT('', (2.85, 1.10185051268103E-15, -38.8));
#81 = CARTESIAN_POINT('', (3., -3., -38.5));
#82 = CARTESIAN_POINT('', (2.85, -2.85, -38.8));
#83 = CARTESIAN_POINT('', (8.41017664179673E-16, -3., -38.5));
#84 = CARTESIAN_POINT('', (1.54281620746955E-15, -2.85, -38.8));
#85 = CARTESIAN_POINT('', (-3., -3., -38.5));
#86 = CARTESIAN_POINT('', (-2.85, -2.85, -38.8));
#87 = CARTESIAN_POINT('', (-3., 2.54114210823076E-15, -38.5));
#88 = CARTESIAN_POINT('', (-2.85, 1.46761987432628E-15, -38.8));
#89 = ADVANCED_FACE('', (#90), #109, .T.);
#90 = FACE_OUTER_BOUND('', #91, .T.);
#91 = EDGE_LOOP('', (#92, #100, #107, #108));
#92 = ORIENTED_EDGE('', *, *, #93, .T.);
#93 = EDGE_CURVE('', #55, #94, #96, .T.);
#94 = VERTEX_POINT('', #95);
#95 = CARTESIAN_POINT('', (-3., 2.02066721859313E-16, -0.299999999999997));
#96 = LINE('', #97, #98);
#97 = CARTESIAN_POINT('', (-3., 2.54114210823076E-15, -38.5));
#98 = VECTOR('', #99, 38.2);
#99 = DIRECTION('', (0., -2.33907538637145E-15, 38.2));
#100 = ORIENTED_EDGE('', *, *, #101, .T.);
#101 = EDGE_CURVE('', #94, #94, #102, .T.);
#102 = CIRCLE('', #103, 3.);
#103 = AXIS2_PLACEMENT_3D('', #104, #105, #106);
#104 = CARTESIAN_POINT('', (1.346145417358E-15, -1.88737914186277E-15, -0.299999999999997));
#105 = DIRECTION('', (-1.85037170770859E-17, 6.01984494166833E-17, -1.));
#106 = DIRECTION('', (-1., 6.96481954574026E-16, 1.85037170770859E-17));
#107 = ORIENTED_EDGE('', *, *, #93, .F.);
#108 = ORIENTED_EDGE('', *, *, #62, .F.);
#109 = (
   BOUNDED_SURFACE ()
   B_SPLINE_SURFACE (1, 2, ((#110, #111, #112, #113, #114, #115, #116, #117, #118), (#119, #120, #121, #122, #123, #124, #125, #126, #127)), .UNSPECIFIED., .F., .T., .U.)
   B_SPLINE_SURFACE_WITH_KNOTS ((2, 2), (3, 2, 2, 2, 3), (0., 1.), (0., 4.7123889803847, 9.4247779607694, 14.1371669411541, 18.8495559215388), .UNSPECIFIED.)
   GEOMETRIC_REPRESENTATION_ITEM ()
   RATIONAL_B_SPLINE_SURFACE (((1., 0.707106781186548, 1., 0.707106781186548, 1., 0.707106781186548, 1., 0.707106781186548, 1.), (1., 0.707106781186548, 1., 0.707106781186548, 1., 0.707106781186548, 1., 0.707106781186548, 1.)))
   REPRESENTATION_ITEM ('')
   SURFACE ()
);
#110 = CARTESIAN_POINT('', (-3., 2.31149046864711E-15, -38.5));
#111 = CARTESIAN_POINT('', (-3., 3., -38.5));
#112 = CARTESIAN_POINT('', (2.5450522688633E-15, 3., -38.5));
#113 = CARTESIAN_POINT('', (3., 3., -38.5));
#114 = CARTESIAN_POINT('', (3., -1.50000721905284E-15, -38.5));
#115 = CARTESIAN_POINT('', (3., -3., -38.5));
#116 = CARTESIAN_POINT('', (-8.99051379092449E-16, -3., -38.5));
#117 = CARTESIAN_POINT('', (-3., -3., -38.5));
#118 = CARTESIAN_POINT('', (-3., 2.31149046864711E-15, -38.5));
#119 = CARTESIAN_POINT('', (-3., 2.02066721859312E-16, -0.299999999999997));
#120 = CARTESIAN_POINT('', (-3., 3., -0.299999999999997));
#121 = CARTESIAN_POINT('', (3.25189426120798E-15, 3., -0.299999999999997));
#122 = CARTESIAN_POINT('', (3., 3., -0.299999999999997));
#123 = CARTESIAN_POINT('', (3., -3.60943096584064E-15, -0.299999999999997));
#124 = CARTESIAN_POINT('', (3., -3., -0.299999999999997));
#125 = CARTESIAN_POINT('', (-1.92209386747767E-16, -3., -0.299999999999997));
#126 = CARTESIAN_POINT('', (-3., -3., -0.299999999999997));
#127 = CARTESIAN_POINT('', (-3., 2.02066721859312E-16, -0.299999999999997));
#128 = ADVANCED_FACE('', (#129), #148, .T.);
#129 = FACE_OUTER_BOUND('', #130, .T.);
#130 = EDGE_LOOP('', (#131, #139, #146, #147));
#131 = ORIENTED_EDGE('', *, *, #132, .T.);
#132 = EDGE_CURVE('', #94, #133, #135, .T.);
#133 = VERTEX_POINT('', #134);
#134 = CARTESIAN_POINT('', (-2.7, 1.65327317884893E-16, 0.));
#135 = LINE('', #136, #137);
#136 = CARTESIAN_POINT('', (-3., 2.02066721859313E-16, -0.299999999999997));
#137 = VECTOR('', #138, 0.424264068711926);
#138 = DIRECTION('', (0.3, -3.673940397442E-17, 0.299999999999997));
#139 = ORIENTED_EDGE('', *, *, #140, .T.);
#140 = EDGE_CURVE('', #133, #133, #141, .T.);
#141 = CIRCLE('', #142, 2.7);
#142 = AXIS2_PLACEMENT_3D('', #143, #144, #145);
#143 = CARTESIAN_POINT('', (9.22872889219661E-16, -1.27675647831893E-15, -8.0118685686509E-32));
#144 = DIRECTION('', (3.03091835913145E-33, 6.12323399573678E-17, -1.));
#145 = DIRECTION('', (-1., 5.34105109705119E-16, 2.96735872912996E-32));
#146 = ORIENTED_EDGE('', *, *, #132, .F.);
#147 = ORIENTED_EDGE('', *, *, #101, .F.);
#148 = (
   BOUNDED_SURFACE ()
   B_SPLINE_SURFACE (1, 2, ((#149, #150, #151, #152, #153, #154, #155, #156, #157), (#158, #159, #160, #161, #162, #163, #164, #165, #166)), .UNSPECIFIED., .F., .T., .U.)
   B_SPLINE_SURFACE_WITH_KNOTS ((2, 2), (3, 2, 2, 2, 3), (0., 1.), (0., 0.25, 0.5, 0.75, 1.), .UNSPECIFIED.)
   GEOMETRIC_REPRESENTATION_ITEM ()
   RATIONAL_B_SPLINE_SURFACE (((1., 0.707106781186548, 1., 0.707106781186548, 1., 0.707106781186548, 1., 0.707106781186548, 1.), (1., 0.707106781186548, 1., 0.707106781186548, 1., 0.707106781186548, 1., 0.707106781186548, 1.)))
   REPRESENTATION_ITEM ('')
   SURFACE ()
);
#149 = CARTESIAN_POINT('', (-3., 1.49129302665284E-15, -0.299999999999997));
#150 = CARTESIAN_POINT('', (-3., 3., -0.299999999999985));
#151 = CARTESIAN_POINT('', (2.34149119846292E-15, 3., -0.299999999999985));
#152 = CARTESIAN_POINT('', (3., 3., -0.299999999999985));
#153 = CARTESIAN_POINT('', (3., -1.34594359183367E-15, -0.299999999999997));
#154 = CARTESIAN_POINT('', (3., -3., -0.300000000000009));
#155 = CARTESIAN_POINT('', (-1.28351380279387E-16, -3., -0.300000000000009));
#156 = CARTESIAN_POINT('', (-3., -3., -0.300000000000009));
#157 = CARTESIAN_POINT('', (-3., 1.49129302665284E-15, -0.299999999999997));
#158 = CARTESIAN_POINT('', (-2.7, 1.65327317884893E-16, -2.18952885050753E-47));
#159 = CARTESIAN_POINT('', (-2.7, 2.7, 1.04916075827078E-14));
#160 = CARTESIAN_POINT('', (2.19962936753859E-15, 2.7, 1.04916075827078E-14));
#161 = CARTESIAN_POINT('', (2.7, 2.7, 1.04916075827078E-14));
#162 = CARTESIAN_POINT('', (2.7, -2.38818563875297E-15, 1.12461399303431E-30));
#163 = CARTESIAN_POINT('', (2.7, -2.7, -1.04916075827078E-14));
#164 = CARTESIAN_POINT('', (-2.32289533294833E-17, -2.7, -1.04916075827078E-14));
#165 = CARTESIAN_POINT('', (-2.7, -2.7, -1.04916075827078E-14));
#166 = CARTESIAN_POINT('', (-2.7, 1.65327317884893E-16, -2.18952885050753E-47));
#167 = ADVANCED_FACE('', (#168), #171, .T.);
#168 = FACE_OUTER_BOUND('', #169, .T.);
#169 = EDGE_LOOP('', (#170));
#170 = ORIENTED_EDGE('', *, *, #140, .F.);
#171 = B_SPLINE_SURFACE_WITH_KNOTS('', 1, 1, ((#172, #173), (#174, #175)), .UNSPECIFIED., .F., .F., .U., (2, 2), (2, 2), (0.0454545454545454, 0.954545454545454), (0.0454545454545454, 0.954545454545454), .UNSPECIFIED.);
#172 = CARTESIAN_POINT('', (2.7, -2.7, -1.65327317884893E-16));
#173 = CARTESIAN_POINT('', (-2.7, -2.7, -1.65327317884893E-16));
#174 = CARTESIAN_POINT('', (2.7, 2.7, 1.65327317884893E-16));
#175 = CARTESIAN_POINT('', (-2.7, 2.7, 1.65327317884893E-16));
#176 = ADVANCED_FACE('', (#177), #180, .T.);
#177 = FACE_OUTER_BOUND('', #178, .T.);
#178 = EDGE_LOOP('', (#179));
#179 = ORIENTED_EDGE('', *, *, #25, .T.);
#180 = B_SPLINE_SURFACE_WITH_KNOTS('', 1, 1, ((#181, #182), (#183, #184)), .UNSPECIFIED., .F., .F., .U., (2, 2), (2, 2), (0.49308178753543, 0.542536808023405), (0.457463191976595, 0.50691821246457), .UNSPECIFIED.);
#181 = CARTESIAN_POINT('', (-2.85000000000002, 2.85000000000002, -48.));
#182 = CARTESIAN_POINT('', (-2.85000000000002, -2.84999999999997, -48.));
#183 = CARTESIAN_POINT('', (2.84999999999999, 2.85000000000002, -48.));
#184 = CARTESIAN_POINT('', (2.84999999999999, -2.84999999999997, -48.));
#185 = DRAUGHTING_MODEL('', (#193, #317, #365, #370, #375, #380, #385, #390), #404);
#186 = PRESENTATION_STYLE_ASSIGNMENT((#187));
#187 = SURFACE_STYLE_USAGE(.POSITIVE., #188);
#188 = SURFACE_SIDE_STYLE('', (#189));
#189 = SURFACE_STYLE_FILL_AREA(#190);
#190 = FILL_AREA_STYLE('', (#191));
#191 = FILL_AREA_STYLE_COLOUR('', #192);
#192 = COLOUR_RGB('', 0.50196078431373, 0.50196078431373, 0.50196078431373);
#193 = STYLED_ITEM('', (#186), #1);
#194 = MANIFOLD_SOLID_BREP('CUT', #195);
#195 = CLOSED_SHELL('', (#196, #213, #252, #301));
#196 = ADVANCED_FACE('', (#197), #208, .T.);
#197 = FACE_OUTER_BOUND('', #198, .T.);
#198 = EDGE_LOOP('', (#199));
#199 = ORIENTED_EDGE('', *, *, #200, .F.);
#200 = EDGE_CURVE('', #201, #201, #203, .T.);
#201 = VERTEX_POINT('', #202);
#202 = CARTESIAN_POINT('', (-3., 3.12284933782575E-15, -48.));
#203 = CIRCLE('', #204, 3.);
#204 = AXIS2_PLACEMENT_3D('', #205, #206, #207);
#205 = CARTESIAN_POINT('', (4.02455846426619E-16, 1.33226762955019E-15, -48.));
#206 = DIRECTION('', (0., 0., -1.));
#207 = DIRECTION('', (-1., 5.96860569425187E-16, 0.));
#208 = B_SPLINE_SURFACE_WITH_KNOTS('', 1, 1, ((#209, #210), (#211, #212)), .UNSPECIFIED., .F., .F., .U., (2, 2), (2, 2), (0.0454545454545454, 0.954545454545454), (0.0454545454545455, 0.954545454545454), .UNSPECIFIED.);
#209 = CARTESIAN_POINT('', (3., -3., -48.));
#210 = CARTESIAN_POINT('', (-3., -3., -48.));
#211 = CARTESIAN_POINT('', (3., 3., -48.));
#212 = CARTESIAN_POINT('', (-3., 3., -48.));
#213 = ADVANCED_FACE('', (#214), #233, .T.);
#214 = FACE_OUTER_BOUND('', #215, .T.);
#215 = EDGE_LOOP('', (#216, #224, #225, #226));
#216 = ORIENTED_EDGE('', *, *, #217, .F.);
#217 = EDGE_CURVE('', #201, #218, #220, .T.);
#218 = VERTEX_POINT('', #219);
#219 = CARTESIAN_POINT('', (-3., 3.66475554644845E-15, -56.85));
#220 = LINE('', #221, #222);
#221 = CARTESIAN_POINT('', (-3., 3.12284933782575E-15, -48.));
#222 = VECTOR('', #223, 8.85);
#223 = DIRECTION('', (0., 5.419062086227E-16, -8.85));
#224 = ORIENTED_EDGE('', *, *, #200, .T.);
#225 = ORIENTED_EDGE('', *, *, #217, .T.);
#226 = ORIENTED_EDGE('', *, *, #227, .F.);
#227 = EDGE_CURVE('', #218, #218, #228, .T.);
#228 = CIRCLE('', #229, 3.);
#229 = AXIS2_PLACEMENT_3D('', #230, #231, #232);
#230 = CARTESIAN_POINT('', (-3.60822483003176E-16, -5.55111512312578E-17, -56.85));
#231 = DIRECTION('', (-9.99660038668604E-30, -8.06119657463333E-15, -1.));
#232 = DIRECTION('', (-1., 1.24008889922657E-15, 0.));
#233 = (
   BOUNDED_SURFACE ()
   B_SPLINE_SURFACE (2, 1, ((#234, #235), (#236, #237), (#238, #239), (#240, #241), (#242, #243), (#244, #245), (#246, #247), (#248, #249), (#250, #251)), .UNSPECIFIED., .T., .F., .U.)
   B_SPLINE_SURFACE_WITH_KNOTS ((3, 2, 2, 2, 3), (2, 2), (0., 4.7123889803847, 9.4247779607694, 14.1371669411541, 18.8495559215388), (0., 1.), .UNSPECIFIED.)
   GEOMETRIC_REPRESENTATION_ITEM ()
   RATIONAL_B_SPLINE_SURFACE (((1., 1.), (0.707106781186548, 0.707106781186548), (1., 1.), (0.707106781186548, 0.707106781186548), (1., 1.), (0.707106781186548, 0.707106781186548), (1., 1.), (0.707106781186548, 0.707106781186548), (1., 1.)))
   REPRESENTATION_ITEM ('')
   SURFACE ()
);
#234 = CARTESIAN_POINT('', (-3., 3.12284933782575E-15, -48.));
#235 = CARTESIAN_POINT('', (-3., 2.4012043718194E-15, -56.85));
#236 = CARTESIAN_POINT('', (-3., 3., -48.));
#237 = CARTESIAN_POINT('', (-3., 3., -56.85));
#238 = CARTESIAN_POINT('', (2.63384098618173E-15, 3., -48.));
#239 = CARTESIAN_POINT('', (2.63384098618173E-15, 3., -56.85));
#240 = CARTESIAN_POINT('', (3., 3., -48.));
#241 = CARTESIAN_POINT('', (3., 3., -56.85));
#242 = CARTESIAN_POINT('', (3., -1.42318766853136E-15, -48.));
#243 = CARTESIAN_POINT('', (3., -2.14483263453771E-15, -56.85));
#244 = CARTESIAN_POINT('', (3., -3., -48.));
#245 = CARTESIAN_POINT('', (3., -3., -56.85));
#246 = CARTESIAN_POINT('', (-1.54480198043117E-15, -3., -48.));
#247 = CARTESIAN_POINT('', (-1.54480198043117E-15, -3., -56.85));
#248 = CARTESIAN_POINT('', (-3., -3., -48.));
#249 = CARTESIAN_POINT('', (-3., -3., -56.85));
#250 = CARTESIAN_POINT('', (-3., 3.12284933782575E-15, -48.));
#251 = CARTESIAN_POINT('', (-3., 2.4012043718194E-15, -56.85));
#252 = ADVANCED_FACE('', (#253), #273, .T.);
#253 = FACE_OUTER_BOUND('', #254, .T.);
#254 = EDGE_LOOP('', (#255, #264, #265, #266));
#255 = ORIENTED_EDGE('', *, *, #256, .F.);
#256 = EDGE_CURVE('', #218, #257, #259, .T.);
#257 = VERTEX_POINT('', #258);
#258 = CARTESIAN_POINT('', (-2.85, 3.66475554644845E-15, -57.));
#259 = CIRCLE('', #260, 0.149999999999981);
#260 = AXIS2_PLACEMENT_3D('', #261, #262, #263);
#261 = CARTESIAN_POINT('', (-2.85000000000002, 3.65557069545484E-15, -56.85));
#262 = DIRECTION('', (-6.12323399573938E-17, -1., -6.12323399573947E-17));
#263 = DIRECTION('', (-1., 6.1232339957388E-17, 9.47390314346905E-14));
#264 = ORIENTED_EDGE('', *, *, #227, .T.);
#265 = ORIENTED_EDGE('', *, *, #256, .T.);
#266 = ORIENTED_EDGE('', *, *, #267, .F.);
#267 = EDGE_CURVE('', #257, #257, #268, .T.);
#268 = CIRCLE('', #269, 2.85);
#269 = AXIS2_PLACEMENT_3D('', #270, #271, #272);
#270 = CARTESIAN_POINT('', (8.32667268468867E-17, 8.88178419700125E-16, -57.));
#271 = DIRECTION('', (0., 0., -1.));
#272 = DIRECTION('', (-1., 9.74237588332745E-16, 0.));
#273 = (
   BOUNDED_SURFACE ()
   B_SPLINE_SURFACE (2, 2, ((#274, #275, #276), (#277, #278, #279), (#280, #281, #282), (#283, #284, #285), (#286, #287, #288), (#289, #290, #291), (#292, #293, #294), (#295, #296, #297), (#298, #299, #300)), .UNSPECIFIED., .T., .F., .U.)
   B_SPLINE_SURFACE_WITH_KNOTS ((3, 2, 2, 2, 3), (3, 3), (0., 0.25, 0.5, 0.75, 1.), (0., 1.), .UNSPECIFIED.)
   GEOMETRIC_REPRESENTATION_ITEM ()
   RATIONAL_B_SPLINE_SURFACE (((1., 0.707106781186547, 1.), (0.707106781186548, 0.5, 0.707106781186548), (1., 0.707106781186547, 1.), (0.707106781186548, 0.5, 0.707106781186548), (1., 0.707106781186547, 1.), (0.707106781186548, 0.5, 0.707106781186548), (1., 0.707106781186547, 1.), (0.707106781186548, 0.5, 0.707106781186548), (1., 0.707106781186547, 1.)))
   REPRESENTATION_ITEM ('')
   SURFACE ()
);
#274 = CARTESIAN_POINT('', (-3., 3.66475554644845E-15, -56.85));
#275 = CARTESIAN_POINT('', (-3., 3.67394039744206E-15, -57.));
#276 = CARTESIAN_POINT('', (-2.85, 3.66475554644845E-15, -57.));
#277 = CARTESIAN_POINT('', (-3., 3., -56.85));
#278 = CARTESIAN_POINT('', (-3., 3., -57.));
#279 = CARTESIAN_POINT('', (-2.85, 2.85, -57.));
#280 = CARTESIAN_POINT('', (1.84347956525424E-15, 3., -56.85));
#281 = CARTESIAN_POINT('', (1.85266441624785E-15, 3., -57.));
#282 = CARTESIAN_POINT('', (1.85266441624785E-15, 2.85, -57.));
#283 = CARTESIAN_POINT('', (3., 3., -56.85));
#284 = CARTESIAN_POINT('', (3., 3., -57.));
#285 = CARTESIAN_POINT('', (2.85, 2.85, -57.));
#286 = CARTESIAN_POINT('', (3., 6.9944138194632E-16, -56.85));
#287 = CARTESIAN_POINT('', (3., 6.9025653095271E-16, -57.));
#288 = CARTESIAN_POINT('', (2.85, 6.8107167995911E-16, -57.));
#289 = CARTESIAN_POINT('', (3., -3., -56.85));
#290 = CARTESIAN_POINT('', (3., -3., -57.));
#291 = CARTESIAN_POINT('', (2.85, -2.85, -57.));
#292 = CARTESIAN_POINT('', (-7.54440559503683E-16, -3., -56.85));
#293 = CARTESIAN_POINT('', (-7.63625410497293E-16, -3., -57.));
#294 = CARTESIAN_POINT('', (-7.81995112484498E-16, -2.85, -57.));
#295 = CARTESIAN_POINT('', (-3., -3., -56.85));
#296 = CARTESIAN_POINT('', (-3., -3., -57.));
#297 = CARTESIAN_POINT('', (-2.85, -2.85, -57.));
#298 = CARTESIAN_POINT('', (-3., 3.66475554644845E-15, -56.85));
#299 = CARTESIAN_POINT('', (-3., 3.67394039744206E-15, -57.));
#300 = CARTESIAN_POINT('', (-2.85, 3.66475554644845E-15, -57.));
#301 = ADVANCED_FACE('', (#302), #305, .T.);
#302 = FACE_OUTER_BOUND('', #303, .T.);
#303 = EDGE_LOOP('', (#304));
#304 = ORIENTED_EDGE('', *, *, #267, .T.);
#305 = B_SPLINE_SURFACE_WITH_KNOTS('', 1, 1, ((#306, #307), (#308, #309)), .UNSPECIFIED., .F., .F., .U., (2, 2), (2, 2), (0.0454545454545454, 0.954545454545454), (0.0454545454545454, 0.954545454545455), .UNSPECIFIED.);
#306 = CARTESIAN_POINT('', (2.85, -2.85, -57.));
#307 = CARTESIAN_POINT('', (2.85, 2.85, -57.));
#308 = CARTESIAN_POINT('', (-2.85, -2.85, -57.));
#309 = CARTESIAN_POINT('', (-2.85, 2.85, -57.));
#310 = PRESENTATION_STYLE_ASSIGNMENT((#311));
#311 = SURFACE_STYLE_USAGE(.POSITIVE., #312);
#312 = SURFACE_SIDE_STYLE('', (#313));
#313 = SURFACE_STYLE_FILL_AREA(#314);
#314 = FILL_AREA_STYLE('', (#315));
#315 = FILL_AREA_STYLE_COLOUR('', #316);
#316 = COLOUR_RGB('', 0.8, 0.8, 0.8);
#317 = STYLED_ITEM('', (#310), #194);
#318 = TRIMMED_CURVE('cutting part line', #319, (#323), (#324), .T., .CARTESIAN.);
#319 = LINE('', #320, #321);
#320 = CARTESIAN_POINT('', (2.77555756156289E-16, 0., -57.));
#321 = VECTOR('', #322, 2.85);
#322 = DIRECTION('', (2.85, 0., -7.105427357601E-15));
#323 = CARTESIAN_POINT('', (2.77555756156289E-16, 0., -57.));
#324 = CARTESIAN_POINT('', (2.85, 0., -57.));
#325 = TRIMMED_CURVE('cutting part line', #326, (#331), (#332), .T., .CARTESIAN.);
#326 = CIRCLE('', #327, 0.150000000000029);
#327 = AXIS2_PLACEMENT_3D('', #328, #329, #330);
#328 = CARTESIAN_POINT('', (2.84999999999998, 2.52481134152395E-15, -56.85));
#329 = DIRECTION('', (6.93889390390715E-16, -1., 4.62592926927283E-17));
#330 = DIRECTION('', (1.45069141884328E-13, -4.62592926926276E-17, -1.));
#331 = CARTESIAN_POINT('', (2.85, 2.51787244762005E-15, -57.));
#332 = CARTESIAN_POINT('', (3.00000000000001, 2.62889475008258E-15, -56.85));
#333 = TRIMMED_CURVE('cutting part line', #334, (#338), (#339), .T., .CARTESIAN.);
#334 = LINE('', #335, #336);
#335 = CARTESIAN_POINT('', (3., -7.21535055982664E-16, -56.85));
#336 = VECTOR('', #337, 8.85);
#337 = DIRECTION('', (0., 7.21535055982664E-16, 8.85));
#338 = CARTESIAN_POINT('', (3., -7.21535055982664E-16, -56.85));
#339 = CARTESIAN_POINT('', (3., 0., -48.));
#340 = TRIMMED_CURVE('cutting part line', #341, (#345), (#346), .T., .CARTESIAN.);
#341 = LINE('', #342, #343);
#342 = CARTESIAN_POINT('', (3., 0., -48.));
#343 = VECTOR('', #344, 3.);
#344 = DIRECTION('', (-3., 0., 7.105427357601E-15));
#345 = CARTESIAN_POINT('', (3., 0., -48.));
#346 = CARTESIAN_POINT('', (6.93889390390723E-18, 0., -48.));
#347 = TRIMMED_CURVE('cutting part line', #348, (#352), (#353), .T., .CARTESIAN.);
#348 = LINE('', #349, #350);
#349 = CARTESIAN_POINT('', (0., 0., -48.));
#350 = VECTOR('', #351, 8.99999999999999);
#351 = DIRECTION('', (0., 0., -8.99999999999999));
#352 = CARTESIAN_POINT('', (0., 0., -48.));
#353 = CARTESIAN_POINT('', (0., 0., -57.));
#354 = COMPOSITE_CURVE('cutting part line', (#355, #356, #357, #358, #359), .U.);
#355 = COMPOSITE_CURVE_SEGMENT(.CONTINUOUS., .T., #318);
#356 = COMPOSITE_CURVE_SEGMENT(.CONTINUOUS., .T., #325);
#357 = COMPOSITE_CURVE_SEGMENT(.CONTINUOUS., .T., #333);
#358 = COMPOSITE_CURVE_SEGMENT(.CONTINUOUS., .T., #340);
#359 = COMPOSITE_CURVE_SEGMENT(.CONTINUOUS., .T., #347);
#360 = GEOMETRIC_SET('', (#354, #403));
#361 = PRESENTATION_STYLE_ASSIGNMENT((#362));
#362 = CURVE_STYLE('', #364, POSITIVE_LENGTH_MEASURE(1.E-6), #363);
#363 = COLOUR_RGB('', 0., 0., 1.);
#364 = DRAUGHTING_PRE_DEFINED_CURVE_FONT('continuous');
#365 = STYLED_ITEM('', (#361), #354);
#366 = PRESENTATION_STYLE_ASSIGNMENT((#367));
#367 = CURVE_STYLE('', #369, POSITIVE_LENGTH_MEASURE(1.E-6), #368);
#368 = COLOUR_RGB('', 0., 0., 1.);
#369 = DRAUGHTING_PRE_DEFINED_CURVE_FONT('continuous');
#370 = OVER_RIDING_STYLED_ITEM('', (#366), #318, #365);
#371 = PRESENTATION_STYLE_ASSIGNMENT((#372));
#372 = CURVE_STYLE('', #374, POSITIVE_LENGTH_MEASURE(1.E-6), #373);
#373 = COLOUR_RGB('', 0., 0., 1.);
#374 = DRAUGHTING_PRE_DEFINED_CURVE_FONT('continuous');
#375 = OVER_RIDING_STYLED_ITEM('', (#371), #325, #365);
#376 = PRESENTATION_STYLE_ASSIGNMENT((#377));
#377 = CURVE_STYLE('', #379, POSITIVE_LENGTH_MEASURE(1.E-6), #378);
#378 = COLOUR_RGB('', 0., 0., 1.);
#379 = DRAUGHTING_PRE_DEFINED_CURVE_FONT('continuous');
#380 = OVER_RIDING_STYLED_ITEM('', (#376), #333, #365);
#381 = PRESENTATION_STYLE_ASSIGNMENT((#382));
#382 = CURVE_STYLE('', #384, POSITIVE_LENGTH_MEASURE(1.E-6), #383);
#383 = COLOUR_RGB('', 0., 0., 1.);
#384 = DRAUGHTING_PRE_DEFINED_CURVE_FONT('continuous');
#385 = OVER_RIDING_STYLED_ITEM('', (#381), #340, #365);
#386 = PRESENTATION_STYLE_ASSIGNMENT((#387));
#387 = CURVE_STYLE('', #389, POSITIVE_LENGTH_MEASURE(1.E-6), #388);
#388 = COLOUR_RGB('', 0., 0., 1.);
#389 = DRAUGHTING_PRE_DEFINED_CURVE_FONT('continuous');
#390 = OVER_RIDING_STYLED_ITEM('', (#386), #347, #365);
#391 = AXIS2_PLACEMENT_3D('MCS', #392, #393, #394);
#392 = CARTESIAN_POINT('', (0., 0., -36.));
#393 = DIRECTION('', (0., 0., 1.));
#394 = DIRECTION('', (1., 0., 0.));
#395 = AXIS2_PLACEMENT_3D('PCS', #396, #397, #398);
#396 = CARTESIAN_POINT('', (0., 0., 0.));
#397 = DIRECTION('', (0., 0., 1.));
#398 = DIRECTION('', (1., 0., 0.));
#399 = AXIS2_PLACEMENT_3D('CIP', #400, #401, #402);
#400 = CARTESIAN_POINT('', (0., 0., -57.));
#401 = DIRECTION('', (0., 0., 1.));
#402 = DIRECTION('', (1., 0., 0.));
#403 = CARTESIAN_POINT('CRP', (3., 0., -57.));
#404 = (
   GEOMETRIC_REPRESENTATION_CONTEXT (3)
   GLOBAL_UNCERTAINTY_ASSIGNED_CONTEXT ((#406))
   GLOBAL_UNIT_ASSIGNED_CONTEXT ((#405, #407, #408))
   REPRESENTATION_CONTEXT ('', '3D')
);
#405 = (
   LENGTH_UNIT ()
   NAMED_UNIT (*)
   SI_UNIT (.MILLI., .METRE.)
);
#406 = UNCERTAINTY_MEASURE_WITH_UNIT(LENGTH_MEASURE(1.E-6), #405, 'DISTANCE_ACCURACY_VALUE', '');
#407 = (
   NAMED_UNIT (*)
   SI_UNIT ($, .STERADIAN.)
   SOLID_ANGLE_UNIT ()
);
#408 = (
   NAMED_UNIT (*)
   PLANE_ANGLE_UNIT ()
   SI_UNIT ($, .RADIAN.)
);
#409 = SHAPE_REPRESENTATION('', (), #404);
#410 = PRODUCT_DEFINITION_SHAPE('', '', #411);
#411 = PRODUCT_DEFINITION('', '', #414, #418);
#412 = APPLICATION_CONTEXT('configuration controlled 3D designs of mechanical parts and assemblies');
#413 = APPLICATION_PROTOCOL_DEFINITION('International Standard', 'automotive_design', 2002, #412);
#414 = PRODUCT_DEFINITION_FORMATION_WITH_SPECIFIED_SOURCE('', '', #415, .NOT_KNOWN.);
#415 = PRODUCT('product-name', '2P121-0600-NC       H10F', '', (#416));
#416 = PRODUCT_CONTEXT('', #412, 'mechanical');
#417 = PRODUCT_RELATED_PRODUCT_CATEGORY('detail', '', (#415));
#418 = PRODUCT_DEFINITION_CONTEXT('part definition', #412, 'design');
#419 = SHAPE_DEFINITION_REPRESENTATION(#410, #409);
#420 = CONSTRUCTIVE_GEOMETRY_REPRESENTATION('supplemental geometry', (#391, #395, #399), #404);
#421 = CONSTRUCTIVE_GEOMETRY_REPRESENTATION_RELATIONSHIP('', '', #409, #420);
#422 = SHAPE_REPRESENTATION_RELATIONSHIP('', '', #409, #423);
#423 = SHAPE_REPRESENTATION('', (#360), #404);
#424 = SHAPE_REPRESENTATION_RELATIONSHIP('', '', #409, #425);
#425 = ADVANCED_BREP_SHAPE_REPRESENTATION('', (#1, #194), #404);
ENDSEC;
END-ISO-10303-21;
