ISO-10303-21;
HEADER;
FILE_DESCRIPTION(('STEP'), '1');
FILE_NAME('C:\\Users\\ds2002\\OneDrive - Sandvik\\HomeShare\\Documents\\Batchrepair\\CorSRT2\\NEW_MILSQ_SLD\\Output\\MOD000000000000000020082306100000.stp', '2019-01-02T12:10:27', (''), (''), 'Express v3.0.0.0', 'Express Tool', 'Unknown');
FILE_SCHEMA(('AUTOMOTIVE_DESIGN'));
ENDSEC;

DATA;
#1 = MANIFOLD_SOLID_BREP('NOCUT', #2);
#2 = CLOSED_SHELL('', (#3, #50, #89, #128, #167, #176));
#3 = ADVANCED_FACE('', (#4), #31, .T.);
#4 = FACE_OUTER_BOUND('', #5, .T.);
#5 = EDGE_LOOP('', (#6, #16, #23, #24));
#6 = ORIENTED_EDGE('', *, *, #7, .F.);
#7 = EDGE_CURVE('', #8, #10, #12, .T.);
#8 = VERTEX_POINT('', #9);
#9 = CARTESIAN_POINT('', (-2.35, 2.27478142941621E-15, -34.8));
#10 = VERTEX_POINT('', #11);
#11 = CARTESIAN_POINT('', (-2.35, 2.74627044708794E-15, -42.5));
#12 = LINE('', #13, #14);
#13 = CARTESIAN_POINT('', (-2.35, 2.27478142941621E-15, -34.8));
#14 = VECTOR('', #15, 7.7);
#15 = DIRECTION('', (0., 4.7148901767173E-16, -7.7));
#16 = ORIENTED_EDGE('', *, *, #17, .T.);
#17 = EDGE_CURVE('', #8, #8, #18, .T.);
#18 = CIRCLE('', #19, 2.35);
#19 = AXIS2_PLACEMENT_3D('', #20, #21, #22);
#20 = CARTESIAN_POINT('', (-1.59594559789866E-16, 2.05391259555654E-15, -34.8));
#21 = DIRECTION('', (0., 0., -1.));
#22 = DIRECTION('', (-1., 9.39867378126258E-17, 0.));
#23 = ORIENTED_EDGE('', *, *, #7, .T.);
#24 = ORIENTED_EDGE('', *, *, #25, .F.);
#25 = EDGE_CURVE('', #10, #10, #26, .T.);
#26 = CIRCLE('', #27, 2.35);
#27 = AXIS2_PLACEMENT_3D('', #28, #29, #30);
#28 = CARTESIAN_POINT('', (6.93889390390723E-17, 8.88178419700125E-16, -42.5));
#29 = DIRECTION('', (0., 0., -1.));
#30 = DIRECTION('', (-1., 7.906774584629E-16, 0.));
#31 = (
   BOUNDED_SURFACE ()
   B_SPLINE_SURFACE (2, 1, ((#32, #33), (#34, #35), (#36, #37), (#38, #39), (#40, #41), (#42, #43), (#44, #45), (#46, #47), (#48, #49)), .UNSPECIFIED., .T., .F., .U.)
   B_SPLINE_SURFACE_WITH_KNOTS ((3, 2, 2, 2, 3), (2, 2), (0., 3.691371367968, 7.382742735936, 11.074114103904, 14.765485471872), (0., 1.), .UNSPECIFIED.)
   GEOMETRIC_REPRESENTATION_ITEM ()
   RATIONAL_B_SPLINE_SURFACE (((1., 1.), (0.707106781186548, 0.707106781186548), (1., 1.), (0.707106781186548, 0.707106781186548), (1., 1.), (0.707106781186548, 0.707106781186548), (1., 1.), (0.707106781186548, 0.707106781186548), (1., 1.)))
   REPRESENTATION_ITEM ('')
   SURFACE ()
);
#32 = CARTESIAN_POINT('', (-2.35, 2.27478142941621E-15, -34.8));
#33 = CARTESIAN_POINT('', (-2.35, 1.55313646340986E-15, -42.5));
#34 = CARTESIAN_POINT('', (-2.35, 2.35, -34.8));
#35 = CARTESIAN_POINT('', (-2.35, 2.35, -42.5));
#36 = CARTESIAN_POINT('', (8.95762315620909E-16, 2.35, -34.8));
#37 = CARTESIAN_POINT('', (8.95762315620909E-16, 2.35, -42.5));
#38 = CARTESIAN_POINT('', (2.35, 2.35, -34.8));
#39 = CARTESIAN_POINT('', (2.35, 2.35, -42.5));
#40 = CARTESIAN_POINT('', (2.35, 1.23265733979637E-15, -34.8));
#41 = CARTESIAN_POINT('', (2.35, 5.1101237379002E-16, -42.5));
#42 = CARTESIAN_POINT('', (2.35, -2.35, -34.8));
#43 = CARTESIAN_POINT('', (2.35, -2.35, -42.5));
#44 = CARTESIAN_POINT('', (1.41430223800699E-16, -2.35, -34.8));
#45 = CARTESIAN_POINT('', (1.41430223800699E-16, -2.35, -42.5));
#46 = CARTESIAN_POINT('', (-2.35, -2.35, -34.8));
#47 = CARTESIAN_POINT('', (-2.35, -2.35, -42.5));
#48 = CARTESIAN_POINT('', (-2.35, 2.27478142941621E-15, -34.8));
#49 = CARTESIAN_POINT('', (-2.35, 1.55313646340986E-15, -42.5));
#50 = ADVANCED_FACE('', (#51), #70, .T.);
#51 = FACE_OUTER_BOUND('', #52, .T.);
#52 = EDGE_LOOP('', (#53, #61, #68, #69));
#53 = ORIENTED_EDGE('', *, *, #54, .F.);
#54 = EDGE_CURVE('', #55, #8, #57, .T.);
#55 = VERTEX_POINT('', #56);
#56 = CARTESIAN_POINT('', (-2.5, 2.2655965784226E-15, -34.5));
#57 = LINE('', #58, #59);
#58 = CARTESIAN_POINT('', (-2.5, 2.2655965784226E-15, -34.5));
#59 = VECTOR('', #60, 0.335410196624966);
#60 = DIRECTION('', (0.15, 9.18485099361034E-18, -0.299999999999997));
#61 = ORIENTED_EDGE('', *, *, #62, .T.);
#62 = EDGE_CURVE('', #55, #55, #63, .T.);
#63 = CIRCLE('', #64, 2.5);
#64 = AXIS2_PLACEMENT_3D('', #65, #66, #67);
#65 = CARTESIAN_POINT('', (-6.93889390390723E-17, -1.33226762955019E-15, -34.5));
#66 = DIRECTION('', (0., 0., -1.));
#67 = DIRECTION('', (-1., 1.43914568318912E-15, 0.));
#68 = ORIENTED_EDGE('', *, *, #54, .T.);
#69 = ORIENTED_EDGE('', *, *, #17, .F.);
#70 = (
   BOUNDED_SURFACE ()
   B_SPLINE_SURFACE (2, 1, ((#71, #72), (#73, #74), (#75, #76), (#77, #78), (#79, #80), (#81, #82), (#83, #84), (#85, #86), (#87, #88)), .UNSPECIFIED., .T., .F., .U.)
   B_SPLINE_SURFACE_WITH_KNOTS ((3, 2, 2, 2, 3), (2, 2), (0., 0.25, 0.5, 0.75, 1.), (0., 1.), .UNSPECIFIED.)
   GEOMETRIC_REPRESENTATION_ITEM ()
   RATIONAL_B_SPLINE_SURFACE (((1., 1.), (0.707106781186548, 0.707106781186548), (1., 1.), (0.707106781186548, 0.707106781186548), (1., 1.), (0.707106781186548, 0.707106781186548), (1., 1.), (0.707106781186548, 0.707106781186548), (1., 1.)))
   REPRESENTATION_ITEM ('')
   SURFACE ()
);
#71 = CARTESIAN_POINT('', (-2.5, 2.2655965784226E-15, -34.5));
#72 = CARTESIAN_POINT('', (-2.35, 5.43590495105096E-15, -34.8));
#73 = CARTESIAN_POINT('', (-2.5, 2.5, -34.5));
#74 = CARTESIAN_POINT('', (-2.35, 2.35, -34.8));
#75 = CARTESIAN_POINT('', (3.3753944190403E-15, 2.5, -34.5));
#76 = CARTESIAN_POINT('', (3.16870741755554E-15, 2.35, -34.8));
#77 = CARTESIAN_POINT('', (2.5, 2.5, -34.5));
#78 = CARTESIAN_POINT('', (2.35, 2.35, -34.8));
#79 = CARTESIAN_POINT('', (2.5, -4.62397013773614E-15, -34.5));
#80 = CARTESIAN_POINT('', (2.35, -1.04028776213825E-15, -34.8));
#81 = CARTESIAN_POINT('', (2.5, -2.5, -34.5));
#82 = CARTESIAN_POINT('', (2.35, -2.35, -34.8));
#83 = CARTESIAN_POINT('', (-3.2080105973316E-15, -2.5, -34.5));
#84 = CARTESIAN_POINT('', (-3.01969329783405E-15, -2.35, -34.8));
#85 = CARTESIAN_POINT('', (-2.5, -2.5, -34.5));
#86 = CARTESIAN_POINT('', (-2.35, -2.34999999999999, -34.8));
#87 = CARTESIAN_POINT('', (-2.5, 2.2655965784226E-15, -34.5));
#88 = CARTESIAN_POINT('', (-2.35, 5.43590495105096E-15, -34.8));
#89 = ADVANCED_FACE('', (#90), #109, .T.);
#90 = FACE_OUTER_BOUND('', #91, .T.);
#91 = EDGE_LOOP('', (#92, #100, #107, #108));
#92 = ORIENTED_EDGE('', *, *, #93, .T.);
#93 = EDGE_CURVE('', #55, #94, #96, .T.);
#94 = VERTEX_POINT('', #95);
#95 = CARTESIAN_POINT('', (-2.5, 1.68388934882761E-16, -0.25));
#96 = LINE('', #97, #98);
#97 = CARTESIAN_POINT('', (-2.5, 2.2655965784226E-15, -34.5));
#98 = VECTOR('', #99, 34.25);
#99 = DIRECTION('', (0., -2.09720764353984E-15, 34.25));
#100 = ORIENTED_EDGE('', *, *, #101, .T.);
#101 = EDGE_CURVE('', #94, #94, #102, .T.);
#102 = CIRCLE('', #103, 2.5);
#103 = AXIS2_PLACEMENT_3D('', #104, #105, #106);
#104 = CARTESIAN_POINT('', (-2.0122792321331E-16, -1.16573417585641E-15, -0.25));
#105 = DIRECTION('', (0., 0., -1.));
#106 = DIRECTION('', (-1., 5.3364924429567E-16, 0.));
#107 = ORIENTED_EDGE('', *, *, #93, .F.);
#108 = ORIENTED_EDGE('', *, *, #62, .F.);
#109 = (
   BOUNDED_SURFACE ()
   B_SPLINE_SURFACE (1, 2, ((#110, #111, #112, #113, #114, #115, #116, #117, #118), (#119, #120, #121, #122, #123, #124, #125, #126, #127)), .UNSPECIFIED., .F., .T., .U.)
   B_SPLINE_SURFACE_WITH_KNOTS ((2, 2), (3, 2, 2, 2, 3), (0., 1.), (0., 3.92699081698725, 7.8539816339745, 11.7809724509618, 15.707963267949), .UNSPECIFIED.)
   GEOMETRIC_REPRESENTATION_ITEM ()
   RATIONAL_B_SPLINE_SURFACE (((1., 0.707106781186548, 1., 0.707106781186548, 1., 0.707106781186548, 1., 0.707106781186548, 1.), (1., 0.707106781186548, 1., 0.707106781186548, 1., 0.707106781186548, 1., 0.707106781186548, 1.)))
   REPRESENTATION_ITEM ('')
   SURFACE ()
);
#110 = CARTESIAN_POINT('', (-2.5, 2.2223015304393E-15, -34.5));
#111 = CARTESIAN_POINT('', (-2.5, 2.5, -34.5));
#112 = CARTESIAN_POINT('', (9.79814337632447E-16, 2.5, -34.5));
#113 = CARTESIAN_POINT('', (2.5, 2.5, -34.5));
#114 = CARTESIAN_POINT('', (2.5, -1.39782991252212E-16, -34.5));
#115 = CARTESIAN_POINT('', (2.5, -2.5, -34.5));
#116 = CARTESIAN_POINT('', (-1.07610848427223E-15, -2.5, -34.5));
#117 = CARTESIAN_POINT('', (-2.5, -2.5, -34.5));
#118 = CARTESIAN_POINT('', (-2.5, 2.2223015304393E-15, -34.5));
#119 = CARTESIAN_POINT('', (-2.5, 1.68388934882761E-16, -0.25));
#120 = CARTESIAN_POINT('', (-2.5, 2.5, -0.25));
#121 = CARTESIAN_POINT('', (9.79814337632446E-16, 2.5, -0.25));
#122 = CARTESIAN_POINT('', (2.5, 2.5, -0.25));
#123 = CARTESIAN_POINT('', (2.5, -2.19369558680875E-15, -0.25));
#124 = CARTESIAN_POINT('', (2.5, -2.5, -0.25));
#125 = CARTESIAN_POINT('', (-1.07610848427223E-15, -2.5, -0.25));
#126 = CARTESIAN_POINT('', (-2.5, -2.5, -0.25));
#127 = CARTESIAN_POINT('', (-2.5, 1.68388934882761E-16, -0.25));
#128 = ADVANCED_FACE('', (#129), #148, .T.);
#129 = FACE_OUTER_BOUND('', #130, .T.);
#130 = EDGE_LOOP('', (#131, #139, #146, #147));
#131 = ORIENTED_EDGE('', *, *, #132, .T.);
#132 = EDGE_CURVE('', #94, #133, #135, .T.);
#133 = VERTEX_POINT('', #134);
#134 = CARTESIAN_POINT('', (-2.25, 1.37772764904077E-16, 0.));
#135 = LINE('', #136, #137);
#136 = CARTESIAN_POINT('', (-2.5, 1.68388934882761E-16, -0.25));
#137 = VECTOR('', #138, 0.353553390593274);
#138 = DIRECTION('', (0.25, -3.0616169978684E-17, 0.25));
#139 = ORIENTED_EDGE('', *, *, #140, .T.);
#140 = EDGE_CURVE('', #133, #133, #141, .T.);
#141 = CIRCLE('', #142, 2.25);
#142 = AXIS2_PLACEMENT_3D('', #143, #144, #145);
#143 = CARTESIAN_POINT('', (1.1518563880486E-15, -5.55111512312578E-17, -7.78751025318189E-16));
#144 = DIRECTION('', (-3.46111566808084E-16, 1.02345943654949E-15, -1.));
#145 = DIRECTION('', (-1., 8.59039627268154E-17, 3.46111566808084E-16));
#146 = ORIENTED_EDGE('', *, *, #132, .F.);
#147 = ORIENTED_EDGE('', *, *, #101, .F.);
#148 = (
   BOUNDED_SURFACE ()
   B_SPLINE_SURFACE (1, 2, ((#149, #150, #151, #152, #153, #154, #155, #156, #157), (#158, #159, #160, #161, #162, #163, #164, #165, #166)), .UNSPECIFIED., .F., .T., .U.)
   B_SPLINE_SURFACE_WITH_KNOTS ((2, 2), (3, 2, 2, 2, 3), (0., 1.), (0., 0.25, 0.5, 0.75, 1.), .UNSPECIFIED.)
   GEOMETRIC_REPRESENTATION_ITEM ()
   RATIONAL_B_SPLINE_SURFACE (((1., 0.707106781186548, 1., 0.707106781186548, 1., 0.707106781186548, 1., 0.707106781186548, 1.), (1., 0.707106781186548, 1., 0.707106781186548, 1., 0.707106781186548, 1., 0.707106781186548, 1.)))
   REPRESENTATION_ITEM ('')
   SURFACE ()
);
#149 = CARTESIAN_POINT('', (-2.5, -1.28404117642692E-15, -0.249999999999999));
#150 = CARTESIAN_POINT('', (-2.5, 2.5, -0.250000000000014));
#151 = CARTESIAN_POINT('', (1.12700755327019E-15, 2.5, -0.250000000000014));
#152 = CARTESIAN_POINT('', (2.5, 2.5, -0.250000000000015));
#153 = CARTESIAN_POINT('', (2.5, -1.40739929027416E-15, -0.250000000000001));
#154 = CARTESIAN_POINT('', (2.5, -2.5, -0.249999999999986));
#155 = CARTESIAN_POINT('', (1.3098111392098E-15, -2.5, -0.249999999999986));
#156 = CARTESIAN_POINT('', (-2.5, -2.5, -0.249999999999985));
#157 = CARTESIAN_POINT('', (-2.5, -1.28404117642692E-15, -0.249999999999999));
#158 = CARTESIAN_POINT('', (-2.25, 1.37772764904077E-16, -2.95822839457879E-31));
#159 = CARTESIAN_POINT('', (-2.25, 2.25, -1.29896093881144E-14));
#160 = CARTESIAN_POINT('', (1.20736753927985E-15, 2.25, -1.37683604134326E-14));
#161 = CARTESIAN_POINT('', (2.25, 2.25, -1.45471114387508E-14));
#162 = CARTESIAN_POINT('', (2.25, 2.67504624415619E-17, -1.55750205063638E-15));
#163 = CARTESIAN_POINT('', (2.25, -2.25, 1.1432107337478E-14));
#164 = CARTESIAN_POINT('', (1.3718907666255E-15, -2.25, 1.22108583627962E-14));
#165 = CARTESIAN_POINT('', (-2.25, -2.25, 1.29896093881144E-14));
#166 = CARTESIAN_POINT('', (-2.25, 1.37772764904077E-16, -2.95822839457879E-31));
#167 = ADVANCED_FACE('', (#168), #171, .T.);
#168 = FACE_OUTER_BOUND('', #169, .T.);
#169 = EDGE_LOOP('', (#170));
#170 = ORIENTED_EDGE('', *, *, #140, .F.);
#171 = B_SPLINE_SURFACE_WITH_KNOTS('', 1, 1, ((#172, #173), (#174, #175)), .UNSPECIFIED., .F., .F., .U., (2, 2), (2, 2), (0.0454545454545454, 0.954545454545454), (0.0454545454545454, 0.954545454545454), .UNSPECIFIED.);
#172 = CARTESIAN_POINT('', (2.25, -2.25, -1.37772764904077E-16));
#173 = CARTESIAN_POINT('', (-2.25, -2.25, -1.37772764904077E-16));
#174 = CARTESIAN_POINT('', (2.25, 2.25, 1.37772764904077E-16));
#175 = CARTESIAN_POINT('', (-2.25, 2.25, 1.37772764904077E-16));
#176 = ADVANCED_FACE('', (#177), #180, .T.);
#177 = FACE_OUTER_BOUND('', #178, .T.);
#178 = EDGE_LOOP('', (#179));
#179 = ORIENTED_EDGE('', *, *, #25, .T.);
#180 = B_SPLINE_SURFACE_WITH_KNOTS('', 1, 1, ((#181, #182), (#183, #184)), .UNSPECIFIED., .F., .F., .U., (2, 2), (2, 2), (0.494059127777139, 0.540596057917096), (0.459403942082904, 0.505940872222861), .UNSPECIFIED.);
#181 = CARTESIAN_POINT('', (-2.35000000000002, 2.35000000000002, -42.5));
#182 = CARTESIAN_POINT('', (-2.35000000000002, -2.34999999999999, -42.5));
#183 = CARTESIAN_POINT('', (2.34999999999999, 2.35000000000002, -42.5));
#184 = CARTESIAN_POINT('', (2.34999999999999, -2.34999999999999, -42.5));
#185 = DRAUGHTING_MODEL('', (#193, #317, #365, #370, #375, #380, #385, #390), #404);
#186 = PRESENTATION_STYLE_ASSIGNMENT((#187));
#187 = SURFACE_STYLE_USAGE(.POSITIVE., #188);
#188 = SURFACE_SIDE_STYLE('', (#189));
#189 = SURFACE_STYLE_FILL_AREA(#190);
#190 = FILL_AREA_STYLE('', (#191));
#191 = FILL_AREA_STYLE_COLOUR('', #192);
#192 = COLOUR_RGB('', 0.50196078431373, 0.50196078431373, 0.50196078431373);
#193 = STYLED_ITEM('', (#186), #1);
#194 = MANIFOLD_SOLID_BREP('CUT', #195);
#195 = CLOSED_SHELL('', (#196, #213, #252, #301));
#196 = ADVANCED_FACE('', (#197), #208, .T.);
#197 = FACE_OUTER_BOUND('', #198, .T.);
#198 = EDGE_LOOP('', (#199));
#199 = ORIENTED_EDGE('', *, *, #200, .F.);
#200 = EDGE_CURVE('', #201, #201, #203, .T.);
#201 = VERTEX_POINT('', #202);
#202 = CARTESIAN_POINT('', (-2.5, 2.75545529808154E-15, -42.5));
#203 = CIRCLE('', #204, 2.5);
#204 = AXIS2_PLACEMENT_3D('', #205, #206, #207);
#205 = CARTESIAN_POINT('', (-1.04083408558608E-16, -8.88178419700125E-16, -42.5));
#206 = DIRECTION('', (-1.40985828695997E-29, -9.67343588955978E-15, -1.));
#207 = DIRECTION('', (-1., 1.45745348711267E-15, 0.));
#208 = B_SPLINE_SURFACE_WITH_KNOTS('', 1, 1, ((#209, #210), (#211, #212)), .UNSPECIFIED., .F., .F., .U., (2, 2), (2, 2), (0.0454545454545454, 0.954545454545455), (0.0454545454545454, 0.954545454545455), .UNSPECIFIED.);
#209 = CARTESIAN_POINT('', (2.5, -2.5, -42.5));
#210 = CARTESIAN_POINT('', (-2.5, -2.5, -42.5));
#211 = CARTESIAN_POINT('', (2.5, 2.5, -42.5));
#212 = CARTESIAN_POINT('', (-2.5, 2.5, -42.5));
#213 = ADVANCED_FACE('', (#214), #233, .T.);
#214 = FACE_OUTER_BOUND('', #215, .T.);
#215 = EDGE_LOOP('', (#216, #224, #225, #226));
#216 = ORIENTED_EDGE('', *, *, #217, .F.);
#217 = EDGE_CURVE('', #201, #218, #220, .T.);
#218 = VERTEX_POINT('', #219);
#219 = CARTESIAN_POINT('', (-2.5, 3.2055129967682E-15, -49.85));
#220 = LINE('', #221, #222);
#221 = CARTESIAN_POINT('', (-2.5, 2.75545529808154E-15, -42.5));
#222 = VECTOR('', #223, 7.35);
#223 = DIRECTION('', (0., 4.5005769868666E-16, -7.35));
#224 = ORIENTED_EDGE('', *, *, #200, .T.);
#225 = ORIENTED_EDGE('', *, *, #217, .T.);
#226 = ORIENTED_EDGE('', *, *, #227, .F.);
#227 = EDGE_CURVE('', #218, #218, #228, .T.);
#228 = CIRCLE('', #229, 2.5);
#229 = AXIS2_PLACEMENT_3D('', #230, #231, #232);
#230 = CARTESIAN_POINT('', (-1.94289029309402E-16, 9.99200722162641E-16, -49.85));
#231 = DIRECTION('', (0., 0., -1.));
#232 = DIRECTION('', (-1., 8.82524909842224E-16, 0.));
#233 = (
   BOUNDED_SURFACE ()
   B_SPLINE_SURFACE (2, 1, ((#234, #235), (#236, #237), (#238, #239), (#240, #241), (#242, #243), (#244, #245), (#246, #247), (#248, #249), (#250, #251)), .UNSPECIFIED., .T., .F., .U.)
   B_SPLINE_SURFACE_WITH_KNOTS ((3, 2, 2, 2, 3), (2, 2), (0., 3.92699081698725, 7.8539816339745, 11.7809724509618, 15.707963267949), (0., 1.), .UNSPECIFIED.)
   GEOMETRIC_REPRESENTATION_ITEM ()
   RATIONAL_B_SPLINE_SURFACE (((1., 1.), (0.707106781186548, 0.707106781186548), (1., 1.), (0.707106781186548, 0.707106781186548), (1., 1.), (0.707106781186548, 0.707106781186548), (1., 1.), (0.707106781186548, 0.707106781186548), (1., 1.)))
   REPRESENTATION_ITEM ('')
   SURFACE ()
);
#234 = CARTESIAN_POINT('', (-2.5, 2.75545529808154E-15, -42.5));
#235 = CARTESIAN_POINT('', (-2.5, 3.31056681039412E-15, -49.85));
#236 = CARTESIAN_POINT('', (-2.5, 2.5, -42.5));
#237 = CARTESIAN_POINT('', (-2.5, 2.5, -49.85));
#238 = CARTESIAN_POINT('', (1.54766257479422E-15, 2.5, -42.5));
#239 = CARTESIAN_POINT('', (1.54766257479422E-15, 2.5, -49.85));
#240 = CARTESIAN_POINT('', (2.5, 2.5, -42.5));
#241 = CARTESIAN_POINT('', (2.5, 2.5, -49.85));
#242 = CARTESIAN_POINT('', (2.5, -1.56111517859458E-15, -42.5));
#243 = CARTESIAN_POINT('', (2.5, -1.006003666282E-15, -49.85));
#244 = CARTESIAN_POINT('', (2.5, -2.5, -42.5));
#245 = CARTESIAN_POINT('', (2.5, -2.5, -49.85));
#246 = CARTESIAN_POINT('', (-2.46274620209506E-15, -2.5, -42.5));
#247 = CARTESIAN_POINT('', (-2.46274620209506E-15, -2.5, -49.85));
#248 = CARTESIAN_POINT('', (-2.5, -2.5, -42.5));
#249 = CARTESIAN_POINT('', (-2.5, -2.5, -49.85));
#250 = CARTESIAN_POINT('', (-2.5, 2.75545529808154E-15, -42.5));
#251 = CARTESIAN_POINT('', (-2.5, 3.31056681039412E-15, -49.85));
#252 = ADVANCED_FACE('', (#253), #273, .T.);
#253 = FACE_OUTER_BOUND('', #254, .T.);
#254 = EDGE_LOOP('', (#255, #264, #265, #266));
#255 = ORIENTED_EDGE('', *, *, #256, .F.);
#256 = EDGE_CURVE('', #218, #257, #259, .T.);
#257 = VERTEX_POINT('', #258);
#258 = CARTESIAN_POINT('', (-2.35, 3.2055129967682E-15, -50.));
#259 = CIRCLE('', #260, 0.149999999999967);
#260 = AXIS2_PLACEMENT_3D('', #261, #262, #263);
#261 = CARTESIAN_POINT('', (-2.35000000000003, 3.1963281457746E-15, -49.85));
#262 = DIRECTION('', (-6.12323399573311E-17, -1., -6.12323399573354E-17));
#263 = DIRECTION('', (-1., 6.12323399573224E-17, 1.42108547152048E-13));
#264 = ORIENTED_EDGE('', *, *, #227, .T.);
#265 = ORIENTED_EDGE('', *, *, #256, .T.);
#266 = ORIENTED_EDGE('', *, *, #267, .F.);
#267 = EDGE_CURVE('', #257, #257, #268, .T.);
#268 = CIRCLE('', #269, 2.35);
#269 = AXIS2_PLACEMENT_3D('', #270, #271, #272);
#270 = CARTESIAN_POINT('', (2.4980018054066E-16, 2.99760216648792E-15, -50.));
#271 = DIRECTION('', (0., 0., -1.));
#272 = DIRECTION('', (-1., 8.84726937362882E-17, 0.));
#273 = (
   BOUNDED_SURFACE ()
   B_SPLINE_SURFACE (2, 2, ((#274, #275, #276), (#277, #278, #279), (#280, #281, #282), (#283, #284, #285), (#286, #287, #288), (#289, #290, #291), (#292, #293, #294), (#295, #296, #297), (#298, #299, #300)), .UNSPECIFIED., .T., .F., .U.)
   B_SPLINE_SURFACE_WITH_KNOTS ((3, 2, 2, 2, 3), (3, 3), (0., 0.25, 0.5, 0.75, 1.), (0., 1.), .UNSPECIFIED.)
   GEOMETRIC_REPRESENTATION_ITEM ()
   RATIONAL_B_SPLINE_SURFACE (((1., 0.707106781186544, 1.), (0.707106781186548, 0.499999999999998, 0.707106781186548), (1., 0.707106781186544, 1.), (0.707106781186548, 0.499999999999998, 0.707106781186548), (1., 0.707106781186544, 1.), (0.707106781186548, 0.499999999999998, 0.707106781186548), (1., 0.707106781186544, 1.), (0.707106781186548, 0.499999999999998, 0.707106781186548), (1., 0.707106781186544, 1.)))
   REPRESENTATION_ITEM ('')
   SURFACE ()
);
#274 = CARTESIAN_POINT('', (-2.5, 3.2055129967682E-15, -49.85));
#275 = CARTESIAN_POINT('', (-2.5, 3.2146978477618E-15, -50.));
#276 = CARTESIAN_POINT('', (-2.35, 3.2055129967682E-15, -50.));
#277 = CARTESIAN_POINT('', (-2.5, 2.5, -49.85));
#278 = CARTESIAN_POINT('', (-2.5, 2.5, -50.));
#279 = CARTESIAN_POINT('', (-2.35, 2.35, -50.));
#280 = CARTESIAN_POINT('', (3.26753785789591E-15, 2.5, -49.85));
#281 = CARTESIAN_POINT('', (3.27672270888951E-15, 2.5, -50.));
#282 = CARTESIAN_POINT('', (3.27672270888951E-15, 2.35, -50.));
#283 = CARTESIAN_POINT('', (2.5, 2.5, -49.85));
#284 = CARTESIAN_POINT('', (2.5, 2.5, -50.));
#285 = CARTESIAN_POINT('', (2.35, 2.35, -50.));
#286 = CARTESIAN_POINT('', (2.5, -3.56548511175646E-15, -49.85));
#287 = CARTESIAN_POINT('', (2.5, -3.57466996275006E-15, -50.));
#288 = CARTESIAN_POINT('', (2.35, -3.58385481374367E-15, -50.));
#289 = CARTESIAN_POINT('', (2.5, -2.5, -49.85));
#290 = CARTESIAN_POINT('', (2.5, -2.5, -50.));
#291 = CARTESIAN_POINT('', (2.35, -2.35, -50.));
#292 = CARTESIAN_POINT('', (-3.19729855084191E-15, -2.5, -49.85));
#293 = CARTESIAN_POINT('', (-3.20648340183551E-15, -2.5, -50.));
#294 = CARTESIAN_POINT('', (-3.22485310382273E-15, -2.35, -50.));
#295 = CARTESIAN_POINT('', (-2.5, -2.5, -49.85));
#296 = CARTESIAN_POINT('', (-2.5, -2.5, -50.));
#297 = CARTESIAN_POINT('', (-2.35, -2.35, -50.));
#298 = CARTESIAN_POINT('', (-2.5, 3.2055129967682E-15, -49.85));
#299 = CARTESIAN_POINT('', (-2.5, 3.2146978477618E-15, -50.));
#300 = CARTESIAN_POINT('', (-2.35, 3.2055129967682E-15, -50.));
#301 = ADVANCED_FACE('', (#302), #305, .T.);
#302 = FACE_OUTER_BOUND('', #303, .T.);
#303 = EDGE_LOOP('', (#304));
#304 = ORIENTED_EDGE('', *, *, #267, .T.);
#305 = B_SPLINE_SURFACE_WITH_KNOTS('', 1, 1, ((#306, #307), (#308, #309)), .UNSPECIFIED., .F., .F., .U., (2, 2), (2, 2), (0.0454545454545454, 0.954545454545454), (0.0454545454545454, 0.954545454545454), .UNSPECIFIED.);
#306 = CARTESIAN_POINT('', (2.35, -2.35, -50.));
#307 = CARTESIAN_POINT('', (2.35, 2.35, -50.));
#308 = CARTESIAN_POINT('', (-2.35, -2.35, -50.));
#309 = CARTESIAN_POINT('', (-2.35, 2.35, -50.));
#310 = PRESENTATION_STYLE_ASSIGNMENT((#311));
#311 = SURFACE_STYLE_USAGE(.POSITIVE., #312);
#312 = SURFACE_SIDE_STYLE('', (#313));
#313 = SURFACE_STYLE_FILL_AREA(#314);
#314 = FILL_AREA_STYLE('', (#315));
#315 = FILL_AREA_STYLE_COLOUR('', #316);
#316 = COLOUR_RGB('', 0.8, 0.8, 0.8);
#317 = STYLED_ITEM('', (#310), #194);
#318 = TRIMMED_CURVE('cutting part line', #319, (#323), (#324), .T., .CARTESIAN.);
#319 = LINE('', #320, #321);
#320 = CARTESIAN_POINT('', (-1.38777878078145E-17, 0., -50.));
#321 = VECTOR('', #322, 2.35);
#322 = DIRECTION('', (2.35, 0., 0.));
#323 = CARTESIAN_POINT('', (-1.38777878078145E-17, 0., -50.));
#324 = CARTESIAN_POINT('', (2.35, 0., -50.));
#325 = TRIMMED_CURVE('cutting part line', #326, (#331), (#332), .T., .CARTESIAN.);
#326 = CIRCLE('', #327, 0.150000000000005);
#327 = AXIS2_PLACEMENT_3D('', #328, #329, #330);
#328 = CARTESIAN_POINT('', (2.34999999999999, 1.1869808768235E-17, -49.85));
#329 = DIRECTION('', (1.66533453693772E-15, -1., 4.62592926927333E-17));
#330 = DIRECTION('', (3.256654205567E-14, -4.62592926926791E-17, -1.));
#331 = CARTESIAN_POINT('', (2.35, 4.93091486433315E-18, -50.));
#332 = CARTESIAN_POINT('', (2.5, 2.61669989308901E-16, -49.85));
#333 = TRIMMED_CURVE('cutting part line', #334, (#338), (#339), .T., .CARTESIAN.);
#334 = LINE('', #335, #336);
#335 = CARTESIAN_POINT('', (2.5, 5.5502696614051E-16, -49.85));
#336 = VECTOR('', #337, 7.35);
#337 = DIRECTION('', (0., -5.5502696614051E-16, 7.35));
#338 = CARTESIAN_POINT('', (2.5, 5.5502696614051E-16, -49.85));
#339 = CARTESIAN_POINT('', (2.5, 0., -42.5));
#340 = TRIMMED_CURVE('cutting part line', #341, (#345), (#346), .T., .CARTESIAN.);
#341 = LINE('', #342, #343);
#342 = CARTESIAN_POINT('', (2.5, 0., -42.5));
#343 = VECTOR('', #344, 2.5);
#344 = DIRECTION('', (-2.5, 0., 7.105427357601E-15));
#345 = CARTESIAN_POINT('', (2.5, 0., -42.5));
#346 = CARTESIAN_POINT('', (6.93889390390723E-18, 0., -42.5));
#347 = TRIMMED_CURVE('cutting part line', #348, (#352), (#353), .T., .CARTESIAN.);
#348 = LINE('', #349, #350);
#349 = CARTESIAN_POINT('', (0., 0., -42.5));
#350 = VECTOR('', #351, 7.49999999999999);
#351 = DIRECTION('', (0., 0., -7.49999999999999));
#352 = CARTESIAN_POINT('', (0., 0., -42.5));
#353 = CARTESIAN_POINT('', (0., 0., -50.));
#354 = COMPOSITE_CURVE('cutting part line', (#355, #356, #357, #358, #359), .U.);
#355 = COMPOSITE_CURVE_SEGMENT(.CONTINUOUS., .T., #318);
#356 = COMPOSITE_CURVE_SEGMENT(.CONTINUOUS., .T., #325);
#357 = COMPOSITE_CURVE_SEGMENT(.CONTINUOUS., .T., #333);
#358 = COMPOSITE_CURVE_SEGMENT(.CONTINUOUS., .T., #340);
#359 = COMPOSITE_CURVE_SEGMENT(.CONTINUOUS., .T., #347);
#360 = GEOMETRIC_SET('', (#354, #403));
#361 = PRESENTATION_STYLE_ASSIGNMENT((#362));
#362 = CURVE_STYLE('', #364, POSITIVE_LENGTH_MEASURE(1.E-6), #363);
#363 = COLOUR_RGB('', 0., 0., 1.);
#364 = DRAUGHTING_PRE_DEFINED_CURVE_FONT('continuous');
#365 = STYLED_ITEM('', (#361), #354);
#366 = PRESENTATION_STYLE_ASSIGNMENT((#367));
#367 = CURVE_STYLE('', #369, POSITIVE_LENGTH_MEASURE(1.E-6), #368);
#368 = COLOUR_RGB('', 0., 0., 1.);
#369 = DRAUGHTING_PRE_DEFINED_CURVE_FONT('continuous');
#370 = OVER_RIDING_STYLED_ITEM('', (#366), #318, #365);
#371 = PRESENTATION_STYLE_ASSIGNMENT((#372));
#372 = CURVE_STYLE('', #374, POSITIVE_LENGTH_MEASURE(1.E-6), #373);
#373 = COLOUR_RGB('', 0., 0., 1.);
#374 = DRAUGHTING_PRE_DEFINED_CURVE_FONT('continuous');
#375 = OVER_RIDING_STYLED_ITEM('', (#371), #325, #365);
#376 = PRESENTATION_STYLE_ASSIGNMENT((#377));
#377 = CURVE_STYLE('', #379, POSITIVE_LENGTH_MEASURE(1.E-6), #378);
#378 = COLOUR_RGB('', 0., 0., 1.);
#379 = DRAUGHTING_PRE_DEFINED_CURVE_FONT('continuous');
#380 = OVER_RIDING_STYLED_ITEM('', (#376), #333, #365);
#381 = PRESENTATION_STYLE_ASSIGNMENT((#382));
#382 = CURVE_STYLE('', #384, POSITIVE_LENGTH_MEASURE(1.E-6), #383);
#383 = COLOUR_RGB('', 0., 0., 1.);
#384 = DRAUGHTING_PRE_DEFINED_CURVE_FONT('continuous');
#385 = OVER_RIDING_STYLED_ITEM('', (#381), #340, #365);
#386 = PRESENTATION_STYLE_ASSIGNMENT((#387));
#387 = CURVE_STYLE('', #389, POSITIVE_LENGTH_MEASURE(1.E-6), #388);
#388 = COLOUR_RGB('', 0., 0., 1.);
#389 = DRAUGHTING_PRE_DEFINED_CURVE_FONT('continuous');
#390 = OVER_RIDING_STYLED_ITEM('', (#386), #347, #365);
#391 = AXIS2_PLACEMENT_3D('MCS', #392, #393, #394);
#392 = CARTESIAN_POINT('', (0., 0., -28.));
#393 = DIRECTION('', (0., 0., 1.));
#394 = DIRECTION('', (1., 0., 0.));
#395 = AXIS2_PLACEMENT_3D('PCS', #396, #397, #398);
#396 = CARTESIAN_POINT('', (0., 0., 0.));
#397 = DIRECTION('', (0., 0., 1.));
#398 = DIRECTION('', (1., 0., 0.));
#399 = AXIS2_PLACEMENT_3D('CIP', #400, #401, #402);
#400 = CARTESIAN_POINT('', (0., 0., -50.));
#401 = DIRECTION('', (0., 0., 1.));
#402 = DIRECTION('', (1., 0., 0.));
#403 = CARTESIAN_POINT('CRP', (2.5, 0., -50.));
#404 = (
   GEOMETRIC_REPRESENTATION_CONTEXT (3)
   GLOBAL_UNCERTAINTY_ASSIGNED_CONTEXT ((#406))
   GLOBAL_UNIT_ASSIGNED_CONTEXT ((#405, #407, #408))
   REPRESENTATION_CONTEXT ('', '3D')
);
#405 = (
   LENGTH_UNIT ()
   NAMED_UNIT (*)
   SI_UNIT (.MILLI., .METRE.)
);
#406 = UNCERTAINTY_MEASURE_WITH_UNIT(LENGTH_MEASURE(1.E-6), #405, 'DISTANCE_ACCURACY_VALUE', '');
#407 = (
   NAMED_UNIT (*)
   SI_UNIT ($, .STERADIAN.)
   SOLID_ANGLE_UNIT ()
);
#408 = (
   NAMED_UNIT (*)
   PLANE_ANGLE_UNIT ()
   SI_UNIT ($, .RADIAN.)
);
#409 = SHAPE_REPRESENTATION('', (), #404);
#410 = PRODUCT_DEFINITION_SHAPE('', '', #411);
#411 = PRODUCT_DEFINITION('', '', #414, #418);
#412 = APPLICATION_CONTEXT('configuration controlled 3D designs of mechanical parts and assemblies');
#413 = APPLICATION_PROTOCOL_DEFINITION('International Standard', 'automotive_design', 2002, #412);
#414 = PRODUCT_DEFINITION_FORMATION_WITH_SPECIFIED_SOURCE('', '', #415, .NOT_KNOWN.);
#415 = PRODUCT('product-name', '2P121-0500-NC       H10F', '', (#416));
#416 = PRODUCT_CONTEXT('', #412, 'mechanical');
#417 = PRODUCT_RELATED_PRODUCT_CATEGORY('detail', '', (#415));
#418 = PRODUCT_DEFINITION_CONTEXT('part definition', #412, 'design');
#419 = SHAPE_DEFINITION_REPRESENTATION(#410, #409);
#420 = CONSTRUCTIVE_GEOMETRY_REPRESENTATION('supplemental geometry', (#391, #395, #399), #404);
#421 = CONSTRUCTIVE_GEOMETRY_REPRESENTATION_RELATIONSHIP('', '', #409, #420);
#422 = SHAPE_REPRESENTATION_RELATIONSHIP('', '', #409, #423);
#423 = SHAPE_REPRESENTATION('', (#360), #404);
#424 = SHAPE_REPRESENTATION_RELATIONSHIP('', '', #409, #425);
#425 = ADVANCED_BREP_SHAPE_REPRESENTATION('', (#1, #194), #404);
ENDSEC;
END-ISO-10303-21;
