ISO-10303-21;
HEADER;
FILE_DESCRIPTION(('STEP'), '1');
FILE_NAME('C:\\Users\\ds2002\\OneDrive - Sandvik\\HomeShare\\Documents\\Batchrepair\\CorSRT2\\NEW_MILSQ_SLD\\Output\\MOD000000000000000020082306000000.stp', '2019-01-02T12:10:25', (''), (''), 'Express v3.0.0.0', 'Express Tool', 'Unknown');
FILE_SCHEMA(('AUTOMOTIVE_DESIGN'));
ENDSEC;

DATA;
#1 = MANIFOLD_SOLID_BREP('NOCUT', #2);
#2 = CLOSED_SHELL('', (#3, #50, #89, #128, #167, #176));
#3 = ADVANCED_FACE('', (#4), #31, .T.);
#4 = FACE_OUTER_BOUND('', #5, .T.);
#5 = EDGE_LOOP('', (#6, #16, #23, #24));
#6 = ORIENTED_EDGE('', *, *, #7, .F.);
#7 = EDGE_CURVE('', #8, #10, #12, .T.);
#8 = VERTEX_POINT('', #9);
#9 = CARTESIAN_POINT('', (-1.85, 2.42786227930963E-15, -37.8));
#10 = VERTEX_POINT('', #11);
#11 = CARTESIAN_POINT('', (-1.85, 2.80750278704531E-15, -44.));
#12 = LINE('', #13, #14);
#13 = CARTESIAN_POINT('', (-1.85, 2.42786227930963E-15, -37.8));
#14 = VECTOR('', #15, 6.2);
#15 = DIRECTION('', (0., 3.7964050773568E-16, -6.2));
#16 = ORIENTED_EDGE('', *, *, #17, .T.);
#17 = EDGE_CURVE('', #8, #8, #18, .T.);
#18 = CIRCLE('', #19, 1.85);
#19 = AXIS2_PLACEMENT_3D('', #20, #21, #22);
#20 = CARTESIAN_POINT('', (-9.71445146547012E-17, 9.43689570931383E-16, -37.8));
#21 = DIRECTION('', (0., 0., -1.));
#22 = DIRECTION('', (-1., 8.02255518042296E-16, 0.));
#23 = ORIENTED_EDGE('', *, *, #7, .T.);
#24 = ORIENTED_EDGE('', *, *, #25, .F.);
#25 = EDGE_CURVE('', #10, #10, #26, .T.);
#26 = CIRCLE('', #27, 1.85);
#27 = AXIS2_PLACEMENT_3D('', #28, #29, #30);
#28 = CARTESIAN_POINT('', (3.40005801291454E-16, 1.0547118733939E-15, -44.));
#29 = DIRECTION('', (0., 0., -1.));
#30 = DIRECTION('', (-1., 9.47454547919682E-16, 0.));
#31 = (
   BOUNDED_SURFACE ()
   B_SPLINE_SURFACE (2, 1, ((#32, #33), (#34, #35), (#36, #37), (#38, #39), (#40, #41), (#42, #43), (#44, #45), (#46, #47), (#48, #49)), .UNSPECIFIED., .T., .F., .U.)
   B_SPLINE_SURFACE_WITH_KNOTS ((3, 2, 2, 2, 3), (2, 2), (0., 2.90597320457055, 5.8119464091411, 8.71791961371165, 11.6238928182822), (0., 1.), .UNSPECIFIED.)
   GEOMETRIC_REPRESENTATION_ITEM ()
   RATIONAL_B_SPLINE_SURFACE (((1., 1.), (0.707106781186548, 0.707106781186548), (1., 1.), (0.707106781186548, 0.707106781186548), (1., 1.), (0.707106781186548, 0.707106781186548), (1., 1.), (0.707106781186548, 0.707106781186548), (1., 1.)))
   REPRESENTATION_ITEM ('')
   SURFACE ()
);
#32 = CARTESIAN_POINT('', (-1.85, 2.42786227930963E-15, -37.8));
#33 = CARTESIAN_POINT('', (-1.85, 2.09479537192208E-15, -44.));
#34 = CARTESIAN_POINT('', (-1.85, 1.85, -37.8));
#35 = CARTESIAN_POINT('', (-1.85, 1.85, -44.));
#36 = CARTESIAN_POINT('', (9.40681457414869E-16, 1.85, -37.8));
#37 = CARTESIAN_POINT('', (9.40681457414869E-16, 1.85, -44.));
#38 = CARTESIAN_POINT('', (1.85, 1.85, -37.8));
#39 = CARTESIAN_POINT('', (1.85, 1.85, -44.));
#40 = CARTESIAN_POINT('', (1.85, 5.74254940095522E-16, -37.8));
#41 = CARTESIAN_POINT('', (1.85, 2.41188032707975E-16, -44.));
#42 = CARTESIAN_POINT('', (1.85, -1.85, -37.8));
#43 = CARTESIAN_POINT('', (1.85, -1.85, -44.));
#44 = CARTESIAN_POINT('', (-6.86366223956979E-16, -1.85, -37.8));
#45 = CARTESIAN_POINT('', (-6.8636622395698E-16, -1.85, -44.));
#46 = CARTESIAN_POINT('', (-1.85, -1.85, -37.8));
#47 = CARTESIAN_POINT('', (-1.85, -1.85, -44.));
#48 = CARTESIAN_POINT('', (-1.85, 2.42786227930963E-15, -37.8));
#49 = CARTESIAN_POINT('', (-1.85, 2.09479537192208E-15, -44.));
#50 = ADVANCED_FACE('', (#51), #70, .T.);
#51 = FACE_OUTER_BOUND('', #52, .T.);
#52 = EDGE_LOOP('', (#53, #61, #68, #69));
#53 = ORIENTED_EDGE('', *, *, #54, .F.);
#54 = EDGE_CURVE('', #55, #8, #57, .T.);
#55 = VERTEX_POINT('', #56);
#56 = CARTESIAN_POINT('', (-2., 2.41867742831602E-15, -37.5));
#57 = LINE('', #58, #59);
#58 = CARTESIAN_POINT('', (-2., 2.41867742831602E-15, -37.5));
#59 = VECTOR('', #60, 0.335410196624966);
#60 = DIRECTION('', (0.15, 9.18485099360995E-18, -0.299999999999997));
#61 = ORIENTED_EDGE('', *, *, #62, .T.);
#62 = EDGE_CURVE('', #55, #55, #63, .T.);
#63 = CIRCLE('', #64, 2.);
#64 = AXIS2_PLACEMENT_3D('', #65, #66, #67);
#65 = CARTESIAN_POINT('', (6.24500451351651E-17, 1.60982338570648E-15, -37.5));
#66 = DIRECTION('', (0., 0., -1.));
#67 = DIRECTION('', (-1., 4.04427021304771E-16, 0.));
#68 = ORIENTED_EDGE('', *, *, #54, .T.);
#69 = ORIENTED_EDGE('', *, *, #17, .F.);
#70 = (
   BOUNDED_SURFACE ()
   B_SPLINE_SURFACE (2, 1, ((#71, #72), (#73, #74), (#75, #76), (#77, #78), (#79, #80), (#81, #82), (#83, #84), (#85, #86), (#87, #88)), .UNSPECIFIED., .T., .F., .U.)
   B_SPLINE_SURFACE_WITH_KNOTS ((3, 2, 2, 2, 3), (2, 2), (0., 0.25, 0.5, 0.75, 1.), (0., 1.), .UNSPECIFIED.)
   GEOMETRIC_REPRESENTATION_ITEM ()
   RATIONAL_B_SPLINE_SURFACE (((1., 1.), (0.707106781186548, 0.707106781186548), (1., 1.), (0.707106781186548, 0.707106781186548), (1., 1.), (0.707106781186548, 0.707106781186548), (1., 1.), (0.707106781186548, 0.707106781186548), (1., 1.)))
   REPRESENTATION_ITEM ('')
   SURFACE ()
);
#71 = CARTESIAN_POINT('', (-2., 2.41867742831602E-15, -37.5));
#72 = CARTESIAN_POINT('', (-1.85, 1.69187956034521E-15, -37.8));
#73 = CARTESIAN_POINT('', (-2., 2., -37.5));
#74 = CARTESIAN_POINT('', (-1.85, 1.85, -37.8));
#75 = CARTESIAN_POINT('', (7.48839407829973E-16, 2., -37.5));
#76 = CARTESIAN_POINT('', (6.97360205627862E-16, 1.85, -37.8));
#77 = CARTESIAN_POINT('', (2., 2., -37.5));
#78 = CARTESIAN_POINT('', (1.85, 1.85, -37.8));
#79 = CARTESIAN_POINT('', (2., 1.0458987029264E-15, -37.5));
#80 = CARTESIAN_POINT('', (1.85, 4.22059239359816E-16, -37.8));
#81 = CARTESIAN_POINT('', (2., -2., -37.5));
#82 = CARTESIAN_POINT('', (1.85, -1.85, -37.8));
#83 = CARTESIAN_POINT('', (-3.79009957730172E-16, -2., -37.5));
#84 = CARTESIAN_POINT('', (-3.45900457515272E-16, -1.85, -37.8));
#85 = CARTESIAN_POINT('', (-2., -2., -37.5));
#86 = CARTESIAN_POINT('', (-1.85, -1.85, -37.8));
#87 = CARTESIAN_POINT('', (-2., 2.41867742831602E-15, -37.5));
#88 = CARTESIAN_POINT('', (-1.85, 1.69187956034521E-15, -37.8));
#89 = ADVANCED_FACE('', (#90), #109, .T.);
#90 = FACE_OUTER_BOUND('', #91, .T.);
#91 = EDGE_LOOP('', (#92, #100, #107, #108));
#92 = ORIENTED_EDGE('', *, *, #93, .T.);
#93 = EDGE_CURVE('', #55, #94, #96, .T.);
#94 = VERTEX_POINT('', #95);
#95 = CARTESIAN_POINT('', (-2., 1.34711147906209E-16, -0.200000000000003));
#96 = LINE('', #97, #98);
#97 = CARTESIAN_POINT('', (-2., 2.41867742831602E-15, -37.5));
#98 = VECTOR('', #99, 37.3);
#99 = DIRECTION('', (0., -2.28396628040981E-15, 37.3));
#100 = ORIENTED_EDGE('', *, *, #101, .T.);
#101 = EDGE_CURVE('', #94, #94, #102, .T.);
#102 = CIRCLE('', #103, 2.);
#103 = AXIS2_PLACEMENT_3D('', #104, #105, #106);
#104 = CARTESIAN_POINT('', (-1.04083408558608E-16, -6.66133814775094E-16, -0.200000000000003));
#105 = DIRECTION('', (1.38777878078145E-17, 2.08473661697978E-18, -1.));
#106 = DIRECTION('', (-1., 4.00422481340651E-16, -1.38777878078145E-17));
#107 = ORIENTED_EDGE('', *, *, #93, .F.);
#108 = ORIENTED_EDGE('', *, *, #62, .F.);
#109 = (
   BOUNDED_SURFACE ()
   B_SPLINE_SURFACE (1, 2, ((#110, #111, #112, #113, #114, #115, #116, #117, #118), (#119, #120, #121, #122, #123, #124, #125, #126, #127)), .UNSPECIFIED., .F., .T., .U.)
   B_SPLINE_SURFACE_WITH_KNOTS ((2, 2), (3, 2, 2, 2, 3), (0., 1.), (0., 3.1415926535898, 6.2831853071796, 9.4247779607694, 12.5663706143592), .UNSPECIFIED.)
   GEOMETRIC_REPRESENTATION_ITEM ()
   RATIONAL_B_SPLINE_SURFACE (((1., 0.707106781186548, 1., 0.707106781186548, 1., 0.707106781186548, 1., 0.707106781186548, 1.), (1., 0.707106781186548, 1., 0.707106781186548, 1., 0.707106781186548, 1., 0.707106781186548, 1.)))
   REPRESENTATION_ITEM ('')
   SURFACE ()
);
#110 = CARTESIAN_POINT('', (-2., 8.00844962681303E-16, -37.5));
#111 = CARTESIAN_POINT('', (-2., 2., -37.5));
#112 = CARTESIAN_POINT('', (1.09193835943944E-15, 2., -37.5));
#113 = CARTESIAN_POINT('', (2., 2., -37.5));
#114 = CARTESIAN_POINT('', (2., -5.55915602851833E-16, -37.5));
#115 = CARTESIAN_POINT('', (2., -2., -37.5));
#116 = CARTESIAN_POINT('', (-1.9892846264226E-17, -2., -37.5));
#117 = CARTESIAN_POINT('', (-2., -2., -37.5));
#118 = CARTESIAN_POINT('', (-2., 8.00844962681303E-16, -37.5));
#119 = CARTESIAN_POINT('', (-2., 1.34711147906209E-16, -0.200000000000003));
#120 = CARTESIAN_POINT('', (-2., 2., -0.200000000000003));
#121 = CARTESIAN_POINT('', (5.74296874207959E-16, 2., -0.200000000000003));
#122 = CARTESIAN_POINT('', (2., 2., -0.200000000000003));
#123 = CARTESIAN_POINT('', (2., -1.22204941762693E-15, -0.200000000000003));
#124 = CARTESIAN_POINT('', (2., -2., -0.200000000000003));
#125 = CARTESIAN_POINT('', (-5.37534331495705E-16, -2., -0.200000000000003));
#126 = CARTESIAN_POINT('', (-2., -2., -0.200000000000003));
#127 = CARTESIAN_POINT('', (-2., 1.34711147906209E-16, -0.200000000000003));
#128 = ADVANCED_FACE('', (#129), #148, .T.);
#129 = FACE_OUTER_BOUND('', #130, .T.);
#130 = EDGE_LOOP('', (#131, #139, #146, #147));
#131 = ORIENTED_EDGE('', *, *, #132, .T.);
#132 = EDGE_CURVE('', #94, #133, #135, .T.);
#133 = VERTEX_POINT('', #134);
#134 = CARTESIAN_POINT('', (-1.8, 1.10218211923262E-16, 0.));
#135 = LINE('', #136, #137);
#136 = CARTESIAN_POINT('', (-2., 1.34711147906209E-16, -0.200000000000003));
#137 = VECTOR('', #138, 0.282842712474621);
#138 = DIRECTION('', (0.2, -2.4492935982947E-17, 0.200000000000003));
#139 = ORIENTED_EDGE('', *, *, #140, .T.);
#140 = EDGE_CURVE('', #133, #133, #141, .T.);
#141 = CIRCLE('', #142, 1.8);
#142 = AXIS2_PLACEMENT_3D('', #143, #144, #145);
#143 = CARTESIAN_POINT('', (-2.08166817117217E-17, -1.66533453693773E-16, -7.78751025318189E-16));
#144 = DIRECTION('', (-4.32639458510105E-16, 1.26401621069751E-15, -1.));
#145 = DIRECTION('', (-1., 1.53750925342797E-16, 4.32639458510105E-16));
#146 = ORIENTED_EDGE('', *, *, #132, .F.);
#147 = ORIENTED_EDGE('', *, *, #101, .F.);
#148 = (
   BOUNDED_SURFACE ()
   B_SPLINE_SURFACE (1, 2, ((#149, #150, #151, #152, #153, #154, #155, #156, #157), (#158, #159, #160, #161, #162, #163, #164, #165, #166)), .UNSPECIFIED., .F., .T., .U.)
   B_SPLINE_SURFACE_WITH_KNOTS ((2, 2), (3, 2, 2, 2, 3), (0., 1.), (0., 0.25, 0.5, 0.75, 1.), .UNSPECIFIED.)
   GEOMETRIC_REPRESENTATION_ITEM ()
   RATIONAL_B_SPLINE_SURFACE (((1., 0.707106781186548, 1., 0.707106781186548, 1., 0.707106781186548, 1., 0.707106781186548, 1.), (1., 0.707106781186548, 1., 0.707106781186548, 1., 0.707106781186548, 1., 0.707106781186548, 1.)))
   REPRESENTATION_ITEM ('')
   SURFACE ()
);
#149 = CARTESIAN_POINT('', (-2., -1.02476577886459E-15, -0.200000000000002));
#150 = CARTESIAN_POINT('', (-2., 2., -0.200000000000014));
#151 = CARTESIAN_POINT('', (7.76925973571109E-17, 2., -0.200000000000015));
#152 = CARTESIAN_POINT('', (2., 2., -0.200000000000016));
#153 = CARTESIAN_POINT('', (2., -1.39484012040631E-15, -0.200000000000004));
#154 = CARTESIAN_POINT('', (2., -2., -0.199999999999992));
#155 = CARTESIAN_POINT('', (-4.7452384355128E-17, -2., -0.199999999999991));
#156 = CARTESIAN_POINT('', (-2., -2., -0.19999999999999));
#157 = CARTESIAN_POINT('', (-2., -1.02476577886459E-15, -0.200000000000002));
#158 = CARTESIAN_POINT('', (-1.8, 1.10218211923262E-16, 0.));
#159 = CARTESIAN_POINT('', (-1.8, 1.8, -1.04916075827076E-14));
#160 = CARTESIAN_POINT('', (1.45716771982047E-16, 1.8, -1.12703586080258E-14));
#161 = CARTESIAN_POINT('', (1.8, 1.8, -1.2049109633344E-14));
#162 = CARTESIAN_POINT('', (1.8, -2.22848695464285E-16, -1.55750205063638E-15));
#163 = CARTESIAN_POINT('', (1.8, -1.8, 8.93410553207123E-15));
#164 = CARTESIAN_POINT('', (3.30862884410328E-17, -1.8, 9.71285655738942E-15));
#165 = CARTESIAN_POINT('', (-1.8, -1.8, 1.04916075827076E-14));
#166 = CARTESIAN_POINT('', (-1.8, 1.10218211923262E-16, 0.));
#167 = ADVANCED_FACE('', (#168), #171, .T.);
#168 = FACE_OUTER_BOUND('', #169, .T.);
#169 = EDGE_LOOP('', (#170));
#170 = ORIENTED_EDGE('', *, *, #140, .F.);
#171 = B_SPLINE_SURFACE_WITH_KNOTS('', 1, 1, ((#172, #173), (#174, #175)), .UNSPECIFIED., .F., .F., .U., (2, 2), (2, 2), (0.0454545454545454, 0.954545454545455), (0.0454545454545454, 0.954545454545454), .UNSPECIFIED.);
#172 = CARTESIAN_POINT('', (1.8, -1.8, -1.10218211923262E-16));
#173 = CARTESIAN_POINT('', (-1.8, -1.8, -1.10218211923262E-16));
#174 = CARTESIAN_POINT('', (1.8, 1.8, 1.10218211923262E-16));
#175 = CARTESIAN_POINT('', (-1.8, 1.8, 1.10218211923262E-16));
#176 = ADVANCED_FACE('', (#177), #180, .T.);
#177 = FACE_OUTER_BOUND('', #178, .T.);
#178 = EDGE_LOOP('', (#179));
#179 = ORIENTED_EDGE('', *, *, #25, .T.);
#180 = B_SPLINE_SURFACE_WITH_KNOTS('', 1, 1, ((#181, #182), (#183, #184)), .UNSPECIFIED., .F., .F., .U., (2, 2), (2, 2), (0.496720933582545, 0.533486379513999), (0.466513620486, 0.503279066417455), .UNSPECIFIED.);
#181 = CARTESIAN_POINT('', (-1.85000000000002, 1.85000000000003, -44.));
#182 = CARTESIAN_POINT('', (-1.85000000000002, -1.84999999999998, -44.));
#183 = CARTESIAN_POINT('', (1.84999999999999, 1.85000000000003, -44.));
#184 = CARTESIAN_POINT('', (1.84999999999999, -1.84999999999998, -44.));
#185 = DRAUGHTING_MODEL('', (#193, #317, #365, #370, #375, #380, #385, #390), #404);
#186 = PRESENTATION_STYLE_ASSIGNMENT((#187));
#187 = SURFACE_STYLE_USAGE(.POSITIVE., #188);
#188 = SURFACE_SIDE_STYLE('', (#189));
#189 = SURFACE_STYLE_FILL_AREA(#190);
#190 = FILL_AREA_STYLE('', (#191));
#191 = FILL_AREA_STYLE_COLOUR('', #192);
#192 = COLOUR_RGB('', 0.50196078431373, 0.50196078431373, 0.50196078431373);
#193 = STYLED_ITEM('', (#186), #1);
#194 = MANIFOLD_SOLID_BREP('CUT', #195);
#195 = CLOSED_SHELL('', (#196, #213, #252, #301));
#196 = ADVANCED_FACE('', (#197), #208, .T.);
#197 = FACE_OUTER_BOUND('', #198, .T.);
#198 = EDGE_LOOP('', (#199));
#199 = ORIENTED_EDGE('', *, *, #200, .F.);
#200 = EDGE_CURVE('', #201, #201, #203, .T.);
#201 = VERTEX_POINT('', #202);
#202 = CARTESIAN_POINT('', (-2., 2.81668763803891E-15, -44.));
#203 = CIRCLE('', #204, 2.);
#204 = AXIS2_PLACEMENT_3D('', #205, #206, #207);
#205 = CARTESIAN_POINT('', (2.63677968348475E-16, 5.55111512312578E-16, -44.));
#206 = DIRECTION('', (0., 0., -1.));
#207 = DIRECTION('', (-1., 1.13078806286317E-15, 0.));
#208 = B_SPLINE_SURFACE_WITH_KNOTS('', 1, 1, ((#209, #210), (#211, #212)), .UNSPECIFIED., .F., .F., .U., (2, 2), (2, 2), (0.0454545454545453, 0.954545454545454), (0.0454545454545455, 0.954545454545454), .UNSPECIFIED.);
#209 = CARTESIAN_POINT('', (2., -2., -44.));
#210 = CARTESIAN_POINT('', (-2., -2., -44.));
#211 = CARTESIAN_POINT('', (2., 2., -44.));
#212 = CARTESIAN_POINT('', (-2., 2., -44.));
#213 = ADVANCED_FACE('', (#214), #233, .T.);
#214 = FACE_OUTER_BOUND('', #215, .T.);
#215 = EDGE_LOOP('', (#216, #224, #225, #226));
#216 = ORIENTED_EDGE('', *, *, #217, .F.);
#217 = EDGE_CURVE('', #201, #218, #220, .T.);
#218 = VERTEX_POINT('', #219);
#219 = CARTESIAN_POINT('', (-2., 3.17489682678951E-15, -49.85));
#220 = LINE('', #221, #222);
#221 = CARTESIAN_POINT('', (-2., 2.81668763803891E-15, -44.));
#222 = VECTOR('', #223, 5.85);
#223 = DIRECTION('', (0., 3.582091887506E-16, -5.85));
#224 = ORIENTED_EDGE('', *, *, #200, .T.);
#225 = ORIENTED_EDGE('', *, *, #217, .T.);
#226 = ORIENTED_EDGE('', *, *, #227, .F.);
#227 = EDGE_CURVE('', #218, #218, #228, .T.);
#228 = CIRCLE('', #229, 2.);
#229 = AXIS2_PLACEMENT_3D('', #230, #231, #232);
#230 = CARTESIAN_POINT('', (-2.28983498828939E-16, 6.10622663543836E-16, -49.85));
#231 = DIRECTION('', (1.55033385758825E-29, 1.209179486195E-14, -1.));
#232 = DIRECTION('', (-1., 1.28213708162284E-15, 0.));
#233 = (
   BOUNDED_SURFACE ()
   B_SPLINE_SURFACE (2, 1, ((#234, #235), (#236, #237), (#238, #239), (#240, #241), (#242, #243), (#244, #245), (#246, #247), (#248, #249), (#250, #251)), .UNSPECIFIED., .T., .F., .U.)
   B_SPLINE_SURFACE_WITH_KNOTS ((3, 2, 2, 2, 3), (2, 2), (0., 3.1415926535898, 6.2831853071796, 9.4247779607694, 12.5663706143592), (0., 1.), .UNSPECIFIED.)
   GEOMETRIC_REPRESENTATION_ITEM ()
   RATIONAL_B_SPLINE_SURFACE (((1., 1.), (0.707106781186548, 0.707106781186548), (1., 1.), (0.707106781186548, 0.707106781186548), (1., 1.), (0.707106781186548, 0.707106781186548), (1., 1.), (0.707106781186548, 0.707106781186548), (1., 1.)))
   REPRESENTATION_ITEM ('')
   SURFACE ()
);
#234 = CARTESIAN_POINT('', (-2., 2.81668763803891E-15, -44.));
#235 = CARTESIAN_POINT('', (-2., 2.98322109173268E-15, -49.85));
#236 = CARTESIAN_POINT('', (-2., 2., -44.));
#237 = CARTESIAN_POINT('', (-2., 2., -49.85));
#238 = CARTESIAN_POINT('', (2.02808914334908E-15, 2., -44.));
#239 = CARTESIAN_POINT('', (2.02808914334908E-15, 2., -49.85));
#240 = CARTESIAN_POINT('', (2., 2., -44.));
#241 = CARTESIAN_POINT('', (2., 2., -49.85));
#242 = CARTESIAN_POINT('', (2., -1.68357985850931E-15, -44.));
#243 = CARTESIAN_POINT('', (2., -1.51704640481554E-15, -49.85));
#244 = CARTESIAN_POINT('', (2., -2., -44.));
#245 = CARTESIAN_POINT('', (2., -2., -49.85));
#246 = CARTESIAN_POINT('', (-2.22724899336967E-15, -2., -44.));
#247 = CARTESIAN_POINT('', (-2.22724899336967E-15, -2., -49.85));
#248 = CARTESIAN_POINT('', (-2., -2., -44.));
#249 = CARTESIAN_POINT('', (-2., -2., -49.85));
#250 = CARTESIAN_POINT('', (-2., 2.81668763803891E-15, -44.));
#251 = CARTESIAN_POINT('', (-2., 2.98322109173268E-15, -49.85));
#252 = ADVANCED_FACE('', (#253), #273, .T.);
#253 = FACE_OUTER_BOUND('', #254, .T.);
#254 = EDGE_LOOP('', (#255, #264, #265, #266));
#255 = ORIENTED_EDGE('', *, *, #256, .F.);
#256 = EDGE_CURVE('', #218, #257, #259, .T.);
#257 = VERTEX_POINT('', #258);
#258 = CARTESIAN_POINT('', (-1.85, 3.17489682678951E-15, -50.));
#259 = CIRCLE('', #260, 0.149999999999967);
#260 = AXIS2_PLACEMENT_3D('', #261, #262, #263);
#261 = CARTESIAN_POINT('', (-1.85000000000003, 3.1657119757959E-15, -49.85));
#262 = DIRECTION('', (-6.1232339957394E-17, -1., -6.12323399573992E-17));
#263 = DIRECTION('', (-1., 6.12323399573853E-17, 1.42108547152048E-13));
#264 = ORIENTED_EDGE('', *, *, #227, .T.);
#265 = ORIENTED_EDGE('', *, *, #256, .T.);
#266 = ORIENTED_EDGE('', *, *, #267, .F.);
#267 = EDGE_CURVE('', #257, #257, #268, .T.);
#268 = CIRCLE('', #269, 1.85);
#269 = AXIS2_PLACEMENT_3D('', #270, #271, #272);
#270 = CARTESIAN_POINT('', (-2.22044604925031E-16, 7.7715611723761E-16, -50.));
#271 = DIRECTION('', (0., 0., -1.));
#272 = DIRECTION('', (-1., 1.29607605921724E-15, 0.));
#273 = (
   BOUNDED_SURFACE ()
   B_SPLINE_SURFACE (2, 2, ((#274, #275, #276), (#277, #278, #279), (#280, #281, #282), (#283, #284, #285), (#286, #287, #288), (#289, #290, #291), (#292, #293, #294), (#295, #296, #297), (#298, #299, #300)), .UNSPECIFIED., .T., .F., .U.)
   B_SPLINE_SURFACE_WITH_KNOTS ((3, 2, 2, 2, 3), (3, 3), (0., 0.25, 0.5, 0.75, 1.), (0., 1.), .UNSPECIFIED.)
   GEOMETRIC_REPRESENTATION_ITEM ()
   RATIONAL_B_SPLINE_SURFACE (((1., 0.707106781186544, 1.), (0.707106781186548, 0.499999999999998, 0.707106781186548), (1., 0.707106781186544, 1.), (0.707106781186548, 0.499999999999998, 0.707106781186548), (1., 0.707106781186544, 1.), (0.707106781186548, 0.499999999999998, 0.707106781186548), (1., 0.707106781186544, 1.), (0.707106781186548, 0.499999999999998, 0.707106781186548), (1., 0.707106781186544, 1.)))
   REPRESENTATION_ITEM ('')
   SURFACE ()
);
#274 = CARTESIAN_POINT('', (-2., 3.17489682678951E-15, -49.85));
#275 = CARTESIAN_POINT('', (-2., 3.18408167778312E-15, -50.));
#276 = CARTESIAN_POINT('', (-1.85, 3.17489682678951E-15, -50.));
#277 = CARTESIAN_POINT('', (-2., 2., -49.85));
#278 = CARTESIAN_POINT('', (-2., 2., -50.));
#279 = CARTESIAN_POINT('', (-1.85, 1.85, -50.));
#280 = CARTESIAN_POINT('', (1.62995889657379E-15, 2., -49.85));
#281 = CARTESIAN_POINT('', (1.6391437475674E-15, 2., -50.));
#282 = CARTESIAN_POINT('', (1.6391437475674E-15, 1.85, -50.));
#283 = CARTESIAN_POINT('', (2., 2., -49.85));
#284 = CARTESIAN_POINT('', (2., 2., -50.));
#285 = CARTESIAN_POINT('', (1.85, 1.85, -50.));
#286 = CARTESIAN_POINT('', (2., 1.78657001990399E-16, -49.85));
#287 = CARTESIAN_POINT('', (2., 1.69472150996789E-16, -50.));
#288 = CARTESIAN_POINT('', (1.85, 1.60287300003189E-16, -50.));
#289 = CARTESIAN_POINT('', (2., -2., -49.85));
#290 = CARTESIAN_POINT('', (2., -2., -50.));
#291 = CARTESIAN_POINT('', (1.85, -1.85, -50.));
#292 = CARTESIAN_POINT('', (-1.12135156839585E-15, -2., -49.85));
#293 = CARTESIAN_POINT('', (-1.13053641938946E-15, -2., -50.));
#294 = CARTESIAN_POINT('', (-1.14890612137666E-15, -1.85, -50.));
#295 = CARTESIAN_POINT('', (-2., -2., -49.85));
#296 = CARTESIAN_POINT('', (-2., -2., -50.));
#297 = CARTESIAN_POINT('', (-1.85, -1.85, -50.));
#298 = CARTESIAN_POINT('', (-2., 3.17489682678951E-15, -49.85));
#299 = CARTESIAN_POINT('', (-2., 3.18408167778312E-15, -50.));
#300 = CARTESIAN_POINT('', (-1.85, 3.17489682678951E-15, -50.));
#301 = ADVANCED_FACE('', (#302), #305, .T.);
#302 = FACE_OUTER_BOUND('', #303, .T.);
#303 = EDGE_LOOP('', (#304));
#304 = ORIENTED_EDGE('', *, *, #267, .T.);
#305 = B_SPLINE_SURFACE_WITH_KNOTS('', 1, 1, ((#306, #307), (#308, #309)), .UNSPECIFIED., .F., .F., .U., (2, 2), (2, 2), (0.0454545454545454, 0.954545454545455), (0.0454545454545454, 0.954545454545455), .UNSPECIFIED.);
#306 = CARTESIAN_POINT('', (1.85, -1.85, -50.));
#307 = CARTESIAN_POINT('', (1.85, 1.85, -50.));
#308 = CARTESIAN_POINT('', (-1.85, -1.85, -50.));
#309 = CARTESIAN_POINT('', (-1.85, 1.85, -50.));
#310 = PRESENTATION_STYLE_ASSIGNMENT((#311));
#311 = SURFACE_STYLE_USAGE(.POSITIVE., #312);
#312 = SURFACE_SIDE_STYLE('', (#313));
#313 = SURFACE_STYLE_FILL_AREA(#314);
#314 = FILL_AREA_STYLE('', (#315));
#315 = FILL_AREA_STYLE_COLOUR('', #316);
#316 = COLOUR_RGB('', 0.8, 0.8, 0.8);
#317 = STYLED_ITEM('', (#310), #194);
#318 = TRIMMED_CURVE('cutting part line', #319, (#323), (#324), .T., .CARTESIAN.);
#319 = LINE('', #320, #321);
#320 = CARTESIAN_POINT('', (2.35922392732846E-16, 0., -50.));
#321 = VECTOR('', #322, 1.85);
#322 = DIRECTION('', (1.85, 0., 7.105427357601E-15));
#323 = CARTESIAN_POINT('', (2.35922392732846E-16, 0., -50.));
#324 = CARTESIAN_POINT('', (1.85, 0., -50.));
#325 = TRIMMED_CURVE('cutting part line', #326, (#331), (#332), .T., .CARTESIAN.);
#326 = CIRCLE('', #327, 0.15000000000001);
#327 = AXIS2_PLACEMENT_3D('', #328, #329, #330);
#328 = CARTESIAN_POINT('', (1.84999999999999, 1.36902627732402E-15, -49.85));
#329 = DIRECTION('', (6.4763009769801E-16, -1., 9.25185853854224E-17));
#330 = DIRECTION('', (4.1448326252669E-14, -9.25185853853955E-17, -1.));
#331 = CARTESIAN_POINT('', (1.85, 1.35514848951621E-15, -50.));
#332 = CARTESIAN_POINT('', (2., 1.46617079197872E-15, -49.85));
#333 = TRIMMED_CURVE('cutting part line', #334, (#338), (#339), .T., .CARTESIAN.);
#334 = LINE('', #335, #336);
#335 = CARTESIAN_POINT('', (2., 1.66508089842153E-16, -49.85));
#336 = VECTOR('', #337, 5.85);
#337 = DIRECTION('', (0., -1.66508089842153E-16, 5.85));
#338 = CARTESIAN_POINT('', (2., 1.66508089842153E-16, -49.85));
#339 = CARTESIAN_POINT('', (2., 0., -44.));
#340 = TRIMMED_CURVE('cutting part line', #341, (#345), (#346), .T., .CARTESIAN.);
#341 = LINE('', #342, #343);
#342 = CARTESIAN_POINT('', (2., 0., -44.));
#343 = VECTOR('', #344, 2.);
#344 = DIRECTION('', (-2., 0., 0.));
#345 = CARTESIAN_POINT('', (2., 0., -44.));
#346 = CARTESIAN_POINT('', (0., 0., -44.));
#347 = TRIMMED_CURVE('cutting part line', #348, (#352), (#353), .T., .CARTESIAN.);
#348 = LINE('', #349, #350);
#349 = CARTESIAN_POINT('', (0., 0., -44.));
#350 = VECTOR('', #351, 6.);
#351 = DIRECTION('', (0., 0., -6.));
#352 = CARTESIAN_POINT('', (0., 0., -44.));
#353 = CARTESIAN_POINT('', (0., 0., -50.));
#354 = COMPOSITE_CURVE('cutting part line', (#355, #356, #357, #358, #359), .U.);
#355 = COMPOSITE_CURVE_SEGMENT(.CONTINUOUS., .T., #318);
#356 = COMPOSITE_CURVE_SEGMENT(.CONTINUOUS., .T., #325);
#357 = COMPOSITE_CURVE_SEGMENT(.CONTINUOUS., .T., #333);
#358 = COMPOSITE_CURVE_SEGMENT(.CONTINUOUS., .T., #340);
#359 = COMPOSITE_CURVE_SEGMENT(.CONTINUOUS., .T., #347);
#360 = GEOMETRIC_SET('', (#354, #403));
#361 = PRESENTATION_STYLE_ASSIGNMENT((#362));
#362 = CURVE_STYLE('', #364, POSITIVE_LENGTH_MEASURE(1.E-6), #363);
#363 = COLOUR_RGB('', 0., 0., 1.);
#364 = DRAUGHTING_PRE_DEFINED_CURVE_FONT('continuous');
#365 = STYLED_ITEM('', (#361), #354);
#366 = PRESENTATION_STYLE_ASSIGNMENT((#367));
#367 = CURVE_STYLE('', #369, POSITIVE_LENGTH_MEASURE(1.E-6), #368);
#368 = COLOUR_RGB('', 0., 0., 1.);
#369 = DRAUGHTING_PRE_DEFINED_CURVE_FONT('continuous');
#370 = OVER_RIDING_STYLED_ITEM('', (#366), #318, #365);
#371 = PRESENTATION_STYLE_ASSIGNMENT((#372));
#372 = CURVE_STYLE('', #374, POSITIVE_LENGTH_MEASURE(1.E-6), #373);
#373 = COLOUR_RGB('', 0., 0., 1.);
#374 = DRAUGHTING_PRE_DEFINED_CURVE_FONT('continuous');
#375 = OVER_RIDING_STYLED_ITEM('', (#371), #325, #365);
#376 = PRESENTATION_STYLE_ASSIGNMENT((#377));
#377 = CURVE_STYLE('', #379, POSITIVE_LENGTH_MEASURE(1.E-6), #378);
#378 = COLOUR_RGB('', 0., 0., 1.);
#379 = DRAUGHTING_PRE_DEFINED_CURVE_FONT('continuous');
#380 = OVER_RIDING_STYLED_ITEM('', (#376), #333, #365);
#381 = PRESENTATION_STYLE_ASSIGNMENT((#382));
#382 = CURVE_STYLE('', #384, POSITIVE_LENGTH_MEASURE(1.E-6), #383);
#383 = COLOUR_RGB('', 0., 0., 1.);
#384 = DRAUGHTING_PRE_DEFINED_CURVE_FONT('continuous');
#385 = OVER_RIDING_STYLED_ITEM('', (#381), #340, #365);
#386 = PRESENTATION_STYLE_ASSIGNMENT((#387));
#387 = CURVE_STYLE('', #389, POSITIVE_LENGTH_MEASURE(1.E-6), #388);
#388 = COLOUR_RGB('', 0., 0., 1.);
#389 = DRAUGHTING_PRE_DEFINED_CURVE_FONT('continuous');
#390 = OVER_RIDING_STYLED_ITEM('', (#386), #347, #365);
#391 = AXIS2_PLACEMENT_3D('MCS', #392, #393, #394);
#392 = CARTESIAN_POINT('', (0., 0., -28.));
#393 = DIRECTION('', (0., 0., 1.));
#394 = DIRECTION('', (1., 0., 0.));
#395 = AXIS2_PLACEMENT_3D('PCS', #396, #397, #398);
#396 = CARTESIAN_POINT('', (0., 0., 0.));
#397 = DIRECTION('', (0., 0., 1.));
#398 = DIRECTION('', (1., 0., 0.));
#399 = AXIS2_PLACEMENT_3D('CIP', #400, #401, #402);
#400 = CARTESIAN_POINT('', (0., 0., -50.));
#401 = DIRECTION('', (0., 0., 1.));
#402 = DIRECTION('', (1., 0., 0.));
#403 = CARTESIAN_POINT('CRP', (2., 0., -50.));
#404 = (
   GEOMETRIC_REPRESENTATION_CONTEXT (3)
   GLOBAL_UNCERTAINTY_ASSIGNED_CONTEXT ((#406))
   GLOBAL_UNIT_ASSIGNED_CONTEXT ((#405, #407, #408))
   REPRESENTATION_CONTEXT ('', '3D')
);
#405 = (
   LENGTH_UNIT ()
   NAMED_UNIT (*)
   SI_UNIT (.MILLI., .METRE.)
);
#406 = UNCERTAINTY_MEASURE_WITH_UNIT(LENGTH_MEASURE(1.E-6), #405, 'DISTANCE_ACCURACY_VALUE', '');
#407 = (
   NAMED_UNIT (*)
   SI_UNIT ($, .STERADIAN.)
   SOLID_ANGLE_UNIT ()
);
#408 = (
   NAMED_UNIT (*)
   PLANE_ANGLE_UNIT ()
   SI_UNIT ($, .RADIAN.)
);
#409 = SHAPE_REPRESENTATION('', (), #404);
#410 = PRODUCT_DEFINITION_SHAPE('', '', #411);
#411 = PRODUCT_DEFINITION('', '', #414, #418);
#412 = APPLICATION_CONTEXT('configuration controlled 3D designs of mechanical parts and assemblies');
#413 = APPLICATION_PROTOCOL_DEFINITION('International Standard', 'automotive_design', 2002, #412);
#414 = PRODUCT_DEFINITION_FORMATION_WITH_SPECIFIED_SOURCE('', '', #415, .NOT_KNOWN.);
#415 = PRODUCT('product-name', '2P121-0400-NC       H10F', '', (#416));
#416 = PRODUCT_CONTEXT('', #412, 'mechanical');
#417 = PRODUCT_RELATED_PRODUCT_CATEGORY('detail', '', (#415));
#418 = PRODUCT_DEFINITION_CONTEXT('part definition', #412, 'design');
#419 = SHAPE_DEFINITION_REPRESENTATION(#410, #409);
#420 = CONSTRUCTIVE_GEOMETRY_REPRESENTATION('supplemental geometry', (#391, #395, #399), #404);
#421 = CONSTRUCTIVE_GEOMETRY_REPRESENTATION_RELATIONSHIP('', '', #409, #420);
#422 = SHAPE_REPRESENTATION_RELATIONSHIP('', '', #409, #423);
#423 = SHAPE_REPRESENTATION('', (#360), #404);
#424 = SHAPE_REPRESENTATION_RELATIONSHIP('', '', #409, #425);
#425 = ADVANCED_BREP_SHAPE_REPRESENTATION('', (#1, #194), #404);
ENDSEC;
END-ISO-10303-21;
