ISO-10303-21;
HEADER;
FILE_DESCRIPTION(('STEP'), '1');
FILE_NAME('C:\\Users\\ds2002\\OneDrive - Sandvik\\HomeShare\\Documents\\Batchrepair\\CorSRT2\\NEW_MILSQ_SLD\\Output\\MOD000000000000000020082305800000.stp', '2019-01-02T12:10:19', (''), (''), 'Express v3.0.0.0', 'Express Tool', 'Unknown');
FILE_SCHEMA(('AUTOMOTIVE_DESIGN'));
ENDSEC;

DATA;
#1 = MANIFOLD_SOLID_BREP('NOCUT', #2);
#2 = CLOSED_SHELL('', (#3, #50, #89, #128, #167, #176));
#3 = ADVANCED_FACE('', (#4), #31, .T.);
#4 = FACE_OUTER_BOUND('', #5, .T.);
#5 = EDGE_LOOP('', (#6, #16, #23, #24));
#6 = ORIENTED_EDGE('', *, *, #7, .F.);
#7 = EDGE_CURVE('', #8, #10, #12, .T.);
#8 = VERTEX_POINT('', #9);
#9 = CARTESIAN_POINT('', (-0.9, 2.03903692058034E-15, -32.4));
#10 = VERTEX_POINT('', #11);
#11 = CARTESIAN_POINT('', (-0.9, 2.1982410044695E-15, -35.));
#12 = LINE('', #13, #14);
#13 = CARTESIAN_POINT('', (-0.9, 2.03903692058034E-15, -32.4));
#14 = VECTOR('', #15, 2.6);
#15 = DIRECTION('', (0., 1.5920408388916E-16, -2.6));
#16 = ORIENTED_EDGE('', *, *, #17, .T.);
#17 = EDGE_CURVE('', #8, #8, #18, .T.);
#18 = CIRCLE('', #19, 0.9);
#19 = AXIS2_PLACEMENT_3D('', #20, #21, #22);
#20 = CARTESIAN_POINT('', (-1.04083408558608E-17, 1.88737914186277E-15, -32.4));
#21 = DIRECTION('', (0., 0., -1.));
#22 = DIRECTION('', (-1., 1.68508643019527E-16, 0.));
#23 = ORIENTED_EDGE('', *, *, #7, .T.);
#24 = ORIENTED_EDGE('', *, *, #25, .F.);
#25 = EDGE_CURVE('', #10, #10, #26, .T.);
#26 = CIRCLE('', #27, 0.9);
#27 = AXIS2_PLACEMENT_3D('', #28, #29, #30);
#28 = CARTESIAN_POINT('', (-4.05925293378573E-16, 1.83186799063151E-15, -35.));
#29 = DIRECTION('', (0., 0., -1.));
#30 = DIRECTION('', (-1., 4.07081126486658E-16, 0.));
#31 = (
   BOUNDED_SURFACE ()
   B_SPLINE_SURFACE (2, 1, ((#32, #33), (#34, #35), (#36, #37), (#38, #39), (#40, #41), (#42, #43), (#44, #45), (#46, #47), (#48, #49)), .UNSPECIFIED., .T., .F., .U.)
   B_SPLINE_SURFACE_WITH_KNOTS ((3, 2, 2, 2, 3), (2, 2), (0., 1.41371669411541, 2.82743338823082, 4.24115008234622, 5.65486677646163), (0., 1.), .UNSPECIFIED.)
   GEOMETRIC_REPRESENTATION_ITEM ()
   RATIONAL_B_SPLINE_SURFACE (((1., 1.), (0.707106781186548, 0.707106781186548), (1., 1.), (0.707106781186548, 0.707106781186548), (1., 1.), (0.707106781186548, 0.707106781186548), (1., 1.), (0.707106781186548, 0.707106781186548), (1., 1.)))
   REPRESENTATION_ITEM ('')
   SURFACE ()
);
#32 = CARTESIAN_POINT('', (-0.9, 2.03903692058034E-15, -32.4));
#33 = CARTESIAN_POINT('', (-0.9, 2.64965958412418E-15, -35.));
#34 = CARTESIAN_POINT('', (-0.9, 0.900000000000002, -32.4));
#35 = CARTESIAN_POINT('', (-0.9, 0.900000000000003, -35.));
#36 = CARTESIAN_POINT('', (4.26146133191537E-16, 0.900000000000001, -32.4));
#37 = CARTESIAN_POINT('', (4.26146133191537E-16, 0.900000000000002, -35.));
#38 = CARTESIAN_POINT('', (0.9, 0.9, -32.4));
#39 = CARTESIAN_POINT('', (0.9, 0.900000000000001, -35.));
#40 = CARTESIAN_POINT('', (0.9, 5.13671945518266E-16, -32.4));
#41 = CARTESIAN_POINT('', (0.9, 1.1242946090621E-15, -35.));
#42 = CARTESIAN_POINT('', (0.899999999999999, -0.899999999999999, -32.4));
#43 = CARTESIAN_POINT('', (0.899999999999999, -0.899999999999999, -35.));
#44 = CARTESIAN_POINT('', (-9.89000629947276E-16, -0.899999999999999, -32.4));
#45 = CARTESIAN_POINT('', (-9.89000629947275E-16, -0.899999999999998, -35.));
#46 = CARTESIAN_POINT('', (-0.900000000000001, -0.899999999999998, -32.4));
#47 = CARTESIAN_POINT('', (-0.900000000000001, -0.899999999999998, -35.));
#48 = CARTESIAN_POINT('', (-0.9, 2.03903692058034E-15, -32.4));
#49 = CARTESIAN_POINT('', (-0.9, 2.64965958412418E-15, -35.));
#50 = ADVANCED_FACE('', (#51), #70, .T.);
#51 = FACE_OUTER_BOUND('', #52, .T.);
#52 = EDGE_LOOP('', (#53, #61, #68, #69));
#53 = ORIENTED_EDGE('', *, *, #54, .F.);
#54 = EDGE_CURVE('', #55, #8, #57, .T.);
#55 = VERTEX_POINT('', #56);
#56 = CARTESIAN_POINT('', (-1.5, 2.02066721859313E-15, -31.5));
#57 = LINE('', #58, #59);
#58 = CARTESIAN_POINT('', (-1.5, 2.02066721859313E-15, -31.5));
#59 = VECTOR('', #60, 1.0816653826392);
#60 = DIRECTION('', (0.6, 1.836970198721E-17, -0.899999999999999));
#61 = ORIENTED_EDGE('', *, *, #62, .T.);
#62 = EDGE_CURVE('', #55, #55, #63, .T.);
#63 = CIRCLE('', #64, 1.5);
#64 = AXIS2_PLACEMENT_3D('', #65, #66, #67);
#65 = CARTESIAN_POINT('', (2.91433543964104E-16, 4.44089209850063E-16, -31.5));
#66 = DIRECTION('', (0., 0., -1.));
#67 = DIRECTION('', (-1., 1.05105200582871E-15, 0.));
#68 = ORIENTED_EDGE('', *, *, #54, .T.);
#69 = ORIENTED_EDGE('', *, *, #17, .F.);
#70 = (
   BOUNDED_SURFACE ()
   B_SPLINE_SURFACE (2, 1, ((#71, #72), (#73, #74), (#75, #76), (#77, #78), (#79, #80), (#81, #82), (#83, #84), (#85, #86), (#87, #88)), .UNSPECIFIED., .T., .F., .U.)
   B_SPLINE_SURFACE_WITH_KNOTS ((3, 2, 2, 2, 3), (2, 2), (0., 0.25, 0.5, 0.75, 1.), (0., 1.), .UNSPECIFIED.)
   GEOMETRIC_REPRESENTATION_ITEM ()
   RATIONAL_B_SPLINE_SURFACE (((1., 1.), (0.707106781186548, 0.707106781186548), (1., 1.), (0.707106781186548, 0.707106781186548), (1., 1.), (0.707106781186548, 0.707106781186548), (1., 1.), (0.707106781186548, 0.707106781186548), (1., 1.)))
   REPRESENTATION_ITEM ('')
   SURFACE ()
);
#71 = CARTESIAN_POINT('', (-1.5, 2.02066721859313E-15, -31.5));
#72 = CARTESIAN_POINT('', (-0.9, 2.83332594710861E-15, -32.4));
#73 = CARTESIAN_POINT('', (-1.5, 1.5, -31.5));
#74 = CARTESIAN_POINT('', (-0.899999999999999, 0.900000000000003, -32.4));
#75 = CARTESIAN_POINT('', (1.77616304277112E-15, 1.5, -31.5));
#76 = CARTESIAN_POINT('', (1.18227124324831E-15, 0.900000000000002, -32.4));
#77 = CARTESIAN_POINT('', (1.5, 1.5, -31.5));
#78 = CARTESIAN_POINT('', (0.900000000000001, 0.900000000000001, -32.4));
#79 = CARTESIAN_POINT('', (1.5, -9.48791779020902E-16, -31.5));
#80 = CARTESIAN_POINT('', (0.9, 1.05165054854019E-15, -32.4));
#81 = CARTESIAN_POINT('', (1.5, -1.5, -31.5));
#82 = CARTESIAN_POINT('', (0.9, -0.899999999999999, -32.4));
#83 = CARTESIAN_POINT('', (-1.00959893497081E-15, -1.5, -31.5));
#84 = CARTESIAN_POINT('', (-4.89185943396842E-16, -0.899999999999998, -32.4));
#85 = CARTESIAN_POINT('', (-1.5, -1.5, -31.5));
#86 = CARTESIAN_POINT('', (-0.9, -0.899999999999998, -32.4));
#87 = CARTESIAN_POINT('', (-1.5, 2.02066721859313E-15, -31.5));
#88 = CARTESIAN_POINT('', (-0.9, 2.83332594710861E-15, -32.4));
#89 = ADVANCED_FACE('', (#90), #109, .T.);
#90 = FACE_OUTER_BOUND('', #91, .T.);
#91 = EDGE_LOOP('', (#92, #100, #107, #108));
#92 = ORIENTED_EDGE('', *, *, #93, .T.);
#93 = EDGE_CURVE('', #55, #94, #96, .T.);
#94 = VERTEX_POINT('', #95);
#95 = CARTESIAN_POINT('', (-1.5, 1.01033360929657E-16, -0.149999999999999));
#96 = LINE('', #97, #98);
#97 = CARTESIAN_POINT('', (-1.5, 2.02066721859313E-15, -31.5));
#98 = VECTOR('', #99, 31.35);
#99 = DIRECTION('', (0., -1.91963385766347E-15, 31.35));
#100 = ORIENTED_EDGE('', *, *, #101, .T.);
#101 = EDGE_CURVE('', #94, #94, #102, .T.);
#102 = CIRCLE('', #103, 1.5);
#103 = AXIS2_PLACEMENT_3D('', #104, #105, #106);
#104 = CARTESIAN_POINT('', (1.52655665885959E-16, -3.60822483003176E-16, -0.149999999999999));
#105 = DIRECTION('', (0., 0., -1.));
#106 = DIRECTION('', (-1., 3.07903895955222E-16, 0.));
#107 = ORIENTED_EDGE('', *, *, #93, .F.);
#108 = ORIENTED_EDGE('', *, *, #62, .F.);
#109 = (
   BOUNDED_SURFACE ()
   B_SPLINE_SURFACE (1, 2, ((#110, #111, #112, #113, #114, #115, #116, #117, #118), (#119, #120, #121, #122, #123, #124, #125, #126, #127)), .UNSPECIFIED., .F., .T., .U.)
   B_SPLINE_SURFACE_WITH_KNOTS ((2, 2), (3, 2, 2, 2, 3), (0., 1.), (0., 2.35619449019235, 4.71238898038469, 7.06858347057704, 9.42477796076938), .UNSPECIFIED.)
   GEOMETRIC_REPRESENTATION_ITEM ()
   RATIONAL_B_SPLINE_SURFACE (((1., 0.707106781186548, 1., 0.707106781186548, 1., 0.707106781186548, 1., 0.707106781186548, 1.), (1., 0.707106781186548, 1., 0.707106781186548, 1., 0.707106781186548, 1., 0.707106781186548, 1.)))
   REPRESENTATION_ITEM ('')
   SURFACE ()
);
#110 = CARTESIAN_POINT('', (-1.5, 1.26676753678607E-15, -31.5));
#111 = CARTESIAN_POINT('', (-1.5, 1.5, -31.5));
#112 = CARTESIAN_POINT('', (5.22662999882741E-16, 1.5, -31.5));
#113 = CARTESIAN_POINT('', (1.5, 1.5, -31.5));
#114 = CARTESIAN_POINT('', (1.5, 5.26752868792509E-16, -31.5));
#115 = CARTESIAN_POINT('', (1.5, -1.5, -31.5));
#116 = CARTESIAN_POINT('', (-3.36546482387188E-17, -1.5, -31.5));
#117 = CARTESIAN_POINT('', (-1.5, -1.5, -31.5));
#118 = CARTESIAN_POINT('', (-1.5, 1.26676753678607E-15, -31.5));
#119 = CARTESIAN_POINT('', (-1.5, 1.01033360929657E-16, -0.149999999999999));
#120 = CARTESIAN_POINT('', (-1.5, 1.5, -0.149999999999999));
#121 = CARTESIAN_POINT('', (5.2266299988274E-16, 1.5, -0.149999999999999));
#122 = CARTESIAN_POINT('', (1.5, 1.5, -0.149999999999999));
#123 = CARTESIAN_POINT('', (1.5, -6.38981307063906E-16, -0.149999999999999));
#124 = CARTESIAN_POINT('', (1.5, -1.5, -0.149999999999999));
#125 = CARTESIAN_POINT('', (-3.36546482387192E-17, -1.5, -0.149999999999999));
#126 = CARTESIAN_POINT('', (-1.5, -1.5, -0.149999999999999));
#127 = CARTESIAN_POINT('', (-1.5, 1.01033360929657E-16, -0.149999999999999));
#128 = ADVANCED_FACE('', (#129), #148, .T.);
#129 = FACE_OUTER_BOUND('', #130, .T.);
#130 = EDGE_LOOP('', (#131, #139, #146, #147));
#131 = ORIENTED_EDGE('', *, *, #132, .T.);
#132 = EDGE_CURVE('', #94, #133, #135, .T.);
#133 = VERTEX_POINT('', #134);
#134 = CARTESIAN_POINT('', (-1.35, 8.26636589424463E-17, 0.));
#135 = LINE('', #136, #137);
#136 = CARTESIAN_POINT('', (-1.5, 1.01033360929657E-16, -0.149999999999999));
#137 = VECTOR('', #138, 0.212132034355963);
#138 = DIRECTION('', (0.15, -1.83697019872107E-17, 0.149999999999999));
#139 = ORIENTED_EDGE('', *, *, #140, .T.);
#140 = EDGE_CURVE('', #133, #133, #141, .T.);
#141 = CIRCLE('', #142, 1.35);
#142 = AXIS2_PLACEMENT_3D('', #143, #144, #145);
#143 = CARTESIAN_POINT('', (4.61436444609831E-16, -6.38378239159465E-16, -7.7875102531819E-16));
#144 = DIRECTION('', (-5.76852611346806E-16, 1.6649441676109E-15, -1.));
#145 = DIRECTION('', (-1., 5.34105109705119E-16, 5.76852611346807E-16));
#146 = ORIENTED_EDGE('', *, *, #132, .F.);
#147 = ORIENTED_EDGE('', *, *, #101, .F.);
#148 = (
   BOUNDED_SURFACE ()
   B_SPLINE_SURFACE (1, 2, ((#149, #150, #151, #152, #153, #154, #155, #156, #157), (#158, #159, #160, #161, #162, #163, #164, #165, #166)), .UNSPECIFIED., .F., .T., .U.)
   B_SPLINE_SURFACE_WITH_KNOTS ((2, 2), (3, 2, 2, 2, 3), (0., 1.), (0., 0.25, 0.5, 0.75, 1.), .UNSPECIFIED.)
   GEOMETRIC_REPRESENTATION_ITEM ()
   RATIONAL_B_SPLINE_SURFACE (((1., 0.707106781186548, 1., 0.707106781186548, 1., 0.707106781186548, 1., 0.707106781186548, 1.), (1., 0.707106781186548, 1., 0.707106781186548, 1., 0.707106781186548, 1., 0.707106781186548, 1.)))
   REPRESENTATION_ITEM ('')
   SURFACE ()
);
#149 = CARTESIAN_POINT('', (-1.5, 7.45646513326421E-16, -0.149999999999998));
#150 = CARTESIAN_POINT('', (-1.5, 1.5, -0.149999999999992));
#151 = CARTESIAN_POINT('', (1.08421770752944E-15, 1.5, -0.149999999999993));
#152 = CARTESIAN_POINT('', (1.5, 1.5, -0.149999999999994));
#153 = CARTESIAN_POINT('', (1.5, -6.72971795916834E-16, -0.15));
#154 = CARTESIAN_POINT('', (1.5, -1.5, -0.150000000000006));
#155 = CARTESIAN_POINT('', (-1.50703581841717E-16, -1.5, -0.150000000000005));
#156 = CARTESIAN_POINT('', (-1.5, -1.5, -0.150000000000004));
#157 = CARTESIAN_POINT('', (-1.5, 7.45646513326421E-16, -0.149999999999998));
#158 = CARTESIAN_POINT('', (-1.35, 8.2663658942446E-17, -2.95822839457879E-31));
#159 = CARTESIAN_POINT('', (-1.35, 1.35, 5.24580379135393E-15));
#160 = CARTESIAN_POINT('', (1.0998146837693E-15, 1.35, 4.46705276603574E-15));
#161 = CARTESIAN_POINT('', (1.35, 1.35, 3.68830174071755E-15));
#162 = CARTESIAN_POINT('', (1.35, -1.19409281937648E-15, -1.55750205063638E-15));
#163 = CARTESIAN_POINT('', (1.35, -1.35, -6.80330584199031E-15));
#164 = CARTESIAN_POINT('', (-1.16144766647444E-17, -1.35, -6.02455481667212E-15));
#165 = CARTESIAN_POINT('', (-1.35, -1.35, -5.24580379135393E-15));
#166 = CARTESIAN_POINT('', (-1.35, 8.2663658942446E-17, -2.95822839457879E-31));
#167 = ADVANCED_FACE('', (#168), #171, .T.);
#168 = FACE_OUTER_BOUND('', #169, .T.);
#169 = EDGE_LOOP('', (#170));
#170 = ORIENTED_EDGE('', *, *, #140, .F.);
#171 = B_SPLINE_SURFACE_WITH_KNOTS('', 1, 1, ((#172, #173), (#174, #175)), .UNSPECIFIED., .F., .F., .U., (2, 2), (2, 2), (0.0454545454545454, 0.954545454545454), (0.0454545454545454, 0.954545454545454), .UNSPECIFIED.);
#172 = CARTESIAN_POINT('', (1.35, -1.35, -8.26636589424464E-17));
#173 = CARTESIAN_POINT('', (-1.35, -1.35, -8.26636589424463E-17));
#174 = CARTESIAN_POINT('', (1.35, 1.35, 8.26636589424463E-17));
#175 = CARTESIAN_POINT('', (-1.35, 1.35, 8.26636589424464E-17));
#176 = ADVANCED_FACE('', (#177), #180, .T.);
#177 = FACE_OUTER_BOUND('', #178, .T.);
#178 = EDGE_LOOP('', (#179));
#179 = ORIENTED_EDGE('', *, *, #25, .T.);
#180 = B_SPLINE_SURFACE_WITH_KNOTS('', 1, 1, ((#181, #182), (#183, #184)), .UNSPECIFIED., .F., .F., .U., (2, 2), (2, 2), (0.504748906409021, 0.528286863718918), (0.471713136281082, 0.495251093590978), .UNSPECIFIED.);
#181 = CARTESIAN_POINT('', (-0.900000000000006, 0.900000000000013, -35.));
#182 = CARTESIAN_POINT('', (-0.900000000000006, -0.899999999999991, -35.));
#183 = CARTESIAN_POINT('', (0.899999999999991, 0.900000000000013, -35.));
#184 = CARTESIAN_POINT('', (0.899999999999991, -0.899999999999991, -35.));
#185 = DRAUGHTING_MODEL('', (#193, #317, #365, #370, #375, #380, #385, #390), #404);
#186 = PRESENTATION_STYLE_ASSIGNMENT((#187));
#187 = SURFACE_STYLE_USAGE(.POSITIVE., #188);
#188 = SURFACE_SIDE_STYLE('', (#189));
#189 = SURFACE_STYLE_FILL_AREA(#190);
#190 = FILL_AREA_STYLE('', (#191));
#191 = FILL_AREA_STYLE_COLOUR('', #192);
#192 = COLOUR_RGB('', 0.50196078431373, 0.50196078431373, 0.50196078431373);
#193 = STYLED_ITEM('', (#186), #1);
#194 = MANIFOLD_SOLID_BREP('CUT', #195);
#195 = CLOSED_SHELL('', (#196, #213, #252, #301));
#196 = ADVANCED_FACE('', (#197), #208, .T.);
#197 = FACE_OUTER_BOUND('', #198, .T.);
#198 = EDGE_LOOP('', (#199));
#199 = ORIENTED_EDGE('', *, *, #200, .F.);
#200 = EDGE_CURVE('', #201, #201, #203, .T.);
#201 = VERTEX_POINT('', #202);
#202 = CARTESIAN_POINT('', (-1., 2.20436423846524E-15, -35.));
#203 = CIRCLE('', #204, 1.);
#204 = AXIS2_PLACEMENT_3D('', #205, #206, #207);
#205 = CARTESIAN_POINT('', (1.31838984174237E-16, 1.49880108324396E-15, -35.));
#206 = DIRECTION('', (0., 0., -1.));
#207 = DIRECTION('', (-1., 7.05563155221279E-16, 0.));
#208 = B_SPLINE_SURFACE_WITH_KNOTS('', 1, 1, ((#209, #210), (#211, #212)), .UNSPECIFIED., .F., .F., .U., (2, 2), (2, 2), (0.0454545454545453, 0.954545454545454), (0.0454545454545455, 0.954545454545454), .UNSPECIFIED.);
#209 = CARTESIAN_POINT('', (1., -0.999999999999998, -35.));
#210 = CARTESIAN_POINT('', (-1., -0.999999999999998, -35.));
#211 = CARTESIAN_POINT('', (1., 1., -35.));
#212 = CARTESIAN_POINT('', (-1., 1., -35.));
#213 = ADVANCED_FACE('', (#214), #233, .T.);
#214 = FACE_OUTER_BOUND('', #215, .T.);
#215 = EDGE_LOOP('', (#216, #224, #225, #226));
#216 = ORIENTED_EDGE('', *, *, #217, .F.);
#217 = EDGE_CURVE('', #201, #218, #220, .T.);
#218 = VERTEX_POINT('', #219);
#219 = CARTESIAN_POINT('', (-1., 2.37887640734373E-15, -37.85));
#220 = LINE('', #221, #222);
#221 = CARTESIAN_POINT('', (-1., 2.20436423846524E-15, -35.));
#222 = VECTOR('', #223, 2.85);
#223 = DIRECTION('', (0., 1.7451216887849E-16, -2.85));
#224 = ORIENTED_EDGE('', *, *, #200, .T.);
#225 = ORIENTED_EDGE('', *, *, #217, .T.);
#226 = ORIENTED_EDGE('', *, *, #227, .F.);
#227 = EDGE_CURVE('', #218, #218, #228, .T.);
#228 = CIRCLE('', #229, 1.);
#229 = AXIS2_PLACEMENT_3D('', #230, #231, #232);
#230 = CARTESIAN_POINT('', (-7.97972798949331E-17, 1.85962356624714E-15, -37.85));
#231 = DIRECTION('', (0., 0., -1.));
#232 = DIRECTION('', (-1., 5.19252841096593E-16, 0.));
#233 = (
   BOUNDED_SURFACE ()
   B_SPLINE_SURFACE (2, 1, ((#234, #235), (#236, #237), (#238, #239), (#240, #241), (#242, #243), (#244, #245), (#246, #247), (#248, #249), (#250, #251)), .UNSPECIFIED., .T., .F., .U.)
   B_SPLINE_SURFACE_WITH_KNOTS ((3, 2, 2, 2, 3), (2, 2), (0., 1.5707963267949, 3.14159265358979, 4.71238898038469, 6.28318530717959), (0., 1.), .UNSPECIFIED.)
   GEOMETRIC_REPRESENTATION_ITEM ()
   RATIONAL_B_SPLINE_SURFACE (((1., 1.), (0.707106781186548, 0.707106781186548), (1., 1.), (0.707106781186548, 0.707106781186548), (1., 1.), (0.707106781186548, 0.707106781186548), (1., 1.), (0.707106781186548, 0.707106781186548), (1., 1.)))
   REPRESENTATION_ITEM ('')
   SURFACE ()
);
#234 = CARTESIAN_POINT('', (-1., 2.20436423846524E-15, -35.));
#235 = CARTESIAN_POINT('', (-1., 2.37089769215901E-15, -37.85));
#236 = CARTESIAN_POINT('', (-0.999999999999999, 1., -35.));
#237 = CARTESIAN_POINT('', (-0.999999999999999, 1., -37.85));
#238 = CARTESIAN_POINT('', (3.73713953011529E-16, 1., -35.));
#239 = CARTESIAN_POINT('', (3.73713953011529E-16, 1., -37.85));
#240 = CARTESIAN_POINT('', (1., 1., -35.));
#241 = CARTESIAN_POINT('', (1., 1., -37.85));
#242 = CARTESIAN_POINT('', (0.999999999999999, 1.30428066655622E-15, -35.));
#243 = CARTESIAN_POINT('', (0.999999999999999, 1.47081412025E-15, -37.85));
#244 = CARTESIAN_POINT('', (0.999999999999999, -0.999999999999998, -35.));
#245 = CARTESIAN_POINT('', (0.999999999999999, -0.999999999999998, -37.85));
#246 = CARTESIAN_POINT('', (-4.03904938982753E-16, -0.999999999999998, -35.));
#247 = CARTESIAN_POINT('', (-4.03904938982753E-16, -0.999999999999998, -37.85));
#248 = CARTESIAN_POINT('', (-1., -0.999999999999997, -35.));
#249 = CARTESIAN_POINT('', (-1., -0.999999999999997, -37.85));
#250 = CARTESIAN_POINT('', (-1., 2.20436423846524E-15, -35.));
#251 = CARTESIAN_POINT('', (-1., 2.37089769215901E-15, -37.85));
#252 = ADVANCED_FACE('', (#253), #273, .T.);
#253 = FACE_OUTER_BOUND('', #254, .T.);
#254 = EDGE_LOOP('', (#255, #264, #265, #266));
#255 = ORIENTED_EDGE('', *, *, #256, .F.);
#256 = EDGE_CURVE('', #218, #257, #259, .T.);
#257 = VERTEX_POINT('', #258);
#258 = CARTESIAN_POINT('', (-0.85, 2.37887640734373E-15, -38.));
#259 = CIRCLE('', #260, 0.14999999999999);
#260 = AXIS2_PLACEMENT_3D('', #261, #262, #263);
#261 = CARTESIAN_POINT('', (-0.850000000000015, 2.36969155635012E-15, -37.85));
#262 = DIRECTION('', (-6.12323399573953E-17, -1., -6.12323399574001E-17));
#263 = DIRECTION('', (-1., 6.12323399573953E-17, 0.));
#264 = ORIENTED_EDGE('', *, *, #227, .T.);
#265 = ORIENTED_EDGE('', *, *, #256, .T.);
#266 = ORIENTED_EDGE('', *, *, #267, .F.);
#267 = EDGE_CURVE('', #257, #257, #268, .T.);
#268 = CIRCLE('', #269, 0.85);
#269 = AXIS2_PLACEMENT_3D('', #270, #271, #272);
#270 = CARTESIAN_POINT('', (2.77555756156289E-17, 2.1094237467878E-15, -38.));
#271 = DIRECTION('', (0., 0., -1.));
#272 = DIRECTION('', (-1., 3.17003130065803E-16, 0.));
#273 = (
   BOUNDED_SURFACE ()
   B_SPLINE_SURFACE (2, 2, ((#274, #275, #276), (#277, #278, #279), (#280, #281, #282), (#283, #284, #285), (#286, #287, #288), (#289, #290, #291), (#292, #293, #294), (#295, #296, #297), (#298, #299, #300)), .UNSPECIFIED., .T., .F., .U.)
   B_SPLINE_SURFACE_WITH_KNOTS ((3, 2, 2, 2, 3), (3, 3), (0., 0.25, 0.5, 0.75, 1.), (0., 1.), .UNSPECIFIED.)
   GEOMETRIC_REPRESENTATION_ITEM ()
   RATIONAL_B_SPLINE_SURFACE (((1., 0.707106781186548, 1.), (0.707106781186548, 0.5, 0.707106781186548), (1., 0.707106781186548, 1.), (0.707106781186548, 0.5, 0.707106781186548), (1., 0.707106781186548, 1.), (0.707106781186548, 0.5, 0.707106781186548), (1., 0.707106781186548, 1.), (0.707106781186548, 0.5, 0.707106781186548), (1., 0.707106781186548, 1.)))
   REPRESENTATION_ITEM ('')
   SURFACE ()
);
#274 = CARTESIAN_POINT('', (-1., 2.37887640734373E-15, -37.85));
#275 = CARTESIAN_POINT('', (-1., 2.38806125833734E-15, -38.));
#276 = CARTESIAN_POINT('', (-0.85, 2.37887640734373E-15, -38.));
#277 = CARTESIAN_POINT('', (-1., 1., -37.85));
#278 = CARTESIAN_POINT('', (-1., 1., -38.));
#279 = CARTESIAN_POINT('', (-0.85, 0.850000000000003, -38.));
#280 = CARTESIAN_POINT('', (3.05364835253266E-16, 1., -37.85));
#281 = CARTESIAN_POINT('', (3.14549686246876E-16, 1., -38.));
#282 = CARTESIAN_POINT('', (3.14549686246871E-16, 0.850000000000002, -38.));
#283 = CARTESIAN_POINT('', (1., 1., -37.85));
#284 = CARTESIAN_POINT('', (1., 1., -38.));
#285 = CARTESIAN_POINT('', (0.85, 0.850000000000002, -38.));
#286 = CARTESIAN_POINT('', (1., 1.90692461491534E-15, -37.85));
#287 = CARTESIAN_POINT('', (1., 1.89773976392173E-15, -38.));
#288 = CARTESIAN_POINT('', (0.85, 1.88855491292813E-15, -38.));
#289 = CARTESIAN_POINT('', (1., -0.999999999999998, -37.85));
#290 = CARTESIAN_POINT('', (1., -0.999999999999998, -38.));
#291 = CARTESIAN_POINT('', (0.85, -0.849999999999998, -38.));
#292 = CARTESIAN_POINT('', (-4.41222772603864E-17, -0.999999999999998, -37.85));
#293 = CARTESIAN_POINT('', (-5.33071282539964E-17, -0.999999999999998, -38.));
#294 = CARTESIAN_POINT('', (-7.16768302412018E-17, -0.849999999999998, -38.));
#295 = CARTESIAN_POINT('', (-1., -0.999999999999998, -37.85));
#296 = CARTESIAN_POINT('', (-1., -0.999999999999998, -38.));
#297 = CARTESIAN_POINT('', (-0.85, -0.849999999999998, -38.));
#298 = CARTESIAN_POINT('', (-1., 2.37887640734373E-15, -37.85));
#299 = CARTESIAN_POINT('', (-1., 2.38806125833734E-15, -38.));
#300 = CARTESIAN_POINT('', (-0.85, 2.37887640734373E-15, -38.));
#301 = ADVANCED_FACE('', (#302), #305, .T.);
#302 = FACE_OUTER_BOUND('', #303, .T.);
#303 = EDGE_LOOP('', (#304));
#304 = ORIENTED_EDGE('', *, *, #267, .T.);
#305 = B_SPLINE_SURFACE_WITH_KNOTS('', 1, 1, ((#306, #307), (#308, #309)), .UNSPECIFIED., .F., .F., .U., (2, 2), (2, 2), (0.0454545454545454, 0.954545454545454), (0.0454545454545453, 0.954545454545454), .UNSPECIFIED.);
#306 = CARTESIAN_POINT('', (0.85, -0.849999999999998, -38.));
#307 = CARTESIAN_POINT('', (0.85, 0.850000000000002, -38.));
#308 = CARTESIAN_POINT('', (-0.85, -0.849999999999998, -38.));
#309 = CARTESIAN_POINT('', (-0.85, 0.850000000000002, -38.));
#310 = PRESENTATION_STYLE_ASSIGNMENT((#311));
#311 = SURFACE_STYLE_USAGE(.POSITIVE., #312);
#312 = SURFACE_SIDE_STYLE('', (#313));
#313 = SURFACE_STYLE_FILL_AREA(#314);
#314 = FILL_AREA_STYLE('', (#315));
#315 = FILL_AREA_STYLE_COLOUR('', #316);
#316 = COLOUR_RGB('', 0.8, 0.8, 0.8);
#317 = STYLED_ITEM('', (#310), #194);
#318 = TRIMMED_CURVE('cutting part line', #319, (#323), (#324), .T., .CARTESIAN.);
#319 = LINE('', #320, #321);
#320 = CARTESIAN_POINT('', (0., 0., -38.));
#321 = VECTOR('', #322, 0.85);
#322 = DIRECTION('', (0.85, 0., 0.));
#323 = CARTESIAN_POINT('', (0., 0., -38.));
#324 = CARTESIAN_POINT('', (0.85, 0., -38.));
#325 = TRIMMED_CURVE('cutting part line', #326, (#331), (#332), .T., .CARTESIAN.);
#326 = CIRCLE('', #327, 0.149999999999989);
#327 = AXIS2_PLACEMENT_3D('', #328, #329, #330);
#328 = CARTESIAN_POINT('', (0.850000000000009, 2.06348016875753E-15, -37.85));
#329 = DIRECTION('', (2.65990932983114E-16, -1., 4.62592926927124E-17));
#330 = DIRECTION('', (-5.84717459635949E-14, -4.6259292692728E-17, -1.));
#331 = CARTESIAN_POINT('', (0.85, 2.05654127485362E-15, -38.));
#332 = CARTESIAN_POINT('', (0.999999999999998, 2.103378808705E-15, -37.85));
#333 = TRIMMED_CURVE('cutting part line', #334, (#338), (#339), .T., .CARTESIAN.);
#334 = LINE('', #335, #336);
#335 = CARTESIAN_POINT('', (0.999999999999999, 1.66508089842153E-16, -37.85));
#336 = VECTOR('', #337, 2.85);
#337 = DIRECTION('', (0., -1.66508089842153E-16, 2.85));
#338 = CARTESIAN_POINT('', (0.999999999999999, 1.66508089842153E-16, -37.85));
#339 = CARTESIAN_POINT('', (0.999999999999999, 0., -35.));
#340 = TRIMMED_CURVE('cutting part line', #341, (#345), (#346), .T., .CARTESIAN.);
#341 = LINE('', #342, #343);
#342 = CARTESIAN_POINT('', (1., 0., -35.));
#343 = VECTOR('', #344, 1.);
#344 = DIRECTION('', (-1., 0., 0.));
#345 = CARTESIAN_POINT('', (1., 0., -35.));
#346 = CARTESIAN_POINT('', (0., 0., -35.));
#347 = TRIMMED_CURVE('cutting part line', #348, (#352), (#353), .T., .CARTESIAN.);
#348 = LINE('', #349, #350);
#349 = CARTESIAN_POINT('', (0., 0., -35.));
#350 = VECTOR('', #351, 3.00000000000001);
#351 = DIRECTION('', (0., 0., -3.00000000000001));
#352 = CARTESIAN_POINT('', (0., 0., -35.));
#353 = CARTESIAN_POINT('', (0., 0., -38.));
#354 = COMPOSITE_CURVE('cutting part line', (#355, #356, #357, #358, #359), .U.);
#355 = COMPOSITE_CURVE_SEGMENT(.CONTINUOUS., .T., #318);
#356 = COMPOSITE_CURVE_SEGMENT(.CONTINUOUS., .T., #325);
#357 = COMPOSITE_CURVE_SEGMENT(.CONTINUOUS., .T., #333);
#358 = COMPOSITE_CURVE_SEGMENT(.CONTINUOUS., .T., #340);
#359 = COMPOSITE_CURVE_SEGMENT(.CONTINUOUS., .T., #347);
#360 = GEOMETRIC_SET('', (#354, #403));
#361 = PRESENTATION_STYLE_ASSIGNMENT((#362));
#362 = CURVE_STYLE('', #364, POSITIVE_LENGTH_MEASURE(1.E-6), #363);
#363 = COLOUR_RGB('', 0., 0., 1.);
#364 = DRAUGHTING_PRE_DEFINED_CURVE_FONT('continuous');
#365 = STYLED_ITEM('', (#361), #354);
#366 = PRESENTATION_STYLE_ASSIGNMENT((#367));
#367 = CURVE_STYLE('', #369, POSITIVE_LENGTH_MEASURE(1.E-6), #368);
#368 = COLOUR_RGB('', 0., 0., 1.);
#369 = DRAUGHTING_PRE_DEFINED_CURVE_FONT('continuous');
#370 = OVER_RIDING_STYLED_ITEM('', (#366), #318, #365);
#371 = PRESENTATION_STYLE_ASSIGNMENT((#372));
#372 = CURVE_STYLE('', #374, POSITIVE_LENGTH_MEASURE(1.E-6), #373);
#373 = COLOUR_RGB('', 0., 0., 1.);
#374 = DRAUGHTING_PRE_DEFINED_CURVE_FONT('continuous');
#375 = OVER_RIDING_STYLED_ITEM('', (#371), #325, #365);
#376 = PRESENTATION_STYLE_ASSIGNMENT((#377));
#377 = CURVE_STYLE('', #379, POSITIVE_LENGTH_MEASURE(1.E-6), #378);
#378 = COLOUR_RGB('', 0., 0., 1.);
#379 = DRAUGHTING_PRE_DEFINED_CURVE_FONT('continuous');
#380 = OVER_RIDING_STYLED_ITEM('', (#376), #333, #365);
#381 = PRESENTATION_STYLE_ASSIGNMENT((#382));
#382 = CURVE_STYLE('', #384, POSITIVE_LENGTH_MEASURE(1.E-6), #383);
#383 = COLOUR_RGB('', 0., 0., 1.);
#384 = DRAUGHTING_PRE_DEFINED_CURVE_FONT('continuous');
#385 = OVER_RIDING_STYLED_ITEM('', (#381), #340, #365);
#386 = PRESENTATION_STYLE_ASSIGNMENT((#387));
#387 = CURVE_STYLE('', #389, POSITIVE_LENGTH_MEASURE(1.E-6), #388);
#388 = COLOUR_RGB('', 0., 0., 1.);
#389 = DRAUGHTING_PRE_DEFINED_CURVE_FONT('continuous');
#390 = OVER_RIDING_STYLED_ITEM('', (#386), #347, #365);
#391 = AXIS2_PLACEMENT_3D('MCS', #392, #393, #394);
#392 = CARTESIAN_POINT('', (0., 0., -28.));
#393 = DIRECTION('', (0., 0., 1.));
#394 = DIRECTION('', (1., 0., 0.));
#395 = AXIS2_PLACEMENT_3D('PCS', #396, #397, #398);
#396 = CARTESIAN_POINT('', (0., 0., 0.));
#397 = DIRECTION('', (0., 0., 1.));
#398 = DIRECTION('', (1., 0., 0.));
#399 = AXIS2_PLACEMENT_3D('CIP', #400, #401, #402);
#400 = CARTESIAN_POINT('', (0., 0., -38.));
#401 = DIRECTION('', (0., 0., 1.));
#402 = DIRECTION('', (1., 0., 0.));
#403 = CARTESIAN_POINT('CRP', (1., 0., -38.));
#404 = (
   GEOMETRIC_REPRESENTATION_CONTEXT (3)
   GLOBAL_UNCERTAINTY_ASSIGNED_CONTEXT ((#406))
   GLOBAL_UNIT_ASSIGNED_CONTEXT ((#405, #407, #408))
   REPRESENTATION_CONTEXT ('', '3D')
);
#405 = (
   LENGTH_UNIT ()
   NAMED_UNIT (*)
   SI_UNIT (.MILLI., .METRE.)
);
#406 = UNCERTAINTY_MEASURE_WITH_UNIT(LENGTH_MEASURE(1.E-6), #405, 'DISTANCE_ACCURACY_VALUE', '');
#407 = (
   NAMED_UNIT (*)
   SI_UNIT ($, .STERADIAN.)
   SOLID_ANGLE_UNIT ()
);
#408 = (
   NAMED_UNIT (*)
   PLANE_ANGLE_UNIT ()
   SI_UNIT ($, .RADIAN.)
);
#409 = SHAPE_REPRESENTATION('', (), #404);
#410 = PRODUCT_DEFINITION_SHAPE('', '', #411);
#411 = PRODUCT_DEFINITION('', '', #414, #418);
#412 = APPLICATION_CONTEXT('configuration controlled 3D designs of mechanical parts and assemblies');
#413 = APPLICATION_PROTOCOL_DEFINITION('International Standard', 'automotive_design', 2002, #412);
#414 = PRODUCT_DEFINITION_FORMATION_WITH_SPECIFIED_SOURCE('', '', #415, .NOT_KNOWN.);
#415 = PRODUCT('product-name', '2P121-0200-NC       H10F', '', (#416));
#416 = PRODUCT_CONTEXT('', #412, 'mechanical');
#417 = PRODUCT_RELATED_PRODUCT_CATEGORY('detail', '', (#415));
#418 = PRODUCT_DEFINITION_CONTEXT('part definition', #412, 'design');
#419 = SHAPE_DEFINITION_REPRESENTATION(#410, #409);
#420 = CONSTRUCTIVE_GEOMETRY_REPRESENTATION('supplemental geometry', (#391, #395, #399), #404);
#421 = CONSTRUCTIVE_GEOMETRY_REPRESENTATION_RELATIONSHIP('', '', #409, #420);
#422 = SHAPE_REPRESENTATION_RELATIONSHIP('', '', #409, #423);
#423 = SHAPE_REPRESENTATION('', (#360), #404);
#424 = SHAPE_REPRESENTATION_RELATIONSHIP('', '', #409, #425);
#425 = ADVANCED_BREP_SHAPE_REPRESENTATION('', (#1, #194), #404);
ENDSEC;
END-ISO-10303-21;
