ISO-10303-21;
HEADER;
FILE_DESCRIPTION(('STEP'), '1');
FILE_NAME('C:\\Users\\ds2002\\OneDrive - Sandvik\\HomeShare\\Documents\\Batchrepair\\CorSRT2\\NEW_MILSQ_SLD\\Output\\MOD000000000000000020082305700000.stp', '2019-01-02T12:10:00', (''), (''), 'Express v3.0.0.0', 'Express Tool', 'Unknown');
FILE_SCHEMA(('AUTOMOTIVE_DESIGN'));
ENDSEC;

DATA;
#1 = MANIFOLD_SOLID_BREP('NOCUT', #2);
#2 = CLOSED_SHELL('', (#3, #50, #89, #128, #167, #176));
#3 = ADVANCED_FACE('', (#4), #31, .T.);
#4 = FACE_OUTER_BOUND('', #5, .T.);
#5 = EDGE_LOOP('', (#6, #16, #23, #24));
#6 = ORIENTED_EDGE('', *, *, #7, .F.);
#7 = EDGE_CURVE('', #8, #10, #12, .T.);
#8 = VERTEX_POINT('', #9);
#9 = CARTESIAN_POINT('', (-9.5, 3.94948592725021E-15, -55.));
#10 = VERTEX_POINT('', #11);
#11 = CARTESIAN_POINT('', (-9.5, 7.0111029251186E-15, -105.));
#12 = LINE('', #13, #14);
#13 = CARTESIAN_POINT('', (-9.5, 3.94948592725021E-15, -55.));
#14 = VECTOR('', #15, 50.);
#15 = DIRECTION('', (0., 3.06161699786839E-15, -50.));
#16 = ORIENTED_EDGE('', *, *, #17, .T.);
#17 = EDGE_CURVE('', #8, #8, #18, .T.);
#18 = CIRCLE('', #19, 9.5);
#19 = AXIS2_PLACEMENT_3D('', #20, #21, #22);
#20 = CARTESIAN_POINT('', (-2.44249065417534E-15, -2.66453525910038E-15, -55.));
#21 = DIRECTION('', (0., 0., -1.));
#22 = DIRECTION('', (-1., 6.96212756457957E-16, 0.));
#23 = ORIENTED_EDGE('', *, *, #7, .T.);
#24 = ORIENTED_EDGE('', *, *, #25, .F.);
#25 = EDGE_CURVE('', #10, #10, #26, .T.);
#26 = CIRCLE('', #27, 9.5);
#27 = AXIS2_PLACEMENT_3D('', #28, #29, #30);
#28 = CARTESIAN_POINT('', (2.77555756156289E-15, 9.32587340685131E-15, -105.));
#29 = DIRECTION('', (0., 0., -1.));
#30 = DIRECTION('', (-1., -2.43660050708707E-16, 0.));
#31 = (
   BOUNDED_SURFACE ()
   B_SPLINE_SURFACE (2, 1, ((#32, #33), (#34, #35), (#36, #37), (#38, #39), (#40, #41), (#42, #43), (#44, #45), (#46, #47), (#48, #49)), .UNSPECIFIED., .T., .F., .U.)
   B_SPLINE_SURFACE_WITH_KNOTS ((3, 2, 2, 2, 3), (2, 2), (0., 14.9225651045515, 29.8451302091031, 44.7676953136546, 59.6902604182061), (0., 1.), .UNSPECIFIED.)
   GEOMETRIC_REPRESENTATION_ITEM ()
   RATIONAL_B_SPLINE_SURFACE (((1., 1.), (0.707106781186548, 0.707106781186548), (1., 1.), (0.707106781186548, 0.707106781186548), (1., 1.), (0.707106781186548, 0.707106781186548), (1., 1.), (0.707106781186548, 0.707106781186548), (1., 1.)))
   REPRESENTATION_ITEM ('')
   SURFACE ()
);
#32 = CARTESIAN_POINT('', (-9.5, 3.94948592725021E-15, -55.));
#33 = CARTESIAN_POINT('', (-9.5, 1.61619391981269E-14, -105.));
#34 = CARTESIAN_POINT('', (-9.49999999999999, 9.50000000000001, -55.));
#35 = CARTESIAN_POINT('', (-9.49999999999999, 9.50000000000002, -105.));
#36 = CARTESIAN_POINT('', (8.30827115723716E-15, 9.5, -55.));
#37 = CARTESIAN_POINT('', (8.30827115723717E-15, 9.50000000000001, -105.));
#38 = CARTESIAN_POINT('', (9.50000000000001, 9.49999999999999, -55.));
#39 = CARTESIAN_POINT('', (9.50000000000001, 9.5, -105.));
#40 = CARTESIAN_POINT('', (9.5, -8.55923119611104E-15, -55.));
#41 = CARTESIAN_POINT('', (9.5, 3.65322207476568E-15, -105.));
#42 = CARTESIAN_POINT('', (9.5, -9.50000000000001, -55.));
#43 = CARTESIAN_POINT('', (9.5, -9.5, -105.));
#44 = CARTESIAN_POINT('', (-3.0370315069341E-15, -9.50000000000001, -55.));
#45 = CARTESIAN_POINT('', (-3.03703150693409E-15, -9.49999999999999, -105.));
#46 = CARTESIAN_POINT('', (-9.50000000000001, -9.5, -55.));
#47 = CARTESIAN_POINT('', (-9.50000000000001, -9.49999999999999, -105.));
#48 = CARTESIAN_POINT('', (-9.5, 3.94948592725021E-15, -55.));
#49 = CARTESIAN_POINT('', (-9.5, 1.61619391981269E-14, -105.));
#50 = ADVANCED_FACE('', (#51), #70, .T.);
#51 = FACE_OUTER_BOUND('', #52, .T.);
#52 = EDGE_LOOP('', (#53, #61, #68, #69));
#53 = ORIENTED_EDGE('', *, *, #54, .F.);
#54 = EDGE_CURVE('', #55, #8, #57, .T.);
#55 = VERTEX_POINT('', #56);
#56 = CARTESIAN_POINT('', (-10., 3.91886975727153E-15, -54.));
#57 = LINE('', #58, #59);
#58 = CARTESIAN_POINT('', (-10., 3.91886975727153E-15, -54.));
#59 = VECTOR('', #60, 1.11803398874989);
#60 = DIRECTION('', (0.5, 3.06161699786798E-17, -1.));
#61 = ORIENTED_EDGE('', *, *, #62, .T.);
#62 = EDGE_CURVE('', #55, #55, #63, .T.);
#63 = CIRCLE('', #64, 10.);
#64 = AXIS2_PLACEMENT_3D('', #65, #66, #67);
#65 = CARTESIAN_POINT('', (-1.22124532708767E-15, -3.10862446895044E-15, -54.));
#66 = DIRECTION('', (0., 0., -1.));
#67 = DIRECTION('', (-1., 7.02749422622197E-16, 0.));
#68 = ORIENTED_EDGE('', *, *, #54, .T.);
#69 = ORIENTED_EDGE('', *, *, #17, .F.);
#70 = (
   BOUNDED_SURFACE ()
   B_SPLINE_SURFACE (2, 1, ((#71, #72), (#73, #74), (#75, #76), (#77, #78), (#79, #80), (#81, #82), (#83, #84), (#85, #86), (#87, #88)), .UNSPECIFIED., .T., .F., .U.)
   B_SPLINE_SURFACE_WITH_KNOTS ((3, 2, 2, 2, 3), (2, 2), (0., 0.25, 0.5, 0.75, 1.), (0., 1.), .UNSPECIFIED.)
   GEOMETRIC_REPRESENTATION_ITEM ()
   RATIONAL_B_SPLINE_SURFACE (((1., 1.), (0.707106781186548, 0.707106781186548), (1., 1.), (0.707106781186548, 0.707106781186548), (1., 1.), (0.707106781186548, 0.707106781186548), (1., 1.), (0.707106781186548, 0.707106781186548), (1., 1.)))
   REPRESENTATION_ITEM ('')
   SURFACE ()
);
#71 = CARTESIAN_POINT('', (-10., 3.91886975727153E-15, -54.));
#72 = CARTESIAN_POINT('', (-9.5, 4.01158425581049E-15, -55.));
#73 = CARTESIAN_POINT('', (-9.99999999999999, 10., -54.));
#74 = CARTESIAN_POINT('', (-9.5, 9.5, -55.));
#75 = CARTESIAN_POINT('', (5.19392549956062E-15, 10., -54.));
#76 = CARTESIAN_POINT('', (4.87316695822821E-15, 9.5, -55.));
#77 = CARTESIAN_POINT('', (10., 9.99999999999999, -54.));
#78 = CARTESIAN_POINT('', (9.5, 9.49999999999999, -55.));
#79 = CARTESIAN_POINT('', (10., -8.91147189602505E-15, -54.));
#80 = CARTESIAN_POINT('', (9.5, -8.17724031482126E-15, -55.));
#81 = CARTESIAN_POINT('', (9.99999999999999, -10., -54.));
#82 = CARTESIAN_POINT('', (9.49999999999999, -9.50000000000001, -55.));
#83 = CARTESIAN_POINT('', (-6.41176935458861E-15, -10., -54.));
#84 = CARTESIAN_POINT('', (-6.15224315321356E-15, -9.5, -55.));
#85 = CARTESIAN_POINT('', (-10., -10., -54.));
#86 = CARTESIAN_POINT('', (-9.50000000000001, -9.5, -55.));
#87 = CARTESIAN_POINT('', (-10., 3.91886975727153E-15, -54.));
#88 = CARTESIAN_POINT('', (-9.5, 4.01158425581049E-15, -55.));
#89 = ADVANCED_FACE('', (#90), #109, .T.);
#90 = FACE_OUTER_BOUND('', #91, .T.);
#91 = EDGE_LOOP('', (#92, #100, #107, #108));
#92 = ORIENTED_EDGE('', *, *, #93, .T.);
#93 = EDGE_CURVE('', #55, #94, #96, .T.);
#94 = VERTEX_POINT('', #95);
#95 = CARTESIAN_POINT('', (-10., 6.73555739531044E-16, -1.));
#96 = LINE('', #97, #98);
#97 = CARTESIAN_POINT('', (-10., 3.91886975727153E-15, -54.));
#98 = VECTOR('', #99, 53.);
#99 = DIRECTION('', (0., -3.24531401774049E-15, 53.));
#100 = ORIENTED_EDGE('', *, *, #101, .T.);
#101 = EDGE_CURVE('', #94, #94, #102, .T.);
#102 = CIRCLE('', #103, 10.);
#103 = AXIS2_PLACEMENT_3D('', #104, #105, #106);
#104 = CARTESIAN_POINT('', (-3.10862446895044E-15, -3.99680288865056E-15, -1.));
#105 = DIRECTION('', (1.11022302462516E-17, 3.94546482371774E-17, -1.));
#106 = DIRECTION('', (-1., 4.67035862818161E-16, -1.11022302462516E-17));
#107 = ORIENTED_EDGE('', *, *, #93, .F.);
#108 = ORIENTED_EDGE('', *, *, #62, .F.);
#109 = (
   BOUNDED_SURFACE ()
   B_SPLINE_SURFACE (1, 2, ((#110, #111, #112, #113, #114, #115, #116, #117, #118), (#119, #120, #121, #122, #123, #124, #125, #126, #127)), .UNSPECIFIED., .F., .T., .U.)
   B_SPLINE_SURFACE_WITH_KNOTS ((2, 2), (3, 2, 2, 2, 3), (0., 1.), (0., 15.707963267949, 31.415926535898, 47.1238898038469, 62.8318530717959), .UNSPECIFIED.)
   GEOMETRIC_REPRESENTATION_ITEM ()
   RATIONAL_B_SPLINE_SURFACE (((1., 0.707106781186548, 1., 0.707106781186548, 1., 0.707106781186548, 1., 0.707106781186548, 1.), (1., 0.707106781186548, 1., 0.707106781186548, 1., 0.707106781186548, 1., 0.707106781186548, 1.)))
   REPRESENTATION_ITEM ('')
   SURFACE ()
);
#110 = CARTESIAN_POINT('', (-10., 4.22626941833155E-15, -54.));
#111 = CARTESIAN_POINT('', (-10., 10., -54.));
#112 = CARTESIAN_POINT('', (1.53782896270883E-15, 10., -54.));
#113 = CARTESIAN_POINT('', (10., 10., -54.));
#114 = CARTESIAN_POINT('', (10., -3.88980103888432E-15, -54.));
#115 = CARTESIAN_POINT('', (10., -10., -54.));
#116 = CARTESIAN_POINT('', (-5.35359469535968E-15, -10., -54.));
#117 = CARTESIAN_POINT('', (-10., -10., -54.));
#118 = CARTESIAN_POINT('', (-10., 4.22626941833155E-15, -54.));
#119 = CARTESIAN_POINT('', (-10., 6.73555739531046E-16, -1.));
#120 = CARTESIAN_POINT('', (-10., 10., -0.999999999999999));
#121 = CARTESIAN_POINT('', (9.49410759657495E-16, 10., -0.999999999999999));
#122 = CARTESIAN_POINT('', (10., 9.99999999999999, -0.999999999999999));
#123 = CARTESIAN_POINT('', (10., -7.44251471768482E-15, -1.));
#124 = CARTESIAN_POINT('', (9.99999999999999, -10., -1.));
#125 = CARTESIAN_POINT('', (-5.94201289841102E-15, -10., -1.));
#126 = CARTESIAN_POINT('', (-10., -10., -1.));
#127 = CARTESIAN_POINT('', (-10., 6.73555739531046E-16, -1.));
#128 = ADVANCED_FACE('', (#129), #148, .T.);
#129 = FACE_OUTER_BOUND('', #130, .T.);
#130 = EDGE_LOOP('', (#131, #139, #146, #147));
#131 = ORIENTED_EDGE('', *, *, #132, .T.);
#132 = EDGE_CURVE('', #94, #133, #135, .T.);
#133 = VERTEX_POINT('', #134);
#134 = CARTESIAN_POINT('', (-9., 5.51091059616309E-16, 0.));
#135 = LINE('', #136, #137);
#136 = CARTESIAN_POINT('', (-10., 6.73555739531044E-16, -1.));
#137 = VECTOR('', #138, 1.4142135623731);
#138 = DIRECTION('', (1., -1.22464679914735E-16, 1.));
#139 = ORIENTED_EDGE('', *, *, #140, .T.);
#140 = EDGE_CURVE('', #133, #133, #141, .T.);
#141 = CIRCLE('', #142, 9.);
#142 = AXIS2_PLACEMENT_3D('', #143, #144, #145);
#143 = CARTESIAN_POINT('', (4.57966997657877E-15, 0., 0.));
#144 = DIRECTION('', (3.74939945665464E-33, 6.12323399573677E-17, -1.));
#145 = DIRECTION('', (-1., 6.12323399573676E-17, 0.));
#146 = ORIENTED_EDGE('', *, *, #132, .F.);
#147 = ORIENTED_EDGE('', *, *, #101, .F.);
#148 = (
   BOUNDED_SURFACE ()
   B_SPLINE_SURFACE (1, 2, ((#149, #150, #151, #152, #153, #154, #155, #156, #157), (#158, #159, #160, #161, #162, #163, #164, #165, #166)), .UNSPECIFIED., .F., .T., .U.)
   B_SPLINE_SURFACE_WITH_KNOTS ((2, 2), (3, 2, 2, 2, 3), (0., 1.), (0., 0.25, 0.5, 0.75, 1.), .UNSPECIFIED.)
   GEOMETRIC_REPRESENTATION_ITEM ()
   RATIONAL_B_SPLINE_SURFACE (((1., 0.707106781186548, 1., 0.707106781186548, 1., 0.707106781186548, 1., 0.707106781186548, 1.), (1., 0.707106781186548, 1., 0.707106781186548, 1., 0.707106781186548, 1., 0.707106781186548, 1.)))
   REPRESENTATION_ITEM ('')
   SURFACE ()
);
#149 = CARTESIAN_POINT('', (-9.99999999999999, -5.38288093340217E-15, -1.));
#150 = CARTESIAN_POINT('', (-9.99999999999999, 9.99999999999999, -1.00000000000006));
#151 = CARTESIAN_POINT('', (4.57966997657877E-15, 9.99999999999999, -1.00000000000006));
#152 = CARTESIAN_POINT('', (10., 9.99999999999999, -1.00000000000006));
#153 = CARTESIAN_POINT('', (10., -5.38288093340217E-15, -1.));
#154 = CARTESIAN_POINT('', (10., -10., -0.99999999999994));
#155 = CARTESIAN_POINT('', (5.80431677572612E-15, -10., -0.99999999999994));
#156 = CARTESIAN_POINT('', (-9.99999999999999, -10., -0.99999999999994));
#157 = CARTESIAN_POINT('', (-9.99999999999999, -5.38288093340217E-15, -1.));
#158 = CARTESIAN_POINT('', (-9., 5.51091059616309E-16, 0.));
#159 = CARTESIAN_POINT('', (-9., 9., -5.39568389967826E-14));
#160 = CARTESIAN_POINT('', (4.57966997657877E-15, 9., -5.39568389967826E-14));
#161 = CARTESIAN_POINT('', (9.00000000000001, 9., -5.39568389967826E-14));
#162 = CARTESIAN_POINT('', (9.00000000000001, 5.51091059616309E-16, -6.60780701695189E-30));
#163 = CARTESIAN_POINT('', (9.00000000000001, -9., 5.39568389967826E-14));
#164 = CARTESIAN_POINT('', (5.68185209581139E-15, -9., 5.39568389967826E-14));
#165 = CARTESIAN_POINT('', (-8.99999999999999, -9., 5.39568389967826E-14));
#166 = CARTESIAN_POINT('', (-9., 5.51091059616309E-16, 0.));
#167 = ADVANCED_FACE('', (#168), #171, .T.);
#168 = FACE_OUTER_BOUND('', #169, .T.);
#169 = EDGE_LOOP('', (#170));
#170 = ORIENTED_EDGE('', *, *, #140, .F.);
#171 = B_SPLINE_SURFACE_WITH_KNOTS('', 1, 1, ((#172, #173), (#174, #175)), .UNSPECIFIED., .F., .F., .U., (2, 2), (2, 2), (0.0454545454545454, 0.954545454545454), (0.0454545454545454, 0.954545454545454), .UNSPECIFIED.);
#172 = CARTESIAN_POINT('', (9., -9., -5.51091059616309E-16));
#173 = CARTESIAN_POINT('', (-9., -9., -5.51091059616309E-16));
#174 = CARTESIAN_POINT('', (9., 9., 5.51091059616309E-16));
#175 = CARTESIAN_POINT('', (-9., 9., 5.51091059616309E-16));
#176 = ADVANCED_FACE('', (#177), #180, .T.);
#177 = FACE_OUTER_BOUND('', #178, .T.);
#178 = EDGE_LOOP('', (#179));
#179 = ORIENTED_EDGE('', *, *, #25, .T.);
#180 = B_SPLINE_SURFACE_WITH_KNOTS('', 1, 1, ((#181, #182), (#183, #184)), .UNSPECIFIED., .F., .F., .U., (2, 2), (2, 2), (0.489466301632547, 0.563592358544848), (0.436407641455152, 0.510533698367453), .UNSPECIFIED.);
#181 = CARTESIAN_POINT('', (-9.50000000000004, 9.50000000000004, -105.));
#182 = CARTESIAN_POINT('', (-9.50000000000004, -9.49999999999994, -105.));
#183 = CARTESIAN_POINT('', (9.49999999999997, 9.50000000000004, -105.));
#184 = CARTESIAN_POINT('', (9.49999999999997, -9.49999999999994, -105.));
#185 = DRAUGHTING_MODEL('', (#193, #307, #354, #359, #364, #369, #374, #379), #393);
#186 = PRESENTATION_STYLE_ASSIGNMENT((#187));
#187 = SURFACE_STYLE_USAGE(.POSITIVE., #188);
#188 = SURFACE_SIDE_STYLE('', (#189));
#189 = SURFACE_STYLE_FILL_AREA(#190);
#190 = FILL_AREA_STYLE('', (#191));
#191 = FILL_AREA_STYLE_COLOUR('', #192);
#192 = COLOUR_RGB('', 0.50196078431373, 0.50196078431373, 0.50196078431373);
#193 = STYLED_ITEM('', (#186), #1);
#194 = MANIFOLD_SOLID_BREP('CUT', #195);
#195 = CLOSED_SHELL('', (#196, #213, #252, #291));
#196 = ADVANCED_FACE('', (#197), #208, .T.);
#197 = FACE_OUTER_BOUND('', #198, .T.);
#198 = EDGE_LOOP('', (#199));
#199 = ORIENTED_EDGE('', *, *, #200, .F.);
#200 = EDGE_CURVE('', #201, #201, #203, .T.);
#201 = VERTEX_POINT('', #202);
#202 = CARTESIAN_POINT('', (-10., 7.04171909509728E-15, -105.));
#203 = CIRCLE('', #204, 10.);
#204 = AXIS2_PLACEMENT_3D('', #205, #206, #207);
#205 = CARTESIAN_POINT('', (-2.27595720048157E-15, 6.66133814775094E-15, -105.));
#206 = DIRECTION('', (1.83979535388244E-31, 4.83671794477993E-15, -1.));
#207 = DIRECTION('', (-1., 3.80380947346341E-17, 0.));
#208 = B_SPLINE_SURFACE_WITH_KNOTS('', 1, 1, ((#209, #210), (#211, #212)), .UNSPECIFIED., .F., .F., .U., (2, 2), (2, 2), (0.0454545454545454, 0.954545454545455), (0.0454545454545454, 0.954545454545455), .UNSPECIFIED.);
#209 = CARTESIAN_POINT('', (10., -9.99999999999999, -105.));
#210 = CARTESIAN_POINT('', (-10., -9.99999999999999, -105.));
#211 = CARTESIAN_POINT('', (10., 10., -105.));
#212 = CARTESIAN_POINT('', (-10., 10., -105.));
#213 = ADVANCED_FACE('', (#214), #233, .T.);
#214 = FACE_OUTER_BOUND('', #215, .T.);
#215 = EDGE_LOOP('', (#216, #224, #225, #226));
#216 = ORIENTED_EDGE('', *, *, #217, .F.);
#217 = EDGE_CURVE('', #201, #218, #220, .T.);
#218 = VERTEX_POINT('', #219);
#219 = CARTESIAN_POINT('', (-10., 8.25718104325103E-15, -124.85));
#220 = LINE('', #221, #222);
#221 = CARTESIAN_POINT('', (-10., 7.04171909509728E-15, -105.));
#222 = VECTOR('', #223, 19.85);
#223 = DIRECTION('', (0., 1.21546194815375E-15, -19.85));
#224 = ORIENTED_EDGE('', *, *, #200, .T.);
#225 = ORIENTED_EDGE('', *, *, #217, .T.);
#226 = ORIENTED_EDGE('', *, *, #227, .F.);
#227 = EDGE_CURVE('', #218, #218, #228, .T.);
#228 = CIRCLE('', #229, 10.);
#229 = AXIS2_PLACEMENT_3D('', #230, #231, #232);
#230 = CARTESIAN_POINT('', (-2.05391259555654E-15, 6.21724893790088E-15, -124.85));
#231 = DIRECTION('', (9.8665762200799E-31, 4.83671794477998E-15, -1.));
#232 = DIRECTION('', (-1., 2.03993210535015E-16, 0.));
#233 = (
   BOUNDED_SURFACE ()
   B_SPLINE_SURFACE (2, 1, ((#234, #235), (#236, #237), (#238, #239), (#240, #241), (#242, #243), (#244, #245), (#246, #247), (#248, #249), (#250, #251)), .UNSPECIFIED., .T., .F., .U.)
   B_SPLINE_SURFACE_WITH_KNOTS ((3, 2, 2, 2, 3), (2, 2), (0., 15.707963267949, 31.415926535898, 47.1238898038469, 62.8318530717959), (0., 1.), .UNSPECIFIED.)
   GEOMETRIC_REPRESENTATION_ITEM ()
   RATIONAL_B_SPLINE_SURFACE (((1., 1.), (0.707106781186548, 0.707106781186548), (1., 1.), (0.707106781186548, 0.707106781186548), (1., 1.), (0.707106781186548, 0.707106781186548), (1., 1.), (0.707106781186548, 0.707106781186548), (1., 1.)))
   REPRESENTATION_ITEM ('')
   SURFACE ()
);
#234 = CARTESIAN_POINT('', (-10., 7.04171909509728E-15, -105.));
#235 = CARTESIAN_POINT('', (-10., 8.37398672464747E-15, -124.85));
#236 = CARTESIAN_POINT('', (-10., 10., -105.));
#237 = CARTESIAN_POINT('', (-10., 10., -124.85));
#238 = CARTESIAN_POINT('', (-2.20258832093699E-15, 10., -105.));
#239 = CARTESIAN_POINT('', (-2.20258832093699E-15, 10., -124.85));
#240 = CARTESIAN_POINT('', (9.99999999999999, 10., -105.));
#241 = CARTESIAN_POINT('', (9.99999999999999, 10., -124.85));
#242 = CARTESIAN_POINT('', (9.99999999999999, 3.95289032075145E-15, -105.));
#243 = CARTESIAN_POINT('', (9.99999999999999, 5.28515795030164E-15, -124.85));
#244 = CARTESIAN_POINT('', (9.99999999999999, -9.99999999999999, -105.));
#245 = CARTESIAN_POINT('', (9.99999999999999, -9.99999999999999, -124.85));
#246 = CARTESIAN_POINT('', (-4.06677029613546E-15, -9.99999999999999, -105.));
#247 = CARTESIAN_POINT('', (-4.06677029613547E-15, -9.99999999999999, -124.85));
#248 = CARTESIAN_POINT('', (-10., -9.99999999999999, -105.));
#249 = CARTESIAN_POINT('', (-10., -9.99999999999999, -124.85));
#250 = CARTESIAN_POINT('', (-10., 7.04171909509728E-15, -105.));
#251 = CARTESIAN_POINT('', (-10., 8.37398672464747E-15, -124.85));
#252 = ADVANCED_FACE('', (#253), #272, .T.);
#253 = FACE_OUTER_BOUND('', #254, .T.);
#254 = EDGE_LOOP('', (#255, #263, #264, #265));
#255 = ORIENTED_EDGE('', *, *, #256, .F.);
#256 = EDGE_CURVE('', #218, #257, #259, .T.);
#257 = VERTEX_POINT('', #258);
#258 = CARTESIAN_POINT('', (-9.85, 8.25718104325103E-15, -125.));
#259 = LINE('', #260, #261);
#260 = CARTESIAN_POINT('', (-10., 8.25718104325103E-15, -124.85));
#261 = VECTOR('', #262, 0.212132034355969);
#262 = DIRECTION('', (0.15, 0., -0.150000000000006));
#263 = ORIENTED_EDGE('', *, *, #227, .T.);
#264 = ORIENTED_EDGE('', *, *, #256, .T.);
#265 = ORIENTED_EDGE('', *, *, #266, .F.);
#266 = EDGE_CURVE('', #257, #257, #267, .T.);
#267 = CIRCLE('', #268, 9.85);
#268 = AXIS2_PLACEMENT_3D('', #269, #270, #271);
#269 = CARTESIAN_POINT('', (-9.71445146547012E-16, 7.105427357601E-15, -125.));
#270 = DIRECTION('', (0., 0., -1.));
#271 = DIRECTION('', (-1., 1.1692930818782E-16, 0.));
#272 = (
   BOUNDED_SURFACE ()
   B_SPLINE_SURFACE (2, 1, ((#273, #274), (#275, #276), (#277, #278), (#279, #280), (#281, #282), (#283, #284), (#285, #286), (#287, #288), (#289, #290)), .UNSPECIFIED., .T., .F., .U.)
   B_SPLINE_SURFACE_WITH_KNOTS ((3, 2, 2, 2, 3), (2, 2), (0., 0.25, 0.5, 0.75, 1.), (0., 1.), .UNSPECIFIED.)
   GEOMETRIC_REPRESENTATION_ITEM ()
   RATIONAL_B_SPLINE_SURFACE (((1., 1.), (0.707106781186548, 0.707106781186548), (1., 1.), (0.707106781186548, 0.707106781186548), (1., 1.), (0.707106781186548, 0.707106781186548), (1., 1.), (0.707106781186548, 0.707106781186548), (1., 1.)))
   REPRESENTATION_ITEM ('')
   SURFACE ()
);
#273 = CARTESIAN_POINT('', (-10., 8.25718104325103E-15, -124.85));
#274 = CARTESIAN_POINT('', (-9.85, 7.58376293041281E-15, -125.));
#275 = CARTESIAN_POINT('', (-10., 10., -124.85));
#276 = CARTESIAN_POINT('', (-9.85, 9.85000000000001, -125.));
#277 = CARTESIAN_POINT('', (-2.51368303164283E-15, 10., -124.85));
#278 = CARTESIAN_POINT('', (-2.51178247871235E-15, 9.85000000000001, -125.));
#279 = CARTESIAN_POINT('', (9.99999999999999, 10., -124.85));
#280 = CARTESIAN_POINT('', (9.85, 9.85000000000001, -125.));
#281 = CARTESIAN_POINT('', (9.99999999999999, 8.51058810064851E-15, -124.85));
#282 = CARTESIAN_POINT('', (9.85, 7.83336888194933E-15, -125.));
#283 = CARTESIAN_POINT('', (10., -9.99999999999999, -124.85));
#284 = CARTESIAN_POINT('', (9.85, -9.84999999999999, -125.));
#285 = CARTESIAN_POINT('', (-1.03562917509799E-15, -9.99999999999999, -124.85));
#286 = CARTESIAN_POINT('', (-1.05589943001568E-15, -9.84999999999999, -125.));
#287 = CARTESIAN_POINT('', (-10., -9.99999999999999, -124.85));
#288 = CARTESIAN_POINT('', (-9.85, -9.84999999999999, -125.));
#289 = CARTESIAN_POINT('', (-10., 8.25718104325103E-15, -124.85));
#290 = CARTESIAN_POINT('', (-9.85, 7.58376293041281E-15, -125.));
#291 = ADVANCED_FACE('', (#292), #295, .T.);
#292 = FACE_OUTER_BOUND('', #293, .T.);
#293 = EDGE_LOOP('', (#294));
#294 = ORIENTED_EDGE('', *, *, #266, .T.);
#295 = B_SPLINE_SURFACE_WITH_KNOTS('', 1, 1, ((#296, #297), (#298, #299)), .UNSPECIFIED., .F., .F., .U., (2, 2), (2, 2), (0.0454545454545454, 0.954545454545455), (0.0454545454545454, 0.954545454545455), .UNSPECIFIED.);
#296 = CARTESIAN_POINT('', (9.85, -9.84999999999999, -125.));
#297 = CARTESIAN_POINT('', (9.85, 9.85000000000001, -125.));
#298 = CARTESIAN_POINT('', (-9.85, -9.84999999999999, -125.));
#299 = CARTESIAN_POINT('', (-9.85, 9.85000000000001, -125.));
#300 = PRESENTATION_STYLE_ASSIGNMENT((#301));
#301 = SURFACE_STYLE_USAGE(.POSITIVE., #302);
#302 = SURFACE_SIDE_STYLE('', (#303));
#303 = SURFACE_STYLE_FILL_AREA(#304);
#304 = FILL_AREA_STYLE('', (#305));
#305 = FILL_AREA_STYLE_COLOUR('', #306);
#306 = COLOUR_RGB('', 0.8, 0.8, 0.8);
#307 = STYLED_ITEM('', (#300), #194);
#308 = TRIMMED_CURVE('cutting part line', #309, (#313), (#314), .T., .CARTESIAN.);
#309 = LINE('', #310, #311);
#310 = CARTESIAN_POINT('', (9.43689570931383E-16, 0., -125.));
#311 = VECTOR('', #312, 9.85);
#312 = DIRECTION('', (9.85, 0., 0.));
#313 = CARTESIAN_POINT('', (9.43689570931383E-16, 0., -125.));
#314 = CARTESIAN_POINT('', (9.85, 0., -125.));
#315 = TRIMMED_CURVE('cutting part line', #316, (#320), (#321), .T., .CARTESIAN.);
#316 = LINE('', #317, #318);
#317 = CARTESIAN_POINT('', (9.85, 7.06268663015568E-15, -125.));
#318 = VECTOR('', #319, 0.212132034355966);
#319 = DIRECTION('', (0.149999999999997, 6.66032359368612E-16, 0.150000000000006));
#320 = CARTESIAN_POINT('', (9.85, 7.06268663015568E-15, -125.));
#321 = CARTESIAN_POINT('', (9.99999999999999, 7.7287189895243E-15, -124.85));
#322 = TRIMMED_CURVE('cutting part line', #323, (#327), (#328), .T., .CARTESIAN.);
#323 = LINE('', #324, #325);
#324 = CARTESIAN_POINT('', (9.99999999999999, 1.33206471873722E-15, -124.85));
#325 = VECTOR('', #326, 19.85);
#326 = DIRECTION('', (0., -1.33206471873722E-15, 19.85));
#327 = CARTESIAN_POINT('', (9.99999999999999, 1.33206471873722E-15, -124.85));
#328 = CARTESIAN_POINT('', (9.99999999999999, 0., -105.));
#329 = TRIMMED_CURVE('cutting part line', #330, (#334), (#335), .T., .CARTESIAN.);
#330 = LINE('', #331, #332);
#331 = CARTESIAN_POINT('', (10., 0., -105.));
#332 = VECTOR('', #333, 10.);
#333 = DIRECTION('', (-10., 0., 0.));
#334 = CARTESIAN_POINT('', (10., 0., -105.));
#335 = CARTESIAN_POINT('', (-2.77555756156289E-17, 0., -105.));
#336 = TRIMMED_CURVE('cutting part line', #337, (#341), (#342), .T., .CARTESIAN.);
#337 = LINE('', #338, #339);
#338 = CARTESIAN_POINT('', (0., 0., -105.));
#339 = VECTOR('', #340, 20.);
#340 = DIRECTION('', (0., 0., -20.));
#341 = CARTESIAN_POINT('', (0., 0., -105.));
#342 = CARTESIAN_POINT('', (0., 0., -125.));
#343 = COMPOSITE_CURVE('cutting part line', (#344, #345, #346, #347, #348), .U.);
#344 = COMPOSITE_CURVE_SEGMENT(.CONTINUOUS., .T., #308);
#345 = COMPOSITE_CURVE_SEGMENT(.CONTINUOUS., .T., #315);
#346 = COMPOSITE_CURVE_SEGMENT(.CONTINUOUS., .T., #322);
#347 = COMPOSITE_CURVE_SEGMENT(.CONTINUOUS., .T., #329);
#348 = COMPOSITE_CURVE_SEGMENT(.CONTINUOUS., .T., #336);
#349 = GEOMETRIC_SET('', (#343, #392));
#350 = PRESENTATION_STYLE_ASSIGNMENT((#351));
#351 = CURVE_STYLE('', #353, POSITIVE_LENGTH_MEASURE(1.E-6), #352);
#352 = COLOUR_RGB('', 0., 0., 1.);
#353 = DRAUGHTING_PRE_DEFINED_CURVE_FONT('continuous');
#354 = STYLED_ITEM('', (#350), #343);
#355 = PRESENTATION_STYLE_ASSIGNMENT((#356));
#356 = CURVE_STYLE('', #358, POSITIVE_LENGTH_MEASURE(1.E-6), #357);
#357 = COLOUR_RGB('', 0., 0., 1.);
#358 = DRAUGHTING_PRE_DEFINED_CURVE_FONT('continuous');
#359 = OVER_RIDING_STYLED_ITEM('', (#355), #308, #354);
#360 = PRESENTATION_STYLE_ASSIGNMENT((#361));
#361 = CURVE_STYLE('', #363, POSITIVE_LENGTH_MEASURE(1.E-6), #362);
#362 = COLOUR_RGB('', 0., 0., 1.);
#363 = DRAUGHTING_PRE_DEFINED_CURVE_FONT('continuous');
#364 = OVER_RIDING_STYLED_ITEM('', (#360), #315, #354);
#365 = PRESENTATION_STYLE_ASSIGNMENT((#366));
#366 = CURVE_STYLE('', #368, POSITIVE_LENGTH_MEASURE(1.E-6), #367);
#367 = COLOUR_RGB('', 0., 0., 1.);
#368 = DRAUGHTING_PRE_DEFINED_CURVE_FONT('continuous');
#369 = OVER_RIDING_STYLED_ITEM('', (#365), #322, #354);
#370 = PRESENTATION_STYLE_ASSIGNMENT((#371));
#371 = CURVE_STYLE('', #373, POSITIVE_LENGTH_MEASURE(1.E-6), #372);
#372 = COLOUR_RGB('', 0., 0., 1.);
#373 = DRAUGHTING_PRE_DEFINED_CURVE_FONT('continuous');
#374 = OVER_RIDING_STYLED_ITEM('', (#370), #329, #354);
#375 = PRESENTATION_STYLE_ASSIGNMENT((#376));
#376 = CURVE_STYLE('', #378, POSITIVE_LENGTH_MEASURE(1.E-6), #377);
#377 = COLOUR_RGB('', 0., 0., 1.);
#378 = DRAUGHTING_PRE_DEFINED_CURVE_FONT('continuous');
#379 = OVER_RIDING_STYLED_ITEM('', (#375), #336, #354);
#380 = AXIS2_PLACEMENT_3D('MCS', #381, #382, #383);
#381 = CARTESIAN_POINT('', (0., 0., -50.));
#382 = DIRECTION('', (0., 0., 1.));
#383 = DIRECTION('', (1., 0., 0.));
#384 = AXIS2_PLACEMENT_3D('PCS', #385, #386, #387);
#385 = CARTESIAN_POINT('', (0., 0., 0.));
#386 = DIRECTION('', (0., 0., 1.));
#387 = DIRECTION('', (1., 0., 0.));
#388 = AXIS2_PLACEMENT_3D('CIP', #389, #390, #391);
#389 = CARTESIAN_POINT('', (0., 0., -125.));
#390 = DIRECTION('', (0., 0., 1.));
#391 = DIRECTION('', (1., 0., 0.));
#392 = CARTESIAN_POINT('CRP', (10., 0., -125.));
#393 = (
   GEOMETRIC_REPRESENTATION_CONTEXT (3)
   GLOBAL_UNCERTAINTY_ASSIGNED_CONTEXT ((#395))
   GLOBAL_UNIT_ASSIGNED_CONTEXT ((#394, #396, #397))
   REPRESENTATION_CONTEXT ('', '3D')
);
#394 = (
   LENGTH_UNIT ()
   NAMED_UNIT (*)
   SI_UNIT (.MILLI., .METRE.)
);
#395 = UNCERTAINTY_MEASURE_WITH_UNIT(LENGTH_MEASURE(1.E-6), #394, 'DISTANCE_ACCURACY_VALUE', '');
#396 = (
   NAMED_UNIT (*)
   SI_UNIT ($, .STERADIAN.)
   SOLID_ANGLE_UNIT ()
);
#397 = (
   NAMED_UNIT (*)
   PLANE_ANGLE_UNIT ()
   SI_UNIT ($, .RADIAN.)
);
#398 = SHAPE_REPRESENTATION('', (), #393);
#399 = PRODUCT_DEFINITION_SHAPE('', '', #400);
#400 = PRODUCT_DEFINITION('', '', #403, #407);
#401 = APPLICATION_CONTEXT('configuration controlled 3D designs of mechanical parts and assemblies');
#402 = APPLICATION_PROTOCOL_DEFINITION('International Standard', 'automotive_design', 2002, #401);
#403 = PRODUCT_DEFINITION_FORMATION_WITH_SPECIFIED_SOURCE('', '', #404, .NOT_KNOWN.);
#404 = PRODUCT('product-name', '2P120-2000-NC       H10F', '', (#405));
#405 = PRODUCT_CONTEXT('', #401, 'mechanical');
#406 = PRODUCT_RELATED_PRODUCT_CATEGORY('detail', '', (#404));
#407 = PRODUCT_DEFINITION_CONTEXT('part definition', #401, 'design');
#408 = SHAPE_DEFINITION_REPRESENTATION(#399, #398);
#409 = CONSTRUCTIVE_GEOMETRY_REPRESENTATION('supplemental geometry', (#380, #384, #388), #393);
#410 = CONSTRUCTIVE_GEOMETRY_REPRESENTATION_RELATIONSHIP('', '', #398, #409);
#411 = SHAPE_REPRESENTATION_RELATIONSHIP('', '', #398, #412);
#412 = SHAPE_REPRESENTATION('', (#349), #393);
#413 = SHAPE_REPRESENTATION_RELATIONSHIP('', '', #398, #414);
#414 = ADVANCED_BREP_SHAPE_REPRESENTATION('', (#1, #194), #393);
ENDSEC;
END-ISO-10303-21;
