ISO-10303-21;
HEADER;
FILE_DESCRIPTION(('STEP'), '1');
FILE_NAME('C:\\Users\\ds2002\\OneDrive - Sandvik\\HomeShare\\Documents\\Batchrepair\\CorSRT2\\NEW_MILSQ_SLD\\Output\\MOD000000000000000020082305500000.stp', '2019-01-02T12:09:54', (''), (''), 'Express v3.0.0.0', 'Express Tool', 'Unknown');
FILE_SCHEMA(('AUTOMOTIVE_DESIGN'));
ENDSEC;

DATA;
#1 = MANIFOLD_SOLID_BREP('NOCUT', #2);
#2 = CLOSED_SHELL('', (#3, #50, #89, #128, #167, #176));
#3 = ADVANCED_FACE('', (#4), #31, .T.);
#4 = FACE_OUTER_BOUND('', #5, .T.);
#5 = EDGE_LOOP('', (#6, #16, #23, #24));
#6 = ORIENTED_EDGE('', *, *, #7, .F.);
#7 = EDGE_CURVE('', #8, #10, #12, .T.);
#8 = VERTEX_POINT('', #9);
#9 = CARTESIAN_POINT('', (-5.7, 3.41064133562538E-15, -50.));
#10 = VERTEX_POINT('', #11);
#11 = CARTESIAN_POINT('', (-5.7, 5.49254089417588E-15, -84.));
#12 = LINE('', #13, #14);
#13 = CARTESIAN_POINT('', (-5.7, 3.41064133562538E-15, -50.));
#14 = VECTOR('', #15, 34.);
#15 = DIRECTION('', (0., 2.0818995585505E-15, -34.));
#16 = ORIENTED_EDGE('', *, *, #17, .T.);
#17 = EDGE_CURVE('', #8, #8, #18, .T.);
#18 = CIRCLE('', #19, 5.7);
#19 = AXIS2_PLACEMENT_3D('', #20, #21, #22);
#20 = CARTESIAN_POINT('', (-5.55111512312578E-17, 8.88178419700125E-16, -50.));
#21 = DIRECTION('', (0., 0., -1.));
#22 = DIRECTION('', (-1., 4.42537353671097E-16, 0.));
#23 = ORIENTED_EDGE('', *, *, #7, .T.);
#24 = ORIENTED_EDGE('', *, *, #25, .F.);
#25 = EDGE_CURVE('', #10, #10, #26, .T.);
#26 = CIRCLE('', #27, 5.7);
#27 = AXIS2_PLACEMENT_3D('', #28, #29, #30);
#28 = CARTESIAN_POINT('', (5.55111512312578E-17, 4.10782519111308E-15, -84.));
#29 = DIRECTION('', (0., 0., -1.));
#30 = DIRECTION('', (-1., 2.42932579484702E-16, 0.));
#31 = (
   BOUNDED_SURFACE ()
   B_SPLINE_SURFACE (2, 1, ((#32, #33), (#34, #35), (#36, #37), (#38, #39), (#40, #41), (#42, #43), (#44, #45), (#46, #47), (#48, #49)), .UNSPECIFIED., .T., .F., .U.)
   B_SPLINE_SURFACE_WITH_KNOTS ((3, 2, 2, 2, 3), (2, 2), (0., 8.9535390627309, 17.9070781254618, 26.8606171881927, 35.8141562509236), (0., 1.), .UNSPECIFIED.)
   GEOMETRIC_REPRESENTATION_ITEM ()
   RATIONAL_B_SPLINE_SURFACE (((1., 1.), (0.707106781186548, 0.707106781186548), (1., 1.), (0.707106781186548, 0.707106781186548), (1., 1.), (0.707106781186548, 0.707106781186548), (1., 1.), (0.707106781186548, 0.707106781186548), (1., 1.)))
   REPRESENTATION_ITEM ('')
   SURFACE ()
);
#32 = CARTESIAN_POINT('', (-5.7, 3.41064133562538E-15, -50.));
#33 = CARTESIAN_POINT('', (-5.7, 7.85153343412601E-15, -84.));
#34 = CARTESIAN_POINT('', (-5.7, 5.7, -50.));
#35 = CARTESIAN_POINT('', (-5.7, 5.70000000000001, -84.));
#36 = CARTESIAN_POINT('', (3.03386142225276E-15, 5.7, -50.));
#37 = CARTESIAN_POINT('', (3.03386142225276E-15, 5.7, -84.));
#38 = CARTESIAN_POINT('', (5.7, 5.7, -50.));
#39 = CARTESIAN_POINT('', (5.7, 5.7, -84.));
#40 = CARTESIAN_POINT('', (5.7, -3.37872647488648E-15, -50.));
#41 = CARTESIAN_POINT('', (5.7, 1.06216562361414E-15, -84.));
#42 = CARTESIAN_POINT('', (5.7, -5.7, -50.));
#43 = CARTESIAN_POINT('', (5.7, -5.7, -84.));
#44 = CARTESIAN_POINT('', (-3.05745771274512E-15, -5.7, -50.));
#45 = CARTESIAN_POINT('', (-3.05745771274511E-15, -5.7, -84.));
#46 = CARTESIAN_POINT('', (-5.7, -5.7, -50.));
#47 = CARTESIAN_POINT('', (-5.7, -5.69999999999999, -84.));
#48 = CARTESIAN_POINT('', (-5.7, 3.41064133562538E-15, -50.));
#49 = CARTESIAN_POINT('', (-5.7, 7.85153343412601E-15, -84.));
#50 = ADVANCED_FACE('', (#51), #70, .T.);
#51 = FACE_OUTER_BOUND('', #52, .T.);
#52 = EDGE_LOOP('', (#53, #61, #68, #69));
#53 = ORIENTED_EDGE('', *, *, #54, .F.);
#54 = EDGE_CURVE('', #55, #8, #57, .T.);
#55 = VERTEX_POINT('', #56);
#56 = CARTESIAN_POINT('', (-6., 3.36777869765522E-15, -49.));
#57 = LINE('', #58, #59);
#58 = CARTESIAN_POINT('', (-6., 3.36777869765522E-15, -49.));
#59 = VECTOR('', #60, 1.04403065089105);
#60 = DIRECTION('', (0.3, 4.28626379701599E-17, -1.));
#61 = ORIENTED_EDGE('', *, *, #62, .T.);
#62 = EDGE_CURVE('', #55, #55, #63, .T.);
#63 = CIRCLE('', #64, 6.);
#64 = AXIS2_PLACEMENT_3D('', #65, #66, #67);
#65 = CARTESIAN_POINT('', (1.4432899320127E-15, 2.66453525910038E-15, -49.));
#66 = DIRECTION('', (0., 0., -1.));
#67 = DIRECTION('', (-1., 1.17207239759141E-16, 0.));
#68 = ORIENTED_EDGE('', *, *, #54, .T.);
#69 = ORIENTED_EDGE('', *, *, #17, .F.);
#70 = (
   BOUNDED_SURFACE ()
   B_SPLINE_SURFACE (2, 1, ((#71, #72), (#73, #74), (#75, #76), (#77, #78), (#79, #80), (#81, #82), (#83, #84), (#85, #86), (#87, #88)), .UNSPECIFIED., .T., .F., .U.)
   B_SPLINE_SURFACE_WITH_KNOTS ((3, 2, 2, 2, 3), (2, 2), (0., 0.25, 0.5, 0.75, 1.), (0., 1.), .UNSPECIFIED.)
   GEOMETRIC_REPRESENTATION_ITEM ()
   RATIONAL_B_SPLINE_SURFACE (((1., 1.), (0.707106781186548, 0.707106781186548), (1., 1.), (0.707106781186548, 0.707106781186548), (1., 1.), (0.707106781186548, 0.707106781186548), (1., 1.), (0.707106781186548, 0.707106781186548), (1., 1.)))
   REPRESENTATION_ITEM ('')
   SURFACE ()
);
#71 = CARTESIAN_POINT('', (-6., 3.36777869765522E-15, -49.));
#72 = CARTESIAN_POINT('', (-5.7, 1.55625968632723E-15, -50.));
#73 = CARTESIAN_POINT('', (-6., 6.00000000000001, -49.));
#74 = CARTESIAN_POINT('', (-5.7, 5.7, -50.));
#75 = CARTESIAN_POINT('', (1.77913933082334E-15, 6., -49.));
#76 = CARTESIAN_POINT('', (1.76234686088281E-15, 5.7, -50.));
#77 = CARTESIAN_POINT('', (6., 6., -49.));
#78 = CARTESIAN_POINT('', (5.7, 5.7, -50.));
#79 = CARTESIAN_POINT('', (6., 2.69607990003394E-15, -49.));
#80 = CARTESIAN_POINT('', (5.7, 9.18145828587015E-16, -50.));
#81 = CARTESIAN_POINT('', (6., -6., -49.));
#82 = CARTESIAN_POINT('', (5.7, -5.7, -50.));
#83 = CARTESIAN_POINT('', (1.84222861269048E-15, -6., -49.));
#84 = CARTESIAN_POINT('', (1.82228167865659E-15, -5.7, -50.));
#85 = CARTESIAN_POINT('', (-6., -6., -49.));
#86 = CARTESIAN_POINT('', (-5.7, -5.7, -50.));
#87 = CARTESIAN_POINT('', (-6., 3.36777869765522E-15, -49.));
#88 = CARTESIAN_POINT('', (-5.7, 1.55625968632723E-15, -50.));
#89 = ADVANCED_FACE('', (#90), #109, .T.);
#90 = FACE_OUTER_BOUND('', #91, .T.);
#91 = EDGE_LOOP('', (#92, #100, #107, #108));
#92 = ORIENTED_EDGE('', *, *, #93, .T.);
#93 = EDGE_CURVE('', #55, #94, #96, .T.);
#94 = VERTEX_POINT('', #95);
#95 = CARTESIAN_POINT('', (-6., 4.04133443718627E-16, -0.600000000000001));
#96 = LINE('', #97, #98);
#97 = CARTESIAN_POINT('', (-6., 3.36777869765522E-15, -49.));
#98 = VECTOR('', #99, 48.4);
#99 = DIRECTION('', (0., -2.96364525393659E-15, 48.4));
#100 = ORIENTED_EDGE('', *, *, #101, .T.);
#101 = EDGE_CURVE('', #94, #94, #102, .T.);
#102 = CIRCLE('', #103, 6.);
#103 = AXIS2_PLACEMENT_3D('', #104, #105, #106);
#104 = CARTESIAN_POINT('', (1.47104550762833E-15, -5.55111512312578E-16, -0.600000000000001));
#105 = DIRECTION('', (-1.85037170770859E-17, 1.23176547656001E-16, -1.));
#106 = DIRECTION('', (-1., 1.59874159338534E-16, 1.85037170770859E-17));
#107 = ORIENTED_EDGE('', *, *, #93, .F.);
#108 = ORIENTED_EDGE('', *, *, #62, .F.);
#109 = (
   BOUNDED_SURFACE ()
   B_SPLINE_SURFACE (1, 2, ((#110, #111, #112, #113, #114, #115, #116, #117, #118), (#119, #120, #121, #122, #123, #124, #125, #126, #127)), .UNSPECIFIED., .F., .T., .U.)
   B_SPLINE_SURFACE_WITH_KNOTS ((2, 2), (3, 2, 2, 2, 3), (0., 1.), (0., 9.42477796076938, 18.8495559215388, 28.2743338823081, 37.6991118430775), .UNSPECIFIED.)
   GEOMETRIC_REPRESENTATION_ITEM ()
   RATIONAL_B_SPLINE_SURFACE (((1., 0.707106781186548, 1., 0.707106781186548, 1., 0.707106781186548, 1., 0.707106781186548, 1.), (1., 0.707106781186548, 1., 0.707106781186548, 1., 0.707106781186548, 1., 0.707106781186548, 1.)))
   REPRESENTATION_ITEM ('')
   SURFACE ()
);
#110 = CARTESIAN_POINT('', (-6., 5.15155746181143E-16, -49.));
#111 = CARTESIAN_POINT('', (-6., 6., -49.));
#112 = CARTESIAN_POINT('', (1.16731651738437E-15, 6., -49.));
#113 = CARTESIAN_POINT('', (6., 6., -49.));
#114 = CARTESIAN_POINT('', (6., -6.68546086392856E-16, -49.));
#115 = CARTESIAN_POINT('', (6., -6., -49.));
#116 = CARTESIAN_POINT('', (7.18402764298786E-16, -6., -49.));
#117 = CARTESIAN_POINT('', (-6., -6., -49.));
#118 = CARTESIAN_POINT('', (-6., 5.15155746181143E-16, -49.));
#119 = CARTESIAN_POINT('', (-6., 4.04133443718627E-16, -0.600000000000001));
#120 = CARTESIAN_POINT('', (-6., 6., -0.600000000000001));
#121 = CARTESIAN_POINT('', (2.06289642391533E-15, 6., -0.600000000000001));
#122 = CARTESIAN_POINT('', (6., 6., -0.600000000000001));
#123 = CARTESIAN_POINT('', (6., -7.79568388855371E-16, -0.600000000000001));
#124 = CARTESIAN_POINT('', (6., -6., -0.600000000000001));
#125 = CARTESIAN_POINT('', (1.61398267082975E-15, -6., -0.600000000000001));
#126 = CARTESIAN_POINT('', (-6., -6., -0.600000000000001));
#127 = CARTESIAN_POINT('', (-6., 4.04133443718627E-16, -0.600000000000001));
#128 = ADVANCED_FACE('', (#129), #148, .T.);
#129 = FACE_OUTER_BOUND('', #130, .T.);
#130 = EDGE_LOOP('', (#131, #139, #146, #147));
#131 = ORIENTED_EDGE('', *, *, #132, .T.);
#132 = EDGE_CURVE('', #94, #133, #135, .T.);
#133 = VERTEX_POINT('', #134);
#134 = CARTESIAN_POINT('', (-5.4, 3.30654635769785E-16, 0.));
#135 = LINE('', #136, #137);
#136 = CARTESIAN_POINT('', (-6., 4.04133443718627E-16, -0.600000000000001));
#137 = VECTOR('', #138, 0.848528137423857);
#138 = DIRECTION('', (0.6, -7.3478807948842E-17, 0.600000000000001));
#139 = ORIENTED_EDGE('', *, *, #140, .T.);
#140 = EDGE_CURVE('', #133, #133, #141, .T.);
#141 = CIRCLE('', #142, 5.4);
#142 = AXIS2_PLACEMENT_3D('', #143, #144, #145);
#143 = CARTESIAN_POINT('', (1.84574577843932E-15, -2.55351295663786E-15, -1.4791141972894E-31));
#144 = DIRECTION('', (5.31350199692362E-33, 6.12323399573676E-17, -1.));
#145 = DIRECTION('', (-1., 5.34105109705119E-16, 2.73910036535073E-32));
#146 = ORIENTED_EDGE('', *, *, #132, .F.);
#147 = ORIENTED_EDGE('', *, *, #101, .F.);
#148 = (
   BOUNDED_SURFACE ()
   B_SPLINE_SURFACE (1, 2, ((#149, #150, #151, #152, #153, #154, #155, #156, #157), (#158, #159, #160, #161, #162, #163, #164, #165, #166)), .UNSPECIFIED., .F., .T., .U.)
   B_SPLINE_SURFACE_WITH_KNOTS ((2, 2), (3, 2, 2, 2, 3), (0., 1.), (0., 0.25, 0.5, 0.75, 1.), .UNSPECIFIED.)
   GEOMETRIC_REPRESENTATION_ITEM ()
   RATIONAL_B_SPLINE_SURFACE (((1., 0.707106781186548, 1., 0.707106781186548, 1., 0.707106781186548, 1., 0.707106781186548, 1.), (1., 0.707106781186548, 1., 0.707106781186548, 1., 0.707106781186548, 1., 0.707106781186548, 1.)))
   REPRESENTATION_ITEM ('')
   SURFACE ()
);
#149 = CARTESIAN_POINT('', (-6., 2.98258605330568E-15, -0.600000000000001));
#150 = CARTESIAN_POINT('', (-6., 6., -0.599999999999978));
#151 = CARTESIAN_POINT('', (4.68298239692583E-15, 6., -0.599999999999978));
#152 = CARTESIAN_POINT('', (6., 6., -0.599999999999978));
#153 = CARTESIAN_POINT('', (6., -2.69188718366733E-15, -0.600000000000001));
#154 = CARTESIAN_POINT('', (6., -6., -0.600000000000024));
#155 = CARTESIAN_POINT('', (-2.56702760558774E-16, -6., -0.600000000000024));
#156 = CARTESIAN_POINT('', (-6., -6., -0.600000000000024));
#157 = CARTESIAN_POINT('', (-6., 2.98258605330568E-15, -0.600000000000001));
#158 = CARTESIAN_POINT('', (-5.4, 3.30654635769784E-16, -6.56858655152258E-47));
#159 = CARTESIAN_POINT('', (-5.4, 5.4, 2.09832151654154E-14));
#160 = CARTESIAN_POINT('', (4.39925873507718E-15, 5.4, 2.09832151654154E-14));
#161 = CARTESIAN_POINT('', (5.4, 5.4, 2.09832151654154E-14));
#162 = CARTESIAN_POINT('', (5.4, -4.77637127750593E-15, 2.27387988935674E-30));
#163 = CARTESIAN_POINT('', (5.4, -5.40000000000001, -2.09832151654154E-14));
#164 = CARTESIAN_POINT('', (-4.64579066589654E-17, -5.4, -2.09832151654154E-14));
#165 = CARTESIAN_POINT('', (-5.4, -5.4, -2.09832151654154E-14));
#166 = CARTESIAN_POINT('', (-5.4, 3.30654635769784E-16, -6.56858655152258E-47));
#167 = ADVANCED_FACE('', (#168), #171, .T.);
#168 = FACE_OUTER_BOUND('', #169, .T.);
#169 = EDGE_LOOP('', (#170));
#170 = ORIENTED_EDGE('', *, *, #140, .F.);
#171 = B_SPLINE_SURFACE_WITH_KNOTS('', 1, 1, ((#172, #173), (#174, #175)), .UNSPECIFIED., .F., .F., .U., (2, 2), (2, 2), (0.0454545454545454, 0.954545454545454), (0.0454545454545454, 0.954545454545454), .UNSPECIFIED.);
#172 = CARTESIAN_POINT('', (5.4, -5.4, -3.30654635769785E-16));
#173 = CARTESIAN_POINT('', (-5.4, -5.4, -3.30654635769785E-16));
#174 = CARTESIAN_POINT('', (5.4, 5.4, 3.30654635769785E-16));
#175 = CARTESIAN_POINT('', (-5.4, 5.4, 3.30654635769785E-16));
#176 = ADVANCED_FACE('', (#177), #180, .T.);
#177 = FACE_OUTER_BOUND('', #178, .T.);
#178 = EDGE_LOOP('', (#179));
#179 = ORIENTED_EDGE('', *, *, #25, .T.);
#180 = B_SPLINE_SURFACE_WITH_KNOTS('', 1, 1, ((#181, #182), (#183, #184)), .UNSPECIFIED., .F., .F., .U., (2, 2), (2, 2), (0.492014185841564, 0.548210697361409), (0.451789302638591, 0.507985814158435), .UNSPECIFIED.);
#181 = CARTESIAN_POINT('', (-5.70000000000003, 5.70000000000005, -84.));
#182 = CARTESIAN_POINT('', (-5.70000000000003, -5.69999999999996, -84.));
#183 = CARTESIAN_POINT('', (5.69999999999997, 5.70000000000005, -84.));
#184 = CARTESIAN_POINT('', (5.69999999999997, -5.69999999999996, -84.));
#185 = DRAUGHTING_MODEL('', (#193, #307, #354, #359, #364, #369, #374, #379), #393);
#186 = PRESENTATION_STYLE_ASSIGNMENT((#187));
#187 = SURFACE_STYLE_USAGE(.POSITIVE., #188);
#188 = SURFACE_SIDE_STYLE('', (#189));
#189 = SURFACE_STYLE_FILL_AREA(#190);
#190 = FILL_AREA_STYLE('', (#191));
#191 = FILL_AREA_STYLE_COLOUR('', #192);
#192 = COLOUR_RGB('', 0.50196078431373, 0.50196078431373, 0.50196078431373);
#193 = STYLED_ITEM('', (#186), #1);
#194 = MANIFOLD_SOLID_BREP('CUT', #195);
#195 = CLOSED_SHELL('', (#196, #213, #252, #291));
#196 = ADVANCED_FACE('', (#197), #208, .T.);
#197 = FACE_OUTER_BOUND('', #198, .T.);
#198 = EDGE_LOOP('', (#199));
#199 = ORIENTED_EDGE('', *, *, #200, .F.);
#200 = EDGE_CURVE('', #201, #201, #203, .T.);
#201 = VERTEX_POINT('', #202);
#202 = CARTESIAN_POINT('', (-6., 5.51091059616309E-15, -84.));
#203 = CIRCLE('', #204, 6.);
#204 = AXIS2_PLACEMENT_3D('', #205, #206, #207);
#205 = CARTESIAN_POINT('', (1.49880108324396E-15, 5.55111512312578E-16, -84.));
#206 = DIRECTION('', (-6.65827843321765E-30, -8.06119657463317E-15, -1.));
#207 = DIRECTION('', (-1., 8.25966513975085E-16, 0.));
#208 = B_SPLINE_SURFACE_WITH_KNOTS('', 1, 1, ((#209, #210), (#211, #212)), .UNSPECIFIED., .F., .F., .U., (2, 2), (2, 2), (0.0454545454545454, 0.954545454545454), (0.0454545454545455, 0.954545454545454), .UNSPECIFIED.);
#209 = CARTESIAN_POINT('', (6., -6., -84.));
#210 = CARTESIAN_POINT('', (-6., -6., -84.));
#211 = CARTESIAN_POINT('', (6., 6.00000000000001, -84.));
#212 = CARTESIAN_POINT('', (-6., 6.00000000000001, -84.));
#213 = ADVANCED_FACE('', (#214), #233, .T.);
#214 = FACE_OUTER_BOUND('', #215, .T.);
#215 = EDGE_LOOP('', (#216, #224, #225, #226));
#216 = ORIENTED_EDGE('', *, *, #217, .F.);
#217 = EDGE_CURVE('', #201, #218, #220, .T.);
#218 = VERTEX_POINT('', #219);
#219 = CARTESIAN_POINT('', (-6., 6.48450480148524E-15, -99.9));
#220 = LINE('', #221, #222);
#221 = CARTESIAN_POINT('', (-6., 5.51091059616309E-15, -84.));
#222 = VECTOR('', #223, 15.9);
#223 = DIRECTION('', (0., 9.7359420532215E-16, -15.9));
#224 = ORIENTED_EDGE('', *, *, #200, .T.);
#225 = ORIENTED_EDGE('', *, *, #217, .T.);
#226 = ORIENTED_EDGE('', *, *, #227, .F.);
#227 = EDGE_CURVE('', #218, #218, #228, .T.);
#228 = CIRCLE('', #229, 6.);
#229 = AXIS2_PLACEMENT_3D('', #230, #231, #232);
#230 = CARTESIAN_POINT('', (1.41553435639707E-15, 1.22124532708767E-15, -99.9));
#231 = DIRECTION('', (2.36847578586699E-15, -7.70540152533508E-15, -1.));
#232 = DIRECTION('', (-1., 8.77209912399594E-16, -2.368475785867E-15));
#233 = (
   BOUNDED_SURFACE ()
   B_SPLINE_SURFACE (2, 1, ((#234, #235), (#236, #237), (#238, #239), (#240, #241), (#242, #243), (#244, #245), (#246, #247), (#248, #249), (#250, #251)), .UNSPECIFIED., .T., .F., .U.)
   B_SPLINE_SURFACE_WITH_KNOTS ((3, 2, 2, 2, 3), (2, 2), (0., 9.42477796076938, 18.8495559215388, 28.2743338823081, 37.6991118430775), (0., 1.), .UNSPECIFIED.)
   GEOMETRIC_REPRESENTATION_ITEM ()
   RATIONAL_B_SPLINE_SURFACE (((1., 1.), (0.707106781186548, 0.707106781186548), (1., 1.), (0.707106781186548, 0.707106781186548), (1., 1.), (0.707106781186548, 0.707106781186548), (1., 1.), (0.707106781186548, 0.707106781186548), (1., 1.)))
   REPRESENTATION_ITEM ('')
   SURFACE ()
);
#234 = CARTESIAN_POINT('', (-6., 5.51091059616309E-15, -84.));
#235 = CARTESIAN_POINT('', (-6., 1.2920631025875E-15, -99.9));
#236 = CARTESIAN_POINT('', (-6., 6.00000000000001, -84.));
#237 = CARTESIAN_POINT('', (-6., 6., -99.9));
#238 = CARTESIAN_POINT('', (1.22998039461521E-15, 6.00000000000001, -84.));
#239 = CARTESIAN_POINT('', (1.22998039461521E-15, 6., -99.9));
#240 = CARTESIAN_POINT('', (6., 6.00000000000001, -84.));
#241 = CARTESIAN_POINT('', (6., 6., -99.9));
#242 = CARTESIAN_POINT('', (6., 6.10406312465186E-15, -84.));
#243 = CARTESIAN_POINT('', (6., 1.88521563107626E-15, -99.9));
#244 = CARTESIAN_POINT('', (6., -6., -84.));
#245 = CARTESIAN_POINT('', (6., -6., -99.9));
#246 = CARTESIAN_POINT('', (2.55792100259238E-15, -6., -84.));
#247 = CARTESIAN_POINT('', (2.55792100259238E-15, -6., -99.9));
#248 = CARTESIAN_POINT('', (-6., -6., -84.));
#249 = CARTESIAN_POINT('', (-6., -6., -99.9));
#250 = CARTESIAN_POINT('', (-6., 5.51091059616309E-15, -84.));
#251 = CARTESIAN_POINT('', (-6., 1.2920631025875E-15, -99.9));
#252 = ADVANCED_FACE('', (#253), #272, .T.);
#253 = FACE_OUTER_BOUND('', #254, .T.);
#254 = EDGE_LOOP('', (#255, #263, #264, #265));
#255 = ORIENTED_EDGE('', *, *, #256, .F.);
#256 = EDGE_CURVE('', #218, #257, #259, .T.);
#257 = VERTEX_POINT('', #258);
#258 = CARTESIAN_POINT('', (-5.9, 6.48450480148524E-15, -100.));
#259 = LINE('', #260, #261);
#260 = CARTESIAN_POINT('', (-6., 6.48450480148524E-15, -99.9));
#261 = VECTOR('', #262, 0.141421356237305);
#262 = DIRECTION('', (0.0999999999999996, 0., -0.0999999999999943));
#263 = ORIENTED_EDGE('', *, *, #227, .T.);
#264 = ORIENTED_EDGE('', *, *, #256, .T.);
#265 = ORIENTED_EDGE('', *, *, #266, .F.);
#266 = EDGE_CURVE('', #257, #257, #267, .T.);
#267 = CIRCLE('', #268, 5.9);
#268 = AXIS2_PLACEMENT_3D('', #269, #270, #271);
#269 = CARTESIAN_POINT('', (-1.58206781009085E-15, 5.55111512312578E-15, -100.));
#270 = DIRECTION('', (0., 0., -1.));
#271 = DIRECTION('', (-1., 1.58201640399908E-16, 0.));
#272 = (
   BOUNDED_SURFACE ()
   B_SPLINE_SURFACE (2, 1, ((#273, #274), (#275, #276), (#277, #278), (#279, #280), (#281, #282), (#283, #284), (#285, #286), (#287, #288), (#289, #290)), .UNSPECIFIED., .T., .F., .U.)
   B_SPLINE_SURFACE_WITH_KNOTS ((3, 2, 2, 2, 3), (2, 2), (0., 0.25, 0.5, 0.75, 1.), (0., 1.), .UNSPECIFIED.)
   GEOMETRIC_REPRESENTATION_ITEM ()
   RATIONAL_B_SPLINE_SURFACE (((1., 1.), (0.707106781186548, 0.707106781186548), (1., 1.), (0.707106781186548, 0.707106781186548), (1., 1.), (0.707106781186548, 0.707106781186548), (1., 1.), (0.707106781186548, 0.707106781186548), (1., 1.)))
   REPRESENTATION_ITEM ('')
   SURFACE ()
);
#273 = CARTESIAN_POINT('', (-6., 6.48450480148524E-15, -99.9));
#274 = CARTESIAN_POINT('', (-5.9, 1.0399137814019E-14, -100.));
#275 = CARTESIAN_POINT('', (-6., 6.00000000000001, -99.8999999999998));
#276 = CARTESIAN_POINT('', (-5.9, 5.90000000000001, -99.9999999999998));
#277 = CARTESIAN_POINT('', (5.14566561519402E-15, 6., -99.8999999999998));
#278 = CARTESIAN_POINT('', (5.06961897307293E-15, 5.90000000000001, -99.9999999999998));
#279 = CARTESIAN_POINT('', (6.00000000000001, 6., -99.8999999999998));
#280 = CARTESIAN_POINT('', (5.90000000000001, 5.9, -99.9999999999998));
#281 = CARTESIAN_POINT('', (6., -2.64109225304639E-15, -99.9));
#282 = CARTESIAN_POINT('', (5.9, 1.42563404372953E-15, -100.));
#283 = CARTESIAN_POINT('', (6., -6., -99.9000000000002));
#284 = CARTESIAN_POINT('', (5.9, -5.9, -100.));
#285 = CARTESIAN_POINT('', (-3.24514335984919E-15, -6., -99.9000000000002));
#286 = CARTESIAN_POINT('', (-3.18134318571957E-15, -5.9, -100.));
#287 = CARTESIAN_POINT('', (-6., -6., -99.9000000000002));
#288 = CARTESIAN_POINT('', (-5.9, -5.89999999999999, -100.));
#289 = CARTESIAN_POINT('', (-6., 6.48450480148524E-15, -99.9));
#290 = CARTESIAN_POINT('', (-5.9, 1.0399137814019E-14, -100.));
#291 = ADVANCED_FACE('', (#292), #295, .T.);
#292 = FACE_OUTER_BOUND('', #293, .T.);
#293 = EDGE_LOOP('', (#294));
#294 = ORIENTED_EDGE('', *, *, #266, .T.);
#295 = B_SPLINE_SURFACE_WITH_KNOTS('', 1, 1, ((#296, #297), (#298, #299)), .UNSPECIFIED., .F., .F., .U., (2, 2), (2, 2), (0.0454545454545454, 0.954545454545454), (0.0454545454545454, 0.954545454545454), .UNSPECIFIED.);
#296 = CARTESIAN_POINT('', (5.9, -5.9, -100.));
#297 = CARTESIAN_POINT('', (5.9, 5.90000000000001, -100.));
#298 = CARTESIAN_POINT('', (-5.9, -5.9, -100.));
#299 = CARTESIAN_POINT('', (-5.9, 5.90000000000001, -100.));
#300 = PRESENTATION_STYLE_ASSIGNMENT((#301));
#301 = SURFACE_STYLE_USAGE(.POSITIVE., #302);
#302 = SURFACE_SIDE_STYLE('', (#303));
#303 = SURFACE_STYLE_FILL_AREA(#304);
#304 = FILL_AREA_STYLE('', (#305));
#305 = FILL_AREA_STYLE_COLOUR('', #306);
#306 = COLOUR_RGB('', 0.8, 0.8, 0.8);
#307 = STYLED_ITEM('', (#300), #194);
#308 = TRIMMED_CURVE('cutting part line', #309, (#313), (#314), .T., .CARTESIAN.);
#309 = LINE('', #310, #311);
#310 = CARTESIAN_POINT('', (6.66133814775094E-16, 0., -100.));
#311 = VECTOR('', #312, 5.9);
#312 = DIRECTION('', (5.9, 0., 0.));
#313 = CARTESIAN_POINT('', (6.66133814775094E-16, 0., -100.));
#314 = CARTESIAN_POINT('', (5.9, 0., -100.));
#315 = TRIMMED_CURVE('cutting part line', #316, (#320), (#321), .T., .CARTESIAN.);
#316 = LINE('', #317, #318);
#317 = CARTESIAN_POINT('', (5.9, 5.56044209472254E-15, -100.));
#318 = VECTOR('', #319, 0.141421356237305);
#319 = DIRECTION('', (0.0999999999999996, -3.99619415621167E-15, 0.0999999999999943));
#320 = CARTESIAN_POINT('', (5.9, 5.56044209472254E-15, -100.));
#321 = CARTESIAN_POINT('', (6., 1.56424793851087E-15, -99.9));
#322 = TRIMMED_CURVE('cutting part line', #323, (#327), (#328), .T., .CARTESIAN.);
#323 = LINE('', #324, #325);
#324 = CARTESIAN_POINT('', (6., -4.21820494266788E-15, -99.9));
#325 = VECTOR('', #326, 15.9);
#326 = DIRECTION('', (0., 4.21820494266788E-15, 15.9));
#327 = CARTESIAN_POINT('', (6., -4.21820494266788E-15, -99.9));
#328 = CARTESIAN_POINT('', (6., 0., -84.));
#329 = TRIMMED_CURVE('cutting part line', #330, (#334), (#335), .T., .CARTESIAN.);
#330 = LINE('', #331, #332);
#331 = CARTESIAN_POINT('', (6., 0., -84.));
#332 = VECTOR('', #333, 6.);
#333 = DIRECTION('', (-6., 0., 0.));
#334 = CARTESIAN_POINT('', (6., 0., -84.));
#335 = CARTESIAN_POINT('', (0., 0., -84.));
#336 = TRIMMED_CURVE('cutting part line', #337, (#341), (#342), .T., .CARTESIAN.);
#337 = LINE('', #338, #339);
#338 = CARTESIAN_POINT('', (0., 0., -84.));
#339 = VECTOR('', #340, 16.0000000000003);
#340 = DIRECTION('', (0., 0., -16.0000000000003));
#341 = CARTESIAN_POINT('', (0., 0., -84.));
#342 = CARTESIAN_POINT('', (0., 0., -100.));
#343 = COMPOSITE_CURVE('cutting part line', (#344, #345, #346, #347, #348), .U.);
#344 = COMPOSITE_CURVE_SEGMENT(.CONTINUOUS., .T., #308);
#345 = COMPOSITE_CURVE_SEGMENT(.CONTINUOUS., .T., #315);
#346 = COMPOSITE_CURVE_SEGMENT(.CONTINUOUS., .T., #322);
#347 = COMPOSITE_CURVE_SEGMENT(.CONTINUOUS., .T., #329);
#348 = COMPOSITE_CURVE_SEGMENT(.CONTINUOUS., .T., #336);
#349 = GEOMETRIC_SET('', (#343, #392));
#350 = PRESENTATION_STYLE_ASSIGNMENT((#351));
#351 = CURVE_STYLE('', #353, POSITIVE_LENGTH_MEASURE(1.E-6), #352);
#352 = COLOUR_RGB('', 0., 0., 1.);
#353 = DRAUGHTING_PRE_DEFINED_CURVE_FONT('continuous');
#354 = STYLED_ITEM('', (#350), #343);
#355 = PRESENTATION_STYLE_ASSIGNMENT((#356));
#356 = CURVE_STYLE('', #358, POSITIVE_LENGTH_MEASURE(1.E-6), #357);
#357 = COLOUR_RGB('', 0., 0., 1.);
#358 = DRAUGHTING_PRE_DEFINED_CURVE_FONT('continuous');
#359 = OVER_RIDING_STYLED_ITEM('', (#355), #308, #354);
#360 = PRESENTATION_STYLE_ASSIGNMENT((#361));
#361 = CURVE_STYLE('', #363, POSITIVE_LENGTH_MEASURE(1.E-6), #362);
#362 = COLOUR_RGB('', 0., 0., 1.);
#363 = DRAUGHTING_PRE_DEFINED_CURVE_FONT('continuous');
#364 = OVER_RIDING_STYLED_ITEM('', (#360), #315, #354);
#365 = PRESENTATION_STYLE_ASSIGNMENT((#366));
#366 = CURVE_STYLE('', #368, POSITIVE_LENGTH_MEASURE(1.E-6), #367);
#367 = COLOUR_RGB('', 0., 0., 1.);
#368 = DRAUGHTING_PRE_DEFINED_CURVE_FONT('continuous');
#369 = OVER_RIDING_STYLED_ITEM('', (#365), #322, #354);
#370 = PRESENTATION_STYLE_ASSIGNMENT((#371));
#371 = CURVE_STYLE('', #373, POSITIVE_LENGTH_MEASURE(1.E-6), #372);
#372 = COLOUR_RGB('', 0., 0., 1.);
#373 = DRAUGHTING_PRE_DEFINED_CURVE_FONT('continuous');
#374 = OVER_RIDING_STYLED_ITEM('', (#370), #329, #354);
#375 = PRESENTATION_STYLE_ASSIGNMENT((#376));
#376 = CURVE_STYLE('', #378, POSITIVE_LENGTH_MEASURE(1.E-6), #377);
#377 = COLOUR_RGB('', 0., 0., 1.);
#378 = DRAUGHTING_PRE_DEFINED_CURVE_FONT('continuous');
#379 = OVER_RIDING_STYLED_ITEM('', (#375), #336, #354);
#380 = AXIS2_PLACEMENT_3D('MCS', #381, #382, #383);
#381 = CARTESIAN_POINT('', (0., 0., -45.));
#382 = DIRECTION('', (0., 0., 1.));
#383 = DIRECTION('', (1., 0., 0.));
#384 = AXIS2_PLACEMENT_3D('PCS', #385, #386, #387);
#385 = CARTESIAN_POINT('', (0., 0., 0.));
#386 = DIRECTION('', (0., 0., 1.));
#387 = DIRECTION('', (1., 0., 0.));
#388 = AXIS2_PLACEMENT_3D('CIP', #389, #390, #391);
#389 = CARTESIAN_POINT('', (0., 0., -100.));
#390 = DIRECTION('', (0., 0., 1.));
#391 = DIRECTION('', (1., 0., 0.));
#392 = CARTESIAN_POINT('CRP', (6., 0., -100.));
#393 = (
   GEOMETRIC_REPRESENTATION_CONTEXT (3)
   GLOBAL_UNCERTAINTY_ASSIGNED_CONTEXT ((#395))
   GLOBAL_UNIT_ASSIGNED_CONTEXT ((#394, #396, #397))
   REPRESENTATION_CONTEXT ('', '3D')
);
#394 = (
   LENGTH_UNIT ()
   NAMED_UNIT (*)
   SI_UNIT (.MILLI., .METRE.)
);
#395 = UNCERTAINTY_MEASURE_WITH_UNIT(LENGTH_MEASURE(1.E-6), #394, 'DISTANCE_ACCURACY_VALUE', '');
#396 = (
   NAMED_UNIT (*)
   SI_UNIT ($, .STERADIAN.)
   SOLID_ANGLE_UNIT ()
);
#397 = (
   NAMED_UNIT (*)
   PLANE_ANGLE_UNIT ()
   SI_UNIT ($, .RADIAN.)
);
#398 = SHAPE_REPRESENTATION('', (), #393);
#399 = PRODUCT_DEFINITION_SHAPE('', '', #400);
#400 = PRODUCT_DEFINITION('', '', #403, #407);
#401 = APPLICATION_CONTEXT('configuration controlled 3D designs of mechanical parts and assemblies');
#402 = APPLICATION_PROTOCOL_DEFINITION('International Standard', 'automotive_design', 2002, #401);
#403 = PRODUCT_DEFINITION_FORMATION_WITH_SPECIFIED_SOURCE('', '', #404, .NOT_KNOWN.);
#404 = PRODUCT('product-name', '2P120-1200-NC       H10F', '', (#405));
#405 = PRODUCT_CONTEXT('', #401, 'mechanical');
#406 = PRODUCT_RELATED_PRODUCT_CATEGORY('detail', '', (#404));
#407 = PRODUCT_DEFINITION_CONTEXT('part definition', #401, 'design');
#408 = SHAPE_DEFINITION_REPRESENTATION(#399, #398);
#409 = CONSTRUCTIVE_GEOMETRY_REPRESENTATION('supplemental geometry', (#380, #384, #388), #393);
#410 = CONSTRUCTIVE_GEOMETRY_REPRESENTATION_RELATIONSHIP('', '', #398, #409);
#411 = SHAPE_REPRESENTATION_RELATIONSHIP('', '', #398, #412);
#412 = SHAPE_REPRESENTATION('', (#349), #393);
#413 = SHAPE_REPRESENTATION_RELATIONSHIP('', '', #398, #414);
#414 = ADVANCED_BREP_SHAPE_REPRESENTATION('', (#1, #194), #393);
ENDSEC;
END-ISO-10303-21;
