ISO-10303-21;
HEADER;
FILE_DESCRIPTION(('STEP'), '1');
FILE_NAME('C:\\Users\\ds2002\\OneDrive - Sandvik\\HomeShare\\Documents\\Batchrepair\\CorSRT2\\NEW_MILSQ_SLD\\Output\\MOD000000000000000020082305400000.stp', '2019-01-02T12:10:09', (''), (''), 'Express v3.0.0.0', 'Express Tool', 'Unknown');
FILE_SCHEMA(('AUTOMOTIVE_DESIGN'));
ENDSEC;

DATA;
#1 = MANIFOLD_SOLID_BREP('NOCUT', #2);
#2 = CLOSED_SHELL('', (#3, #50, #70, #109, #148, #157));
#3 = ADVANCED_FACE('', (#4), #31, .T.);
#4 = FACE_OUTER_BOUND('', #5, .T.);
#5 = EDGE_LOOP('', (#6, #16, #23, #24));
#6 = ORIENTED_EDGE('', *, *, #7, .F.);
#7 = EDGE_CURVE('', #8, #10, #12, .T.);
#8 = VERTEX_POINT('', #9);
#9 = CARTESIAN_POINT('', (-4.75, 3.04630891287904E-15, -45.));
#10 = VERTEX_POINT('', #11);
#11 = CARTESIAN_POINT('', (-4.75, 4.94451145155744E-15, -76.));
#12 = LINE('', #13, #14);
#13 = CARTESIAN_POINT('', (-4.75, 3.04630891287904E-15, -45.));
#14 = VECTOR('', #15, 31.);
#15 = DIRECTION('', (0., 1.8982025386784E-15, -31.));
#16 = ORIENTED_EDGE('', *, *, #17, .T.);
#17 = EDGE_CURVE('', #8, #8, #18, .T.);
#18 = CIRCLE('', #19, 4.75);
#19 = AXIS2_PLACEMENT_3D('', #20, #21, #22);
#20 = CARTESIAN_POINT('', (2.22044604925031E-16, 0., -45.));
#21 = DIRECTION('', (0., 0., -1.));
#22 = DIRECTION('', (-1., 6.41328192185061E-16, 0.));
#23 = ORIENTED_EDGE('', *, *, #7, .T.);
#24 = ORIENTED_EDGE('', *, *, #25, .F.);
#25 = EDGE_CURVE('', #10, #10, #26, .T.);
#26 = CIRCLE('', #27, 4.75);
#27 = AXIS2_PLACEMENT_3D('', #28, #29, #30);
#28 = CARTESIAN_POINT('', (-1.11022302462516E-16, 1.11022302462516E-15, -76.));
#29 = DIRECTION('', (0., 0., -1.));
#30 = DIRECTION('', (-1., 8.0721861619627E-16, 0.));
#31 = (
   BOUNDED_SURFACE ()
   B_SPLINE_SURFACE (2, 1, ((#32, #33), (#34, #35), (#36, #37), (#38, #39), (#40, #41), (#42, #43), (#44, #45), (#46, #47), (#48, #49)), .UNSPECIFIED., .T., .F., .U.)
   B_SPLINE_SURFACE_WITH_KNOTS ((3, 2, 2, 2, 3), (2, 2), (0., 7.46128255227575, 14.9225651045515, 22.3838476568273, 29.845130209103), (0., 1.), .UNSPECIFIED.)
   GEOMETRIC_REPRESENTATION_ITEM ()
   RATIONAL_B_SPLINE_SURFACE (((1., 1.), (0.707106781186548, 0.707106781186548), (1., 1.), (0.707106781186548, 0.707106781186548), (1., 1.), (0.707106781186548, 0.707106781186548), (1., 1.), (0.707106781186548, 0.707106781186548), (1., 1.)))
   REPRESENTATION_ITEM ('')
   SURFACE ()
);
#32 = CARTESIAN_POINT('', (-4.75, 3.04630891287904E-15, -45.));
#33 = CARTESIAN_POINT('', (-4.75, 5.04471035720432E-15, -76.));
#34 = CARTESIAN_POINT('', (-4.75, 4.75, -45.));
#35 = CARTESIAN_POINT('', (-4.75, 4.75, -76.));
#36 = CARTESIAN_POINT('', (3.60200035435823E-15, 4.75, -45.));
#37 = CARTESIAN_POINT('', (3.60200035435823E-15, 4.75, -76.));
#38 = CARTESIAN_POINT('', (4.75, 4.75, -45.));
#39 = CARTESIAN_POINT('', (4.75, 4.75, -76.));
#40 = CARTESIAN_POINT('', (4.75, -4.2409585226843E-15, -45.));
#41 = CARTESIAN_POINT('', (4.75, -2.24255707835902E-15, -76.));
#42 = CARTESIAN_POINT('', (4.75, -4.75, -45.));
#43 = CARTESIAN_POINT('', (4.75, -4.75, -76.));
#44 = CARTESIAN_POINT('', (-3.10355985161012E-15, -4.75, -45.));
#45 = CARTESIAN_POINT('', (-3.10355985161012E-15, -4.75, -76.));
#46 = CARTESIAN_POINT('', (-4.75, -4.75, -45.));
#47 = CARTESIAN_POINT('', (-4.75, -4.75, -76.));
#48 = CARTESIAN_POINT('', (-4.75, 3.04630891287904E-15, -45.));
#49 = CARTESIAN_POINT('', (-4.75, 5.04471035720432E-15, -76.));
#50 = ADVANCED_FACE('', (#51, #62), #65, .T.);
#51 = FACE_OUTER_BOUND('', #52, .T.);
#52 = EDGE_LOOP('', (#53));
#53 = ORIENTED_EDGE('', *, *, #54, .T.);
#54 = EDGE_CURVE('', #55, #55, #57, .T.);
#55 = VERTEX_POINT('', #56);
#56 = CARTESIAN_POINT('', (-5., 3.06161699786838E-15, -45.));
#57 = CIRCLE('', #58, 5.);
#58 = AXIS2_PLACEMENT_3D('', #59, #60, #61);
#59 = CARTESIAN_POINT('', (-9.71445146547012E-17, -3.88578058618805E-15, -45.));
#60 = DIRECTION('', (0., 0., -1.));
#61 = DIRECTION('', (-1., 1.38947951681129E-15, 0.));
#62 = FACE_BOUND('', #63, .T.);
#63 = EDGE_LOOP('', (#64));
#64 = ORIENTED_EDGE('', *, *, #17, .F.);
#65 = B_SPLINE_SURFACE_WITH_KNOTS('', 1, 1, ((#66, #67), (#68, #69)), .UNSPECIFIED., .F., .F., .U., (2, 2), (2, 2), (0.0454545454545452, 0.954545454545455), (0.0454545454545452, 0.954545454545455), .UNSPECIFIED.);
#66 = CARTESIAN_POINT('', (5., -5., -45.));
#67 = CARTESIAN_POINT('', (5., 5., -45.));
#68 = CARTESIAN_POINT('', (-5., -5., -45.));
#69 = CARTESIAN_POINT('', (-5., 5., -45.));
#70 = ADVANCED_FACE('', (#71), #90, .T.);
#71 = FACE_OUTER_BOUND('', #72, .T.);
#72 = EDGE_LOOP('', (#73, #81, #88, #89));
#73 = ORIENTED_EDGE('', *, *, #74, .T.);
#74 = EDGE_CURVE('', #55, #75, #77, .T.);
#75 = VERTEX_POINT('', #76);
#76 = CARTESIAN_POINT('', (-5., 3.36777869765522E-16, -0.5));
#77 = LINE('', #78, #79);
#78 = CARTESIAN_POINT('', (-5., 3.06161699786838E-15, -45.));
#79 = VECTOR('', #80, 44.5);
#80 = DIRECTION('', (0., -2.72483912810286E-15, 44.5));
#81 = ORIENTED_EDGE('', *, *, #82, .T.);
#82 = EDGE_CURVE('', #75, #75, #83, .T.);
#83 = CIRCLE('', #84, 5.);
#84 = AXIS2_PLACEMENT_3D('', #85, #86, #87);
#85 = CARTESIAN_POINT('', (8.88178419700125E-16, -1.99840144432528E-15, -0.5));
#86 = DIRECTION('', (0., 0., -1.));
#87 = DIRECTION('', (-1., 4.67035862818161E-16, 0.));
#88 = ORIENTED_EDGE('', *, *, #74, .F.);
#89 = ORIENTED_EDGE('', *, *, #54, .F.);
#90 = (
   BOUNDED_SURFACE ()
   B_SPLINE_SURFACE (1, 2, ((#91, #92, #93, #94, #95, #96, #97, #98, #99), (#100, #101, #102, #103, #104, #105, #106, #107, #108)), .UNSPECIFIED., .F., .T., .U.)
   B_SPLINE_SURFACE_WITH_KNOTS ((2, 2), (3, 2, 2, 2, 3), (0., 1.), (0., 7.85398163397448, 15.707963267949, 23.5619449019234, 31.4159265358979), .UNSPECIFIED.)
   GEOMETRIC_REPRESENTATION_ITEM ()
   RATIONAL_B_SPLINE_SURFACE (((1., 0.707106781186548, 1., 0.707106781186548, 1., 0.707106781186548, 1., 0.707106781186548, 1.), (1., 0.707106781186548, 1., 0.707106781186548, 1., 0.707106781186548, 1., 0.707106781186548, 1.)))
   REPRESENTATION_ITEM ('')
   SURFACE ()
);
#91 = CARTESIAN_POINT('', (-5., -6.62422852397119E-16, -45.));
#92 = CARTESIAN_POINT('', (-5., 5., -45.));
#93 = CARTESIAN_POINT('', (2.91719603400409E-15, 5., -45.));
#94 = CARTESIAN_POINT('', (5., 5., -45.));
#95 = CARTESIAN_POINT('', (5., -4.72045808100505E-15, -45.));
#96 = CARTESIAN_POINT('', (5., -5., -45.));
#97 = CARTESIAN_POINT('', (-5.28515795030164E-16, -5., -45.));
#98 = CARTESIAN_POINT('', (-5., -5., -45.));
#99 = CARTESIAN_POINT('', (-5., -6.62422852397119E-16, -45.));
#100 = CARTESIAN_POINT('', (-5., 3.36777869765522E-16, -0.5));
#101 = CARTESIAN_POINT('', (-5., 5., -0.5));
#102 = CARTESIAN_POINT('', (2.91719603400409E-15, 5., -0.5));
#103 = CARTESIAN_POINT('', (5., 5., -0.5));
#104 = CARTESIAN_POINT('', (5., -3.72125735884241E-15, -0.5));
#105 = CARTESIAN_POINT('', (5., -5., -0.5));
#106 = CARTESIAN_POINT('', (-5.28515795030163E-16, -5., -0.5));
#107 = CARTESIAN_POINT('', (-5., -5., -0.5));
#108 = CARTESIAN_POINT('', (-5., 3.36777869765522E-16, -0.5));
#109 = ADVANCED_FACE('', (#110), #129, .T.);
#110 = FACE_OUTER_BOUND('', #111, .T.);
#111 = EDGE_LOOP('', (#112, #120, #127, #128));
#112 = ORIENTED_EDGE('', *, *, #113, .T.);
#113 = EDGE_CURVE('', #75, #114, #116, .T.);
#114 = VERTEX_POINT('', #115);
#115 = CARTESIAN_POINT('', (-4.5, 2.75545529808154E-16, 0.));
#116 = LINE('', #117, #118);
#117 = CARTESIAN_POINT('', (-5., 3.36777869765522E-16, -0.5));
#118 = VECTOR('', #119, 0.707106781186548);
#119 = DIRECTION('', (0.5, -6.1232339957368E-17, 0.5));
#120 = ORIENTED_EDGE('', *, *, #121, .T.);
#121 = EDGE_CURVE('', #114, #114, #122, .T.);
#122 = CIRCLE('', #123, 4.5);
#123 = AXIS2_PLACEMENT_3D('', #124, #125, #126);
#124 = CARTESIAN_POINT('', (2.28983498828939E-15, 0., -1.84889274661175E-32));
#125 = DIRECTION('', (-3.59251091371472E-34, 6.12323399573676E-17, -1.));
#126 = DIRECTION('', (-1., 6.12323399573675E-17, 4.1086505480261E-33));
#127 = ORIENTED_EDGE('', *, *, #113, .F.);
#128 = ORIENTED_EDGE('', *, *, #82, .F.);
#129 = (
   BOUNDED_SURFACE ()
   B_SPLINE_SURFACE (1, 2, ((#130, #131, #132, #133, #134, #135, #136, #137, #138), (#139, #140, #141, #142, #143, #144, #145, #146, #147)), .UNSPECIFIED., .F., .T., .U.)
   B_SPLINE_SURFACE_WITH_KNOTS ((2, 2), (3, 2, 2, 2, 3), (0., 1.), (0., 0.25, 0.5, 0.75, 1.), .UNSPECIFIED.)
   GEOMETRIC_REPRESENTATION_ITEM ()
   RATIONAL_B_SPLINE_SURFACE (((1., 0.707106781186548, 1., 0.707106781186548, 1., 0.707106781186548, 1., 0.707106781186548, 1.), (1., 0.707106781186548, 1., 0.707106781186548, 1., 0.707106781186548, 1., 0.707106781186548, 1.)))
   REPRESENTATION_ITEM ('')
   SURFACE ()
);
#130 = CARTESIAN_POINT('', (-5., -2.69144046670109E-15, -0.5));
#131 = CARTESIAN_POINT('', (-5., 5., -0.50000000000003));
#132 = CARTESIAN_POINT('', (2.28983498828938E-15, 5., -0.50000000000003));
#133 = CARTESIAN_POINT('', (5., 5., -0.50000000000003));
#134 = CARTESIAN_POINT('', (5., -2.69144046670108E-15, -0.5));
#135 = CARTESIAN_POINT('', (5., -5., -0.49999999999997));
#136 = CARTESIAN_POINT('', (2.90215838786306E-15, -5., -0.49999999999997));
#137 = CARTESIAN_POINT('', (-5., -5., -0.49999999999997));
#138 = CARTESIAN_POINT('', (-5., -2.69144046670109E-15, -0.5));
#139 = CARTESIAN_POINT('', (-4.5, 2.75545529808154E-16, -5.47382212626882E-48));
#140 = CARTESIAN_POINT('', (-4.5, 4.5, -2.69784194983913E-14));
#141 = CARTESIAN_POINT('', (2.28983498828938E-15, 4.5, -2.69784194983913E-14));
#142 = CARTESIAN_POINT('', (4.5, 4.5, -2.69784194983913E-14));
#143 = CARTESIAN_POINT('', (4.5, 2.75545529808155E-16, -3.34088136340818E-30));
#144 = CARTESIAN_POINT('', (4.5, -4.5, 2.69784194983913E-14));
#145 = CARTESIAN_POINT('', (2.8409260479057E-15, -4.5, 2.69784194983913E-14));
#146 = CARTESIAN_POINT('', (-4.5, -4.5, 2.69784194983913E-14));
#147 = CARTESIAN_POINT('', (-4.5, 2.75545529808154E-16, -5.47382212626882E-48));
#148 = ADVANCED_FACE('', (#149), #152, .T.);
#149 = FACE_OUTER_BOUND('', #150, .T.);
#150 = EDGE_LOOP('', (#151));
#151 = ORIENTED_EDGE('', *, *, #121, .F.);
#152 = B_SPLINE_SURFACE_WITH_KNOTS('', 1, 1, ((#153, #154), (#155, #156)), .UNSPECIFIED., .F., .F., .U., (2, 2), (2, 2), (0.0454545454545454, 0.954545454545454), (0.0454545454545454, 0.954545454545454), .UNSPECIFIED.);
#153 = CARTESIAN_POINT('', (4.5, -4.5, -2.75545529808155E-16));
#154 = CARTESIAN_POINT('', (-4.5, -4.5, -2.75545529808154E-16));
#155 = CARTESIAN_POINT('', (4.5, 4.5, 2.75545529808154E-16));
#156 = CARTESIAN_POINT('', (-4.5, 4.5, 2.75545529808155E-16));
#157 = ADVANCED_FACE('', (#158), #161, .T.);
#158 = FACE_OUTER_BOUND('', #159, .T.);
#159 = EDGE_LOOP('', (#160));
#160 = ORIENTED_EDGE('', *, *, #25, .T.);
#161 = B_SPLINE_SURFACE_WITH_KNOTS('', 1, 1, ((#162, #163), (#164, #165)), .UNSPECIFIED., .F., .F., .U., (2, 2), (2, 2), (0.492834840129657, 0.544972860860817), (0.455027139139183, 0.507165159870343), .UNSPECIFIED.);
#162 = CARTESIAN_POINT('', (-4.75000000000003, 4.75000000000001, -76.));
#163 = CARTESIAN_POINT('', (-4.75000000000003, -4.74999999999999, -76.));
#164 = CARTESIAN_POINT('', (4.74999999999997, 4.75000000000001, -76.));
#165 = CARTESIAN_POINT('', (4.74999999999997, -4.74999999999999, -76.));
#166 = DRAUGHTING_MODEL('', (#174, #288, #335, #340, #345, #350, #355, #360), #374);
#167 = PRESENTATION_STYLE_ASSIGNMENT((#168));
#168 = SURFACE_STYLE_USAGE(.POSITIVE., #169);
#169 = SURFACE_SIDE_STYLE('', (#170));
#170 = SURFACE_STYLE_FILL_AREA(#171);
#171 = FILL_AREA_STYLE('', (#172));
#172 = FILL_AREA_STYLE_COLOUR('', #173);
#173 = COLOUR_RGB('', 0.50196078431373, 0.50196078431373, 0.50196078431373);
#174 = STYLED_ITEM('', (#167), #1);
#175 = MANIFOLD_SOLID_BREP('CUT', #176);
#176 = CLOSED_SHELL('', (#177, #194, #233, #272));
#177 = ADVANCED_FACE('', (#178), #189, .T.);
#178 = FACE_OUTER_BOUND('', #179, .T.);
#179 = EDGE_LOOP('', (#180));
#180 = ORIENTED_EDGE('', *, *, #181, .F.);
#181 = EDGE_CURVE('', #182, #182, #184, .T.);
#182 = VERTEX_POINT('', #183);
#183 = CARTESIAN_POINT('', (-5., 4.95981953654678E-15, -76.));
#184 = CIRCLE('', #185, 5.);
#185 = AXIS2_PLACEMENT_3D('', #186, #187, #188);
#186 = CARTESIAN_POINT('', (-1.52655665885959E-16, -2.33146835171283E-15, -76.));
#187 = DIRECTION('', (0., 0., -1.));
#188 = DIRECTION('', (-1., 1.45825757765192E-15, 0.));
#189 = B_SPLINE_SURFACE_WITH_KNOTS('', 1, 1, ((#190, #191), (#192, #193)), .UNSPECIFIED., .F., .F., .U., (2, 2), (2, 2), (0.0454545454545454, 0.954545454545455), (0.0454545454545454, 0.954545454545455), .UNSPECIFIED.);
#190 = CARTESIAN_POINT('', (5., -5., -76.));
#191 = CARTESIAN_POINT('', (-5., -5., -76.));
#192 = CARTESIAN_POINT('', (5., 5., -76.));
#193 = CARTESIAN_POINT('', (-5., 5., -76.));
#194 = ADVANCED_FACE('', (#195), #214, .T.);
#195 = FACE_OUTER_BOUND('', #196, .T.);
#196 = EDGE_LOOP('', (#197, #205, #206, #207));
#197 = ORIENTED_EDGE('', *, *, #198, .F.);
#198 = EDGE_CURVE('', #182, #199, #201, .T.);
#199 = VERTEX_POINT('', #200);
#200 = CARTESIAN_POINT('', (-5., 5.81094906195419E-15, -89.9));
#201 = LINE('', #202, #203);
#202 = CARTESIAN_POINT('', (-5., 4.95981953654678E-15, -76.));
#203 = VECTOR('', #204, 13.9);
#204 = DIRECTION('', (0., 8.51129525407411E-16, -13.9));
#205 = ORIENTED_EDGE('', *, *, #181, .T.);
#206 = ORIENTED_EDGE('', *, *, #198, .T.);
#207 = ORIENTED_EDGE('', *, *, #208, .F.);
#208 = EDGE_CURVE('', #199, #199, #209, .T.);
#209 = CIRCLE('', #210, 5.);
#210 = AXIS2_PLACEMENT_3D('', #211, #212, #213);
#211 = CARTESIAN_POINT('', (1.49880108324396E-15, 7.7715611723761E-16, -89.9));
#212 = DIRECTION('', (0., 0., -1.));
#213 = DIRECTION('', (-1., 1.00675858894332E-15, 0.));
#214 = (
   BOUNDED_SURFACE ()
   B_SPLINE_SURFACE (2, 1, ((#215, #216), (#217, #218), (#219, #220), (#221, #222), (#223, #224), (#225, #226), (#227, #228), (#229, #230), (#231, #232)), .UNSPECIFIED., .T., .F., .U.)
   B_SPLINE_SURFACE_WITH_KNOTS ((3, 2, 2, 2, 3), (2, 2), (0., 7.85398163397448, 15.707963267949, 23.5619449019234, 31.4159265358979), (0., 1.), .UNSPECIFIED.)
   GEOMETRIC_REPRESENTATION_ITEM ()
   RATIONAL_B_SPLINE_SURFACE (((1., 1.), (0.707106781186548, 0.707106781186548), (1., 1.), (0.707106781186548, 0.707106781186548), (1., 1.), (0.707106781186548, 0.707106781186548), (1., 1.), (0.707106781186548, 0.707106781186548), (1., 1.)))
   REPRESENTATION_ITEM ('')
   SURFACE ()
);
#215 = CARTESIAN_POINT('', (-5., 4.95981953654678E-15, -76.));
#216 = CARTESIAN_POINT('', (-5., 7.18026558579709E-15, -89.9));
#217 = CARTESIAN_POINT('', (-4.99999999999999, 5., -76.));
#218 = CARTESIAN_POINT('', (-4.99999999999999, 5.00000000000001, -89.9));
#219 = CARTESIAN_POINT('', (6.49940361519926E-15, 5., -76.));
#220 = CARTESIAN_POINT('', (6.49940361519927E-15, 5., -89.9));
#221 = CARTESIAN_POINT('', (5.00000000000001, 4.99999999999999, -76.));
#222 = CARTESIAN_POINT('', (5.00000000000001, 4.99999999999999, -89.9));
#223 = CARTESIAN_POINT('', (5., -7.23407600099851E-15, -76.));
#224 = CARTESIAN_POINT('', (5., -5.0136299517482E-15, -89.9));
#225 = CARTESIAN_POINT('', (4.99999999999999, -5.00000000000001, -76.));
#226 = CARTESIAN_POINT('', (4.99999999999999, -5.00000000000001, -89.9));
#227 = CARTESIAN_POINT('', (-5.08216852277235E-15, -5., -76.));
#228 = CARTESIAN_POINT('', (-5.08216852277235E-15, -5., -89.9));
#229 = CARTESIAN_POINT('', (-5.00000000000001, -5., -76.));
#230 = CARTESIAN_POINT('', (-5.00000000000001, -4.99999999999999, -89.9));
#231 = CARTESIAN_POINT('', (-5., 4.95981953654678E-15, -76.));
#232 = CARTESIAN_POINT('', (-5., 7.18026558579709E-15, -89.9));
#233 = ADVANCED_FACE('', (#234), #253, .T.);
#234 = FACE_OUTER_BOUND('', #235, .T.);
#235 = EDGE_LOOP('', (#236, #244, #245, #246));
#236 = ORIENTED_EDGE('', *, *, #237, .F.);
#237 = EDGE_CURVE('', #199, #238, #240, .T.);
#238 = VERTEX_POINT('', #239);
#239 = CARTESIAN_POINT('', (-4.9, 5.81094906195419E-15, -90.));
#240 = LINE('', #241, #242);
#241 = CARTESIAN_POINT('', (-5., 5.81094906195419E-15, -89.9));
#242 = VECTOR('', #243, 0.141421356237305);
#243 = DIRECTION('', (0.0999999999999996, 0., -0.0999999999999943));
#244 = ORIENTED_EDGE('', *, *, #208, .T.);
#245 = ORIENTED_EDGE('', *, *, #237, .T.);
#246 = ORIENTED_EDGE('', *, *, #247, .F.);
#247 = EDGE_CURVE('', #238, #238, #248, .T.);
#248 = CIRCLE('', #249, 4.9);
#249 = AXIS2_PLACEMENT_3D('', #250, #251, #252);
#250 = CARTESIAN_POINT('', (-6.10622663543836E-16, 2.22044604925031E-16, -90.));
#251 = DIRECTION('', (0., 0., -1.));
#252 = DIRECTION('', (-1., 1.14059274633248E-15, 0.));
#253 = (
   BOUNDED_SURFACE ()
   B_SPLINE_SURFACE (2, 1, ((#254, #255), (#256, #257), (#258, #259), (#260, #261), (#262, #263), (#264, #265), (#266, #267), (#268, #269), (#270, #271)), .UNSPECIFIED., .T., .F., .U.)
   B_SPLINE_SURFACE_WITH_KNOTS ((3, 2, 2, 2, 3), (2, 2), (0., 0.25, 0.5, 0.75, 1.), (0., 1.), .UNSPECIFIED.)
   GEOMETRIC_REPRESENTATION_ITEM ()
   RATIONAL_B_SPLINE_SURFACE (((1., 1.), (0.707106781186548, 0.707106781186548), (1., 1.), (0.707106781186548, 0.707106781186548), (1., 1.), (0.707106781186548, 0.707106781186548), (1., 1.), (0.707106781186548, 0.707106781186548), (1., 1.)))
   REPRESENTATION_ITEM ('')
   SURFACE ()
);
#254 = CARTESIAN_POINT('', (-5., 5.81094906195419E-15, -89.9));
#255 = CARTESIAN_POINT('', (-4.9, 2.54391713682891E-15, -90.));
#256 = CARTESIAN_POINT('', (-5., 5.00000000000001, -89.9000000000002));
#257 = CARTESIAN_POINT('', (-4.9, 4.9, -90.0000000000002));
#258 = CARTESIAN_POINT('', (1.60512898817149E-15, 5., -89.9000000000002));
#259 = CARTESIAN_POINT('', (1.5638670684549E-15, 4.9, -90.0000000000002));
#260 = CARTESIAN_POINT('', (5., 5., -89.9000000000002));
#261 = CARTESIAN_POINT('', (4.9, 4.9, -90.0000000000002));
#262 = CARTESIAN_POINT('', (5., 1.68475709029546E-15, -89.9));
#263 = CARTESIAN_POINT('', (4.9, -1.49975099539665E-15, -90.));
#264 = CARTESIAN_POINT('', (5., -5., -89.8999999999998));
#265 = CARTESIAN_POINT('', (4.9, -4.9, -89.9999999999998));
#266 = CARTESIAN_POINT('', (-1.90873958391357E-15, -5., -89.8999999999998));
#267 = CARTESIAN_POINT('', (-1.87972413218845E-15, -4.9, -89.9999999999998));
#268 = CARTESIAN_POINT('', (-5., -4.99999999999999, -89.8999999999998));
#269 = CARTESIAN_POINT('', (-4.9, -4.9, -89.9999999999998));
#270 = CARTESIAN_POINT('', (-5., 5.81094906195419E-15, -89.9));
#271 = CARTESIAN_POINT('', (-4.9, 2.54391713682891E-15, -90.));
#272 = ADVANCED_FACE('', (#273), #276, .T.);
#273 = FACE_OUTER_BOUND('', #274, .T.);
#274 = EDGE_LOOP('', (#275));
#275 = ORIENTED_EDGE('', *, *, #247, .T.);
#276 = B_SPLINE_SURFACE_WITH_KNOTS('', 1, 1, ((#277, #278), (#279, #280)), .UNSPECIFIED., .F., .F., .U., (2, 2), (2, 2), (0.0454545454545454, 0.954545454545455), (0.0454545454545454, 0.954545454545455), .UNSPECIFIED.);
#277 = CARTESIAN_POINT('', (4.9, -4.9, -90.));
#278 = CARTESIAN_POINT('', (4.9, 4.90000000000001, -90.));
#279 = CARTESIAN_POINT('', (-4.9, -4.9, -90.));
#280 = CARTESIAN_POINT('', (-4.9, 4.90000000000001, -90.));
#281 = PRESENTATION_STYLE_ASSIGNMENT((#282));
#282 = SURFACE_STYLE_USAGE(.POSITIVE., #283);
#283 = SURFACE_SIDE_STYLE('', (#284));
#284 = SURFACE_STYLE_FILL_AREA(#285);
#285 = FILL_AREA_STYLE('', (#286));
#286 = FILL_AREA_STYLE_COLOUR('', #287);
#287 = COLOUR_RGB('', 0.8, 0.8, 0.8);
#288 = STYLED_ITEM('', (#281), #175);
#289 = TRIMMED_CURVE('cutting part line', #290, (#294), (#295), .T., .CARTESIAN.);
#290 = LINE('', #291, #292);
#291 = CARTESIAN_POINT('', (-1.66533453693773E-16, 0., -90.));
#292 = VECTOR('', #293, 4.9);
#293 = DIRECTION('', (4.9, 0., 0.));
#294 = CARTESIAN_POINT('', (-1.66533453693773E-16, 0., -90.));
#295 = CARTESIAN_POINT('', (4.9, 0., -90.));
#296 = TRIMMED_CURVE('cutting part line', #297, (#301), (#302), .T., .CARTESIAN.);
#297 = LINE('', #298, #299);
#298 = CARTESIAN_POINT('', (4.9, 2.14018160278216E-16, -90.));
#299 = VECTOR('', #300, 0.141421356237305);
#300 = DIRECTION('', (0.0999999999999988, 3.21915640361496E-15, 0.0999999999999943));
#301 = CARTESIAN_POINT('', (4.9, 2.14018160278216E-16, -90.));
#302 = CARTESIAN_POINT('', (5., 3.43317456389317E-15, -89.9));
#303 = TRIMMED_CURVE('cutting part line', #304, (#308), (#309), .T., .CARTESIAN.);
#304 = LINE('', #305, #306);
#305 = CARTESIAN_POINT('', (5., 2.22010786456204E-15, -89.9));
#306 = VECTOR('', #307, 13.9);
#307 = DIRECTION('', (0., -2.22010786456204E-15, 13.9));
#308 = CARTESIAN_POINT('', (5., 2.22010786456204E-15, -89.9));
#309 = CARTESIAN_POINT('', (5., 0., -76.));
#310 = TRIMMED_CURVE('cutting part line', #311, (#315), (#316), .T., .CARTESIAN.);
#311 = LINE('', #312, #313);
#312 = CARTESIAN_POINT('', (5., 0., -76.));
#313 = VECTOR('', #314, 5.);
#314 = DIRECTION('', (-5., 0., 0.));
#315 = CARTESIAN_POINT('', (5., 0., -76.));
#316 = CARTESIAN_POINT('', (0., 0., -76.));
#317 = TRIMMED_CURVE('cutting part line', #318, (#322), (#323), .T., .CARTESIAN.);
#318 = LINE('', #319, #320);
#319 = CARTESIAN_POINT('', (0., 0., -76.));
#320 = VECTOR('', #321, 14.0000000000001);
#321 = DIRECTION('', (0., 0., -14.0000000000001));
#322 = CARTESIAN_POINT('', (0., 0., -76.));
#323 = CARTESIAN_POINT('', (0., 0., -90.0000000000001));
#324 = COMPOSITE_CURVE('cutting part line', (#325, #326, #327, #328, #329), .U.);
#325 = COMPOSITE_CURVE_SEGMENT(.CONTINUOUS., .T., #289);
#326 = COMPOSITE_CURVE_SEGMENT(.CONTINUOUS., .T., #296);
#327 = COMPOSITE_CURVE_SEGMENT(.CONTINUOUS., .T., #303);
#328 = COMPOSITE_CURVE_SEGMENT(.CONTINUOUS., .T., #310);
#329 = COMPOSITE_CURVE_SEGMENT(.CONTINUOUS., .T., #317);
#330 = GEOMETRIC_SET('', (#324, #373));
#331 = PRESENTATION_STYLE_ASSIGNMENT((#332));
#332 = CURVE_STYLE('', #334, POSITIVE_LENGTH_MEASURE(1.E-6), #333);
#333 = COLOUR_RGB('', 0., 0., 1.);
#334 = DRAUGHTING_PRE_DEFINED_CURVE_FONT('continuous');
#335 = STYLED_ITEM('', (#331), #324);
#336 = PRESENTATION_STYLE_ASSIGNMENT((#337));
#337 = CURVE_STYLE('', #339, POSITIVE_LENGTH_MEASURE(1.E-6), #338);
#338 = COLOUR_RGB('', 0., 0., 1.);
#339 = DRAUGHTING_PRE_DEFINED_CURVE_FONT('continuous');
#340 = OVER_RIDING_STYLED_ITEM('', (#336), #289, #335);
#341 = PRESENTATION_STYLE_ASSIGNMENT((#342));
#342 = CURVE_STYLE('', #344, POSITIVE_LENGTH_MEASURE(1.E-6), #343);
#343 = COLOUR_RGB('', 0., 0., 1.);
#344 = DRAUGHTING_PRE_DEFINED_CURVE_FONT('continuous');
#345 = OVER_RIDING_STYLED_ITEM('', (#341), #296, #335);
#346 = PRESENTATION_STYLE_ASSIGNMENT((#347));
#347 = CURVE_STYLE('', #349, POSITIVE_LENGTH_MEASURE(1.E-6), #348);
#348 = COLOUR_RGB('', 0., 0., 1.);
#349 = DRAUGHTING_PRE_DEFINED_CURVE_FONT('continuous');
#350 = OVER_RIDING_STYLED_ITEM('', (#346), #303, #335);
#351 = PRESENTATION_STYLE_ASSIGNMENT((#352));
#352 = CURVE_STYLE('', #354, POSITIVE_LENGTH_MEASURE(1.E-6), #353);
#353 = COLOUR_RGB('', 0., 0., 1.);
#354 = DRAUGHTING_PRE_DEFINED_CURVE_FONT('continuous');
#355 = OVER_RIDING_STYLED_ITEM('', (#351), #310, #335);
#356 = PRESENTATION_STYLE_ASSIGNMENT((#357));
#357 = CURVE_STYLE('', #359, POSITIVE_LENGTH_MEASURE(1.E-6), #358);
#358 = COLOUR_RGB('', 0., 0., 1.);
#359 = DRAUGHTING_PRE_DEFINED_CURVE_FONT('continuous');
#360 = OVER_RIDING_STYLED_ITEM('', (#356), #317, #335);
#361 = AXIS2_PLACEMENT_3D('MCS', #362, #363, #364);
#362 = CARTESIAN_POINT('', (0., 0., -40.));
#363 = DIRECTION('', (0., 0., 1.));
#364 = DIRECTION('', (1., 0., 0.));
#365 = AXIS2_PLACEMENT_3D('PCS', #366, #367, #368);
#366 = CARTESIAN_POINT('', (0., 0., 0.));
#367 = DIRECTION('', (0., 0., 1.));
#368 = DIRECTION('', (1., 0., 0.));
#369 = AXIS2_PLACEMENT_3D('CIP', #370, #371, #372);
#370 = CARTESIAN_POINT('', (0., 0., -90.0000000000002));
#371 = DIRECTION('', (0., 0., 1.));
#372 = DIRECTION('', (1., 0., 0.));
#373 = CARTESIAN_POINT('CRP', (5., 0., -90.0000000000001));
#374 = (
   GEOMETRIC_REPRESENTATION_CONTEXT (3)
   GLOBAL_UNCERTAINTY_ASSIGNED_CONTEXT ((#376))
   GLOBAL_UNIT_ASSIGNED_CONTEXT ((#375, #377, #378))
   REPRESENTATION_CONTEXT ('', '3D')
);
#375 = (
   LENGTH_UNIT ()
   NAMED_UNIT (*)
   SI_UNIT (.MILLI., .METRE.)
);
#376 = UNCERTAINTY_MEASURE_WITH_UNIT(LENGTH_MEASURE(1.E-6), #375, 'DISTANCE_ACCURACY_VALUE', '');
#377 = (
   NAMED_UNIT (*)
   SI_UNIT ($, .STERADIAN.)
   SOLID_ANGLE_UNIT ()
);
#378 = (
   NAMED_UNIT (*)
   PLANE_ANGLE_UNIT ()
   SI_UNIT ($, .RADIAN.)
);
#379 = SHAPE_REPRESENTATION('', (), #374);
#380 = PRODUCT_DEFINITION_SHAPE('', '', #381);
#381 = PRODUCT_DEFINITION('', '', #384, #388);
#382 = APPLICATION_CONTEXT('configuration controlled 3D designs of mechanical parts and assemblies');
#383 = APPLICATION_PROTOCOL_DEFINITION('International Standard', 'automotive_design', 2002, #382);
#384 = PRODUCT_DEFINITION_FORMATION_WITH_SPECIFIED_SOURCE('', '', #385, .NOT_KNOWN.);
#385 = PRODUCT('product-name', '2P120-1000-NC       H10F', '', (#386));
#386 = PRODUCT_CONTEXT('', #382, 'mechanical');
#387 = PRODUCT_RELATED_PRODUCT_CATEGORY('detail', '', (#385));
#388 = PRODUCT_DEFINITION_CONTEXT('part definition', #382, 'design');
#389 = SHAPE_DEFINITION_REPRESENTATION(#380, #379);
#390 = CONSTRUCTIVE_GEOMETRY_REPRESENTATION('supplemental geometry', (#361, #365, #369), #374);
#391 = CONSTRUCTIVE_GEOMETRY_REPRESENTATION_RELATIONSHIP('', '', #379, #390);
#392 = SHAPE_REPRESENTATION_RELATIONSHIP('', '', #379, #393);
#393 = SHAPE_REPRESENTATION('', (#330), #374);
#394 = SHAPE_REPRESENTATION_RELATIONSHIP('', '', #379, #395);
#395 = ADVANCED_BREP_SHAPE_REPRESENTATION('', (#1, #175), #374);
ENDSEC;
END-ISO-10303-21;
