ISO-10303-21;
HEADER;
FILE_DESCRIPTION(('STEP'), '1');
FILE_NAME('C:\\Users\\ds2002\\OneDrive - Sandvik\\HomeShare\\Documents\\Batchrepair\\CorSRT2\\NEW_MILSQ_SLD\\Output\\MOD000000000000000020082305200000.stp', '2019-01-02T12:10:06', (''), (''), 'Express v3.0.0.0', 'Express Tool', 'Unknown');
FILE_SCHEMA(('AUTOMOTIVE_DESIGN'));
ENDSEC;

DATA;
#1 = MANIFOLD_SOLID_BREP('NOCUT', #2);
#2 = CLOSED_SHELL('', (#3, #50, #70, #109, #148, #157));
#3 = ADVANCED_FACE('', (#4), #31, .T.);
#4 = FACE_OUTER_BOUND('', #5, .T.);
#5 = EDGE_LOOP('', (#6, #16, #23, #24));
#6 = ORIENTED_EDGE('', *, *, #7, .F.);
#7 = EDGE_CURVE('', #8, #10, #12, .T.);
#8 = VERTEX_POINT('', #9);
#9 = CARTESIAN_POINT('', (-2.85, 2.4401087473011E-15, -37.));
#10 = VERTEX_POINT('', #11);
#11 = CARTESIAN_POINT('', (-2.85, 3.54229086653372E-15, -55.));
#12 = LINE('', #13, #14);
#13 = CARTESIAN_POINT('', (-2.85, 2.4401087473011E-15, -37.));
#14 = VECTOR('', #15, 18.);
#15 = DIRECTION('', (0., 1.10218211923262E-15, -18.));
#16 = ORIENTED_EDGE('', *, *, #17, .T.);
#17 = EDGE_CURVE('', #8, #8, #18, .T.);
#18 = CIRCLE('', #19, 2.85);
#19 = AXIS2_PLACEMENT_3D('', #20, #21, #22);
#20 = CARTESIAN_POINT('', (-9.71445146547012E-17, 9.43689570931383E-16, -37.));
#21 = DIRECTION('', (4.45537548984931E-30, 8.48547007856126E-15, -1.));
#22 = DIRECTION('', (-1., 5.25059360129725E-16, 0.));
#23 = ORIENTED_EDGE('', *, *, #7, .T.);
#24 = ORIENTED_EDGE('', *, *, #25, .F.);
#25 = EDGE_CURVE('', #10, #10, #26, .T.);
#26 = CIRCLE('', #27, 2.85);
#27 = AXIS2_PLACEMENT_3D('', #28, #29, #30);
#28 = CARTESIAN_POINT('', (1.346145417358E-15, 1.66533453693773E-15, -55.));
#29 = DIRECTION('', (2.49313240617578E-15, -8.11094897403706E-15, -1.));
#30 = DIRECTION('', (-1., 6.58581168279293E-16, -2.49313240617579E-15));
#31 = (
   BOUNDED_SURFACE ()
   B_SPLINE_SURFACE (2, 1, ((#32, #33), (#34, #35), (#36, #37), (#38, #39), (#40, #41), (#42, #43), (#44, #45), (#46, #47), (#48, #49)), .UNSPECIFIED., .T., .F., .U.)
   B_SPLINE_SURFACE_WITH_KNOTS ((3, 2, 2, 2, 3), (2, 2), (0., 4.47676953136545, 8.9535390627309, 13.4303085940964, 17.9070781254618), (0., 1.), .UNSPECIFIED.)
   GEOMETRIC_REPRESENTATION_ITEM ()
   RATIONAL_B_SPLINE_SURFACE (((1., 1.), (0.707106781186548, 0.707106781186548), (1., 1.), (0.707106781186548, 0.707106781186548), (1., 1.), (0.707106781186548, 0.707106781186548), (1., 1.), (0.707106781186548, 0.707106781186548), (1., 1.)))
   REPRESENTATION_ITEM ('')
   SURFACE ()
);
#32 = CARTESIAN_POINT('', (-2.85, 2.4401087473011E-15, -37.));
#33 = CARTESIAN_POINT('', (-2.85, 3.55033177192626E-15, -55.));
#34 = CARTESIAN_POINT('', (-2.85, 2.85, -37.));
#35 = CARTESIAN_POINT('', (-2.85, 2.85, -55.));
#36 = CARTESIAN_POINT('', (2.65417463704141E-15, 2.85, -37.));
#37 = CARTESIAN_POINT('', (2.65417463704141E-15, 2.85, -55.));
#38 = CARTESIAN_POINT('', (2.85, 2.85, -37.));
#39 = CARTESIAN_POINT('', (2.85, 2.85, -55.));
#40 = CARTESIAN_POINT('', (2.85, -9.80861384918947E-16, -37.));
#41 = CARTESIAN_POINT('', (2.85, 1.29361639706209E-16, -55.));
#42 = CARTESIAN_POINT('', (2.85, -2.85, -37.));
#43 = CARTESIAN_POINT('', (2.85, -2.85, -55.));
#44 = CARTESIAN_POINT('', (-4.17771157421645E-16, -2.85, -37.));
#45 = CARTESIAN_POINT('', (-4.17771157421644E-16, -2.85, -55.));
#46 = CARTESIAN_POINT('', (-2.85, -2.85, -37.));
#47 = CARTESIAN_POINT('', (-2.85, -2.85, -55.));
#48 = CARTESIAN_POINT('', (-2.85, 2.4401087473011E-15, -37.));
#49 = CARTESIAN_POINT('', (-2.85, 3.55033177192626E-15, -55.));
#50 = ADVANCED_FACE('', (#51, #62), #65, .T.);
#51 = FACE_OUTER_BOUND('', #52, .T.);
#52 = EDGE_LOOP('', (#53));
#53 = ORIENTED_EDGE('', *, *, #54, .T.);
#54 = EDGE_CURVE('', #55, #55, #57, .T.);
#55 = VERTEX_POINT('', #56);
#56 = CARTESIAN_POINT('', (-3., 2.44929359829471E-15, -37.));
#57 = CIRCLE('', #58, 3.);
#58 = AXIS2_PLACEMENT_3D('', #59, #60, #61);
#59 = CARTESIAN_POINT('', (6.66133814775094E-16, 2.05391259555654E-15, -37.));
#60 = DIRECTION('', (2.368475785867E-15, -7.70540152533533E-15, -1.));
#61 = DIRECTION('', (-1., 1.3179366757939E-16, -2.368475785867E-15));
#62 = FACE_BOUND('', #63, .T.);
#63 = EDGE_LOOP('', (#64));
#64 = ORIENTED_EDGE('', *, *, #17, .F.);
#65 = B_SPLINE_SURFACE_WITH_KNOTS('', 1, 1, ((#66, #67), (#68, #69)), .UNSPECIFIED., .F., .F., .U., (2, 2), (2, 2), (0.0454545454545453, 0.954545454545454), (0.0454545454545451, 0.954545454545455), .UNSPECIFIED.);
#66 = CARTESIAN_POINT('', (3., -3., -37.));
#67 = CARTESIAN_POINT('', (3., 3., -37.));
#68 = CARTESIAN_POINT('', (-3., -3., -37.));
#69 = CARTESIAN_POINT('', (-3., 3., -37.));
#70 = ADVANCED_FACE('', (#71), #90, .T.);
#71 = FACE_OUTER_BOUND('', #72, .T.);
#72 = EDGE_LOOP('', (#73, #81, #88, #89));
#73 = ORIENTED_EDGE('', *, *, #74, .T.);
#74 = EDGE_CURVE('', #55, #75, #77, .T.);
#75 = VERTEX_POINT('', #76);
#76 = CARTESIAN_POINT('', (-3., 2.02066721859313E-16, -0.299999999999997));
#77 = LINE('', #78, #79);
#78 = CARTESIAN_POINT('', (-3., 2.44929359829471E-15, -37.));
#79 = VECTOR('', #80, 36.7);
#80 = DIRECTION('', (0., -2.2472268764354E-15, 36.7));
#81 = ORIENTED_EDGE('', *, *, #82, .T.);
#82 = EDGE_CURVE('', #75, #75, #83, .T.);
#83 = CIRCLE('', #84, 3.);
#84 = AXIS2_PLACEMENT_3D('', #85, #86, #87);
#85 = CARTESIAN_POINT('', (1.346145417358E-15, -1.88737914186277E-15, -0.299999999999997));
#86 = DIRECTION('', (-1.85037170770859E-17, 6.01984494166833E-17, -1.));
#87 = DIRECTION('', (-1., 6.96481954574026E-16, 1.85037170770859E-17));
#88 = ORIENTED_EDGE('', *, *, #74, .F.);
#89 = ORIENTED_EDGE('', *, *, #54, .F.);
#90 = (
   BOUNDED_SURFACE ()
   B_SPLINE_SURFACE (1, 2, ((#91, #92, #93, #94, #95, #96, #97, #98, #99), (#100, #101, #102, #103, #104, #105, #106, #107, #108)), .UNSPECIFIED., .F., .T., .U.)
   B_SPLINE_SURFACE_WITH_KNOTS ((2, 2), (3, 2, 2, 2, 3), (0., 1.), (0., 4.7123889803847, 9.4247779607694, 14.1371669411541, 18.8495559215388), .UNSPECIFIED.)
   GEOMETRIC_REPRESENTATION_ITEM ()
   RATIONAL_B_SPLINE_SURFACE (((1., 0.707106781186548, 1., 0.707106781186548, 1., 0.707106781186548, 1., 0.707106781186548, 1.), (1., 0.707106781186548, 1., 0.707106781186548, 1., 0.707106781186548, 1., 0.707106781186548, 1.)))
   REPRESENTATION_ITEM ('')
   SURFACE ()
);
#91 = CARTESIAN_POINT('', (-3., 2.20046816618459E-15, -37.));
#92 = CARTESIAN_POINT('', (-3., 3., -37.));
#93 = CARTESIAN_POINT('', (2.57280784447893E-15, 3., -37.));
#94 = CARTESIAN_POINT('', (3., 3., -37.));
#95 = CARTESIAN_POINT('', (3., -1.61102952151536E-15, -37.));
#96 = CARTESIAN_POINT('', (3., -3., -37.));
#97 = CARTESIAN_POINT('', (-8.7129580347682E-16, -3., -37.));
#98 = CARTESIAN_POINT('', (-3., -3., -37.));
#99 = CARTESIAN_POINT('', (-3., 2.20046816618459E-15, -37.));
#100 = CARTESIAN_POINT('', (-3., 2.02066721859312E-16, -0.299999999999997));
#101 = CARTESIAN_POINT('', (-3., 3., -0.299999999999997));
#102 = CARTESIAN_POINT('', (3.25189426120798E-15, 3., -0.299999999999997));
#103 = CARTESIAN_POINT('', (3., 3., -0.299999999999997));
#104 = CARTESIAN_POINT('', (3., -3.60943096584064E-15, -0.299999999999997));
#105 = CARTESIAN_POINT('', (3., -3., -0.299999999999997));
#106 = CARTESIAN_POINT('', (-1.92209386747767E-16, -3., -0.299999999999997));
#107 = CARTESIAN_POINT('', (-3., -3., -0.299999999999997));
#108 = CARTESIAN_POINT('', (-3., 2.02066721859312E-16, -0.299999999999997));
#109 = ADVANCED_FACE('', (#110), #129, .T.);
#110 = FACE_OUTER_BOUND('', #111, .T.);
#111 = EDGE_LOOP('', (#112, #120, #127, #128));
#112 = ORIENTED_EDGE('', *, *, #113, .T.);
#113 = EDGE_CURVE('', #75, #114, #116, .T.);
#114 = VERTEX_POINT('', #115);
#115 = CARTESIAN_POINT('', (-2.7, 1.65327317884893E-16, 0.));
#116 = LINE('', #117, #118);
#117 = CARTESIAN_POINT('', (-3., 2.02066721859313E-16, -0.299999999999997));
#118 = VECTOR('', #119, 0.424264068711926);
#119 = DIRECTION('', (0.3, -3.673940397442E-17, 0.299999999999997));
#120 = ORIENTED_EDGE('', *, *, #121, .T.);
#121 = EDGE_CURVE('', #114, #114, #122, .T.);
#122 = CIRCLE('', #123, 2.7);
#123 = AXIS2_PLACEMENT_3D('', #124, #125, #126);
#124 = CARTESIAN_POINT('', (9.22872889219661E-16, -1.27675647831893E-15, -8.0118685686509E-32));
#125 = DIRECTION('', (3.03091835913145E-33, 6.12323399573678E-17, -1.));
#126 = DIRECTION('', (-1., 5.34105109705119E-16, 2.96735872912996E-32));
#127 = ORIENTED_EDGE('', *, *, #113, .F.);
#128 = ORIENTED_EDGE('', *, *, #82, .F.);
#129 = (
   BOUNDED_SURFACE ()
   B_SPLINE_SURFACE (1, 2, ((#130, #131, #132, #133, #134, #135, #136, #137, #138), (#139, #140, #141, #142, #143, #144, #145, #146, #147)), .UNSPECIFIED., .F., .T., .U.)
   B_SPLINE_SURFACE_WITH_KNOTS ((2, 2), (3, 2, 2, 2, 3), (0., 1.), (0., 0.25, 0.5, 0.75, 1.), .UNSPECIFIED.)
   GEOMETRIC_REPRESENTATION_ITEM ()
   RATIONAL_B_SPLINE_SURFACE (((1., 0.707106781186548, 1., 0.707106781186548, 1., 0.707106781186548, 1., 0.707106781186548, 1.), (1., 0.707106781186548, 1., 0.707106781186548, 1., 0.707106781186548, 1., 0.707106781186548, 1.)))
   REPRESENTATION_ITEM ('')
   SURFACE ()
);
#130 = CARTESIAN_POINT('', (-3., 1.49129302665284E-15, -0.299999999999997));
#131 = CARTESIAN_POINT('', (-3., 3., -0.299999999999985));
#132 = CARTESIAN_POINT('', (2.34149119846292E-15, 3., -0.299999999999985));
#133 = CARTESIAN_POINT('', (3., 3., -0.299999999999985));
#134 = CARTESIAN_POINT('', (3., -1.34594359183367E-15, -0.299999999999997));
#135 = CARTESIAN_POINT('', (3., -3., -0.300000000000009));
#136 = CARTESIAN_POINT('', (-1.28351380279387E-16, -3., -0.300000000000009));
#137 = CARTESIAN_POINT('', (-3., -3., -0.300000000000009));
#138 = CARTESIAN_POINT('', (-3., 1.49129302665284E-15, -0.299999999999997));
#139 = CARTESIAN_POINT('', (-2.7, 1.65327317884893E-16, -2.18952885050753E-47));
#140 = CARTESIAN_POINT('', (-2.7, 2.7, 1.04916075827078E-14));
#141 = CARTESIAN_POINT('', (2.19962936753859E-15, 2.7, 1.04916075827078E-14));
#142 = CARTESIAN_POINT('', (2.7, 2.7, 1.04916075827078E-14));
#143 = CARTESIAN_POINT('', (2.7, -2.38818563875297E-15, 1.12461399303431E-30));
#144 = CARTESIAN_POINT('', (2.7, -2.7, -1.04916075827078E-14));
#145 = CARTESIAN_POINT('', (-2.32289533294833E-17, -2.7, -1.04916075827078E-14));
#146 = CARTESIAN_POINT('', (-2.7, -2.7, -1.04916075827078E-14));
#147 = CARTESIAN_POINT('', (-2.7, 1.65327317884893E-16, -2.18952885050753E-47));
#148 = ADVANCED_FACE('', (#149), #152, .T.);
#149 = FACE_OUTER_BOUND('', #150, .T.);
#150 = EDGE_LOOP('', (#151));
#151 = ORIENTED_EDGE('', *, *, #121, .F.);
#152 = B_SPLINE_SURFACE_WITH_KNOTS('', 1, 1, ((#153, #154), (#155, #156)), .UNSPECIFIED., .F., .F., .U., (2, 2), (2, 2), (0.0454545454545454, 0.954545454545454), (0.0454545454545454, 0.954545454545454), .UNSPECIFIED.);
#153 = CARTESIAN_POINT('', (2.7, -2.7, -1.65327317884893E-16));
#154 = CARTESIAN_POINT('', (-2.7, -2.7, -1.65327317884893E-16));
#155 = CARTESIAN_POINT('', (2.7, 2.7, 1.65327317884893E-16));
#156 = CARTESIAN_POINT('', (-2.7, 2.7, 1.65327317884893E-16));
#157 = ADVANCED_FACE('', (#158), #161, .T.);
#158 = FACE_OUTER_BOUND('', #159, .T.);
#159 = EDGE_LOOP('', (#160));
#160 = ORIENTED_EDGE('', *, *, #25, .T.);
#161 = B_SPLINE_SURFACE_WITH_KNOTS('', 1, 1, ((#162, #163), (#164, #165)), .UNSPECIFIED., .F., .F., .U., (2, 2), (2, 2), (0.494103296380706, 0.537580554942012), (0.462419445057988, 0.505896703619293), .UNSPECIFIED.);
#162 = CARTESIAN_POINT('', (-2.85000000000001, 2.85000000000002, -55.));
#163 = CARTESIAN_POINT('', (-2.85000000000001, -2.84999999999998, -55.));
#164 = CARTESIAN_POINT('', (2.84999999999998, 2.85000000000002, -55.));
#165 = CARTESIAN_POINT('', (2.84999999999998, -2.84999999999998, -55.));
#166 = DRAUGHTING_MODEL('', (#174, #249, #288, #293, #298, #303, #308), #322);
#167 = PRESENTATION_STYLE_ASSIGNMENT((#168));
#168 = SURFACE_STYLE_USAGE(.POSITIVE., #169);
#169 = SURFACE_SIDE_STYLE('', (#170));
#170 = SURFACE_STYLE_FILL_AREA(#171);
#171 = FILL_AREA_STYLE('', (#172));
#172 = FILL_AREA_STYLE_COLOUR('', #173);
#173 = COLOUR_RGB('', 0.50196078431373, 0.50196078431373, 0.50196078431373);
#174 = STYLED_ITEM('', (#167), #1);
#175 = MANIFOLD_SOLID_BREP('CUT', #176);
#176 = CLOSED_SHELL('', (#177, #194, #233));
#177 = ADVANCED_FACE('', (#178), #189, .T.);
#178 = FACE_OUTER_BOUND('', #179, .T.);
#179 = EDGE_LOOP('', (#180));
#180 = ORIENTED_EDGE('', *, *, #181, .F.);
#181 = EDGE_CURVE('', #182, #182, #184, .T.);
#182 = VERTEX_POINT('', #183);
#183 = CARTESIAN_POINT('', (-3., 3.55147571752732E-15, -55.));
#184 = CIRCLE('', #185, 3.);
#185 = AXIS2_PLACEMENT_3D('', #186, #187, #188);
#186 = CARTESIAN_POINT('', (8.18789480661053E-16, 1.83186799063151E-15, -55.));
#187 = DIRECTION('', (0., 0., -1.));
#188 = DIRECTION('', (-1., 5.73202575631937E-16, 0.));
#189 = B_SPLINE_SURFACE_WITH_KNOTS('', 1, 1, ((#190, #191), (#192, #193)), .UNSPECIFIED., .F., .F., .U., (2, 2), (2, 2), (0.0454545454545454, 0.954545454545454), (0.0454545454545455, 0.954545454545454), .UNSPECIFIED.);
#190 = CARTESIAN_POINT('', (3., -3., -55.));
#191 = CARTESIAN_POINT('', (-3., -3., -55.));
#192 = CARTESIAN_POINT('', (3., 3., -55.));
#193 = CARTESIAN_POINT('', (-3., 3., -55.));
#194 = ADVANCED_FACE('', (#195), #214, .T.);
#195 = FACE_OUTER_BOUND('', #196, .T.);
#196 = EDGE_LOOP('', (#197, #205, #206, #207));
#197 = ORIENTED_EDGE('', *, *, #198, .F.);
#198 = EDGE_CURVE('', #182, #199, #201, .T.);
#199 = VERTEX_POINT('', #200);
#200 = CARTESIAN_POINT('', (-3., 4.163799117101E-15, -65.));
#201 = LINE('', #202, #203);
#202 = CARTESIAN_POINT('', (-3., 3.55147571752732E-15, -55.));
#203 = VECTOR('', #204, 10.);
#204 = DIRECTION('', (0., 6.1232339957368E-16, -10.));
#205 = ORIENTED_EDGE('', *, *, #181, .T.);
#206 = ORIENTED_EDGE('', *, *, #198, .T.);
#207 = ORIENTED_EDGE('', *, *, #208, .F.);
#208 = EDGE_CURVE('', #199, #199, #209, .T.);
#209 = CIRCLE('', #210, 3.);
#210 = AXIS2_PLACEMENT_3D('', #211, #212, #213);
#211 = CARTESIAN_POINT('', (5.55111512312578E-17, 3.33066907387547E-16, -65.));
#212 = DIRECTION('', (0., 0., -1.));
#213 = DIRECTION('', (-1., 1.27691073657115E-15, 0.));
#214 = (
   BOUNDED_SURFACE ()
   B_SPLINE_SURFACE (2, 1, ((#215, #216), (#217, #218), (#219, #220), (#221, #222), (#223, #224), (#225, #226), (#227, #228), (#229, #230), (#231, #232)), .UNSPECIFIED., .T., .F., .U.)
   B_SPLINE_SURFACE_WITH_KNOTS ((3, 2, 2, 2, 3), (2, 2), (0., 4.7123889803847, 9.4247779607694, 14.1371669411541, 18.8495559215388), (0., 1.), .UNSPECIFIED.)
   GEOMETRIC_REPRESENTATION_ITEM ()
   RATIONAL_B_SPLINE_SURFACE (((1., 1.), (0.707106781186548, 0.707106781186548), (1., 1.), (0.707106781186548, 0.707106781186548), (1., 1.), (0.707106781186548, 0.707106781186548), (1., 1.), (0.707106781186548, 0.707106781186548), (1., 1.)))
   REPRESENTATION_ITEM ('')
   SURFACE ()
);
#215 = CARTESIAN_POINT('', (-3., 3.55147571752732E-15, -55.));
#216 = CARTESIAN_POINT('', (-3., 4.05107607860864E-15, -65.));
#217 = CARTESIAN_POINT('', (-3., 3., -55.));
#218 = CARTESIAN_POINT('', (-3., 3., -65.));
#219 = CARTESIAN_POINT('', (3.61757887819588E-15, 3., -55.));
#220 = CARTESIAN_POINT('', (3.61757887819588E-15, 3., -65.));
#221 = CARTESIAN_POINT('', (3., 3., -55.));
#222 = CARTESIAN_POINT('', (3., 3., -65.));
#223 = CARTESIAN_POINT('', (3., -3.51714858517066E-15, -55.));
#224 = CARTESIAN_POINT('', (3., -3.01754822408934E-15, -65.));
#225 = CARTESIAN_POINT('', (3., -3., -55.));
#226 = CARTESIAN_POINT('', (3., -3., -65.));
#227 = CARTESIAN_POINT('', (-3.0836513847579E-15, -3., -55.));
#228 = CARTESIAN_POINT('', (-3.0836513847579E-15, -3., -65.));
#229 = CARTESIAN_POINT('', (-3., -3., -55.));
#230 = CARTESIAN_POINT('', (-3., -3., -65.));
#231 = CARTESIAN_POINT('', (-3., 3.55147571752732E-15, -55.));
#232 = CARTESIAN_POINT('', (-3., 4.05107607860864E-15, -65.));
#233 = ADVANCED_FACE('', (#234), #237, .T.);
#234 = FACE_OUTER_BOUND('', #235, .T.);
#235 = EDGE_LOOP('', (#236));
#236 = ORIENTED_EDGE('', *, *, #208, .T.);
#237 = B_SPLINE_SURFACE_WITH_KNOTS('', 1, 1, ((#238, #239), (#240, #241)), .UNSPECIFIED., .F., .F., .U., (2, 2), (2, 2), (0.0454545454545455, 0.954545454545455), (0.0454545454545454, 0.954545454545455), .UNSPECIFIED.);
#238 = CARTESIAN_POINT('', (3., -3., -65.));
#239 = CARTESIAN_POINT('', (3., 3., -65.));
#240 = CARTESIAN_POINT('', (-3., -3., -65.));
#241 = CARTESIAN_POINT('', (-3., 3., -65.));
#242 = PRESENTATION_STYLE_ASSIGNMENT((#243));
#243 = SURFACE_STYLE_USAGE(.POSITIVE., #244);
#244 = SURFACE_SIDE_STYLE('', (#245));
#245 = SURFACE_STYLE_FILL_AREA(#246);
#246 = FILL_AREA_STYLE('', (#247));
#247 = FILL_AREA_STYLE_COLOUR('', #248);
#248 = COLOUR_RGB('', 0.8, 0.8, 0.8);
#249 = STYLED_ITEM('', (#242), #175);
#250 = TRIMMED_CURVE('cutting part line', #251, (#255), (#256), .T., .CARTESIAN.);
#251 = LINE('', #252, #253);
#252 = CARTESIAN_POINT('', (2.42861286636753E-16, 0., -65.));
#253 = VECTOR('', #254, 3.);
#254 = DIRECTION('', (3., 0., 0.));
#255 = CARTESIAN_POINT('', (2.42861286636753E-16, 0., -65.));
#256 = CARTESIAN_POINT('', (3., 0., -65.));
#257 = TRIMMED_CURVE('cutting part line', #258, (#262), (#263), .T., .CARTESIAN.);
#258 = LINE('', #259, #260);
#259 = CARTESIAN_POINT('', (3., 4.99524269526459E-16, -65.));
#260 = VECTOR('', #261, 10.);
#261 = DIRECTION('', (0., -4.99524269526459E-16, 10.));
#262 = CARTESIAN_POINT('', (3., 4.99524269526459E-16, -65.));
#263 = CARTESIAN_POINT('', (3., 0., -55.));
#264 = TRIMMED_CURVE('cutting part line', #265, (#269), (#270), .T., .CARTESIAN.);
#265 = LINE('', #266, #267);
#266 = CARTESIAN_POINT('', (3., 0., -55.));
#267 = VECTOR('', #268, 3.);
#268 = DIRECTION('', (-3., 0., 0.));
#269 = CARTESIAN_POINT('', (3., 0., -55.));
#270 = CARTESIAN_POINT('', (6.93889390390723E-18, 0., -55.));
#271 = TRIMMED_CURVE('cutting part line', #272, (#276), (#277), .T., .CARTESIAN.);
#272 = LINE('', #273, #274);
#273 = CARTESIAN_POINT('', (0., 0., -55.));
#274 = VECTOR('', #275, 10.);
#275 = DIRECTION('', (0., 0., -10.));
#276 = CARTESIAN_POINT('', (0., 0., -55.));
#277 = CARTESIAN_POINT('', (0., 0., -65.));
#278 = COMPOSITE_CURVE('cutting part line', (#279, #280, #281, #282), .U.);
#279 = COMPOSITE_CURVE_SEGMENT(.CONTINUOUS., .T., #250);
#280 = COMPOSITE_CURVE_SEGMENT(.CONTINUOUS., .T., #257);
#281 = COMPOSITE_CURVE_SEGMENT(.CONTINUOUS., .T., #264);
#282 = COMPOSITE_CURVE_SEGMENT(.CONTINUOUS., .T., #271);
#283 = GEOMETRIC_SET('', (#278, #321));
#284 = PRESENTATION_STYLE_ASSIGNMENT((#285));
#285 = CURVE_STYLE('', #287, POSITIVE_LENGTH_MEASURE(1.E-6), #286);
#286 = COLOUR_RGB('', 0., 0., 1.);
#287 = DRAUGHTING_PRE_DEFINED_CURVE_FONT('continuous');
#288 = STYLED_ITEM('', (#284), #278);
#289 = PRESENTATION_STYLE_ASSIGNMENT((#290));
#290 = CURVE_STYLE('', #292, POSITIVE_LENGTH_MEASURE(1.E-6), #291);
#291 = COLOUR_RGB('', 0., 0., 1.);
#292 = DRAUGHTING_PRE_DEFINED_CURVE_FONT('continuous');
#293 = OVER_RIDING_STYLED_ITEM('', (#289), #250, #288);
#294 = PRESENTATION_STYLE_ASSIGNMENT((#295));
#295 = CURVE_STYLE('', #297, POSITIVE_LENGTH_MEASURE(1.E-6), #296);
#296 = COLOUR_RGB('', 0., 0., 1.);
#297 = DRAUGHTING_PRE_DEFINED_CURVE_FONT('continuous');
#298 = OVER_RIDING_STYLED_ITEM('', (#294), #257, #288);
#299 = PRESENTATION_STYLE_ASSIGNMENT((#300));
#300 = CURVE_STYLE('', #302, POSITIVE_LENGTH_MEASURE(1.E-6), #301);
#301 = COLOUR_RGB('', 0., 0., 1.);
#302 = DRAUGHTING_PRE_DEFINED_CURVE_FONT('continuous');
#303 = OVER_RIDING_STYLED_ITEM('', (#299), #264, #288);
#304 = PRESENTATION_STYLE_ASSIGNMENT((#305));
#305 = CURVE_STYLE('', #307, POSITIVE_LENGTH_MEASURE(1.E-6), #306);
#306 = COLOUR_RGB('', 0., 0., 1.);
#307 = DRAUGHTING_PRE_DEFINED_CURVE_FONT('continuous');
#308 = OVER_RIDING_STYLED_ITEM('', (#304), #271, #288);
#309 = AXIS2_PLACEMENT_3D('MCS', #310, #311, #312);
#310 = CARTESIAN_POINT('', (0., 0., -36.));
#311 = DIRECTION('', (0., 0., 1.));
#312 = DIRECTION('', (1., 0., 0.));
#313 = AXIS2_PLACEMENT_3D('PCS', #314, #315, #316);
#314 = CARTESIAN_POINT('', (0., 0., 0.));
#315 = DIRECTION('', (0., 0., 1.));
#316 = DIRECTION('', (1., 0., 0.));
#317 = AXIS2_PLACEMENT_3D('CIP', #318, #319, #320);
#318 = CARTESIAN_POINT('', (0., 0., -65.));
#319 = DIRECTION('', (0., 0., 1.));
#320 = DIRECTION('', (1., 0., 0.));
#321 = CARTESIAN_POINT('CRP', (3., 0., -65.));
#322 = (
   GEOMETRIC_REPRESENTATION_CONTEXT (3)
   GLOBAL_UNCERTAINTY_ASSIGNED_CONTEXT ((#324))
   GLOBAL_UNIT_ASSIGNED_CONTEXT ((#323, #325, #326))
   REPRESENTATION_CONTEXT ('', '3D')
);
#323 = (
   LENGTH_UNIT ()
   NAMED_UNIT (*)
   SI_UNIT (.MILLI., .METRE.)
);
#324 = UNCERTAINTY_MEASURE_WITH_UNIT(LENGTH_MEASURE(1.E-6), #323, 'DISTANCE_ACCURACY_VALUE', '');
#325 = (
   NAMED_UNIT (*)
   SI_UNIT ($, .STERADIAN.)
   SOLID_ANGLE_UNIT ()
);
#326 = (
   NAMED_UNIT (*)
   PLANE_ANGLE_UNIT ()
   SI_UNIT ($, .RADIAN.)
);
#327 = SHAPE_REPRESENTATION('', (), #322);
#328 = PRODUCT_DEFINITION_SHAPE('', '', #329);
#329 = PRODUCT_DEFINITION('', '', #332, #336);
#330 = APPLICATION_CONTEXT('configuration controlled 3D designs of mechanical parts and assemblies');
#331 = APPLICATION_PROTOCOL_DEFINITION('International Standard', 'automotive_design', 2002, #330);
#332 = PRODUCT_DEFINITION_FORMATION_WITH_SPECIFIED_SOURCE('', '', #333, .NOT_KNOWN.);
#333 = PRODUCT('product-name', '2P120-0600-NC       H10F', '', (#334));
#334 = PRODUCT_CONTEXT('', #330, 'mechanical');
#335 = PRODUCT_RELATED_PRODUCT_CATEGORY('detail', '', (#333));
#336 = PRODUCT_DEFINITION_CONTEXT('part definition', #330, 'design');
#337 = SHAPE_DEFINITION_REPRESENTATION(#328, #327);
#338 = CONSTRUCTIVE_GEOMETRY_REPRESENTATION('supplemental geometry', (#309, #313, #317), #322);
#339 = CONSTRUCTIVE_GEOMETRY_REPRESENTATION_RELATIONSHIP('', '', #327, #338);
#340 = SHAPE_REPRESENTATION_RELATIONSHIP('', '', #327, #341);
#341 = SHAPE_REPRESENTATION('', (#283), #322);
#342 = SHAPE_REPRESENTATION_RELATIONSHIP('', '', #327, #343);
#343 = ADVANCED_BREP_SHAPE_REPRESENTATION('', (#1, #175), #322);
ENDSEC;
END-ISO-10303-21;
