ISO-10303-21;
HEADER;
FILE_DESCRIPTION(('STEP'), '1');
FILE_NAME('C:\\Users\\ds2002\\OneDrive - Sandvik\\HomeShare\\Documents\\Batchrepair\\CorSRT2\\NEW_MILSQ_SLD\\Output\\MOD000000000000000020082305100000.stp', '2019-01-02T12:10:05', (''), (''), 'Express v3.0.0.0', 'Express Tool', 'Unknown');
FILE_SCHEMA(('AUTOMOTIVE_DESIGN'));
ENDSEC;

DATA;
#1 = MANIFOLD_SOLID_BREP('NOCUT', #2);
#2 = CLOSED_SHELL('', (#3, #50, #89, #128, #167, #176));
#3 = ADVANCED_FACE('', (#4), #31, .T.);
#4 = FACE_OUTER_BOUND('', #5, .T.);
#5 = EDGE_LOOP('', (#6, #16, #23, #24));
#6 = ORIENTED_EDGE('', *, *, #7, .F.);
#7 = EDGE_CURVE('', #8, #10, #12, .T.);
#8 = VERTEX_POINT('', #9);
#9 = CARTESIAN_POINT('', (-2.375, 2.65595274565082E-15, -41.));
#10 = VERTEX_POINT('', #11);
#11 = CARTESIAN_POINT('', (-2.375, 3.14581146530976E-15, -49.));
#12 = LINE('', #13, #14);
#13 = CARTESIAN_POINT('', (-2.375, 2.65595274565082E-15, -41.));
#14 = VECTOR('', #15, 8.);
#15 = DIRECTION('', (0., 4.8985871965894E-16, -8.));
#16 = ORIENTED_EDGE('', *, *, #17, .T.);
#17 = EDGE_CURVE('', #8, #8, #18, .T.);
#18 = CIRCLE('', #19, 2.375);
#19 = AXIS2_PLACEMENT_3D('', #20, #21, #22);
#20 = CARTESIAN_POINT('', (-1.11022302462516E-16, 0., -41.));
#21 = DIRECTION('', (0., 0., -1.));
#22 = DIRECTION('', (-1., 1.11829589290561E-15, 0.));
#23 = ORIENTED_EDGE('', *, *, #7, .T.);
#24 = ORIENTED_EDGE('', *, *, #25, .F.);
#25 = EDGE_CURVE('', #10, #10, #26, .T.);
#26 = CIRCLE('', #27, 2.375);
#27 = AXIS2_PLACEMENT_3D('', #28, #29, #30);
#28 = CARTESIAN_POINT('', (7.14706072102445E-16, 4.44089209850063E-16, -49.));
#29 = DIRECTION('', (0., 0., -1.));
#30 = DIRECTION('', (-1., 1.13756726545671E-15, 0.));
#31 = (
   BOUNDED_SURFACE ()
   B_SPLINE_SURFACE (2, 1, ((#32, #33), (#34, #35), (#36, #37), (#38, #39), (#40, #41), (#42, #43), (#44, #45), (#46, #47), (#48, #49)), .UNSPECIFIED., .T., .F., .U.)
   B_SPLINE_SURFACE_WITH_KNOTS ((3, 2, 2, 2, 3), (2, 2), (0., 3.73064127613788, 7.46128255227575, 11.1919238284136, 14.9225651045515), (0., 1.), .UNSPECIFIED.)
   GEOMETRIC_REPRESENTATION_ITEM ()
   RATIONAL_B_SPLINE_SURFACE (((1., 1.), (0.707106781186548, 0.707106781186548), (1., 1.), (0.707106781186548, 0.707106781186548), (1., 1.), (0.707106781186548, 0.707106781186548), (1., 1.), (0.707106781186548, 0.707106781186548), (1., 1.)))
   REPRESENTATION_ITEM ('')
   SURFACE ()
);
#32 = CARTESIAN_POINT('', (-2.375, 2.65595274565082E-15, -41.));
#33 = CARTESIAN_POINT('', (-2.375, 2.10084123333824E-15, -49.));
#34 = CARTESIAN_POINT('', (-2.375, 2.375, -41.));
#35 = CARTESIAN_POINT('', (-2.375, 2.375, -49.));
#36 = CARTESIAN_POINT('', (2.07337562230592E-15, 2.375, -41.));
#37 = CARTESIAN_POINT('', (2.07337562230592E-15, 2.375, -49.));
#38 = CARTESIAN_POINT('', (2.375, 2.375, -41.));
#39 = CARTESIAN_POINT('', (2.375, 2.375, -49.));
#40 = CARTESIAN_POINT('', (2.375, -3.66697686528042E-16, -41.));
#41 = CARTESIAN_POINT('', (2.375, -9.2180919884062E-16, -49.));
#42 = CARTESIAN_POINT('', (2.375, -2.375, -41.));
#43 = CARTESIAN_POINT('', (2.375, -2.375, -49.));
#44 = CARTESIAN_POINT('', (-6.58421195075449E-16, -2.375, -41.));
#45 = CARTESIAN_POINT('', (-6.58421195075449E-16, -2.375, -49.));
#46 = CARTESIAN_POINT('', (-2.375, -2.375, -41.));
#47 = CARTESIAN_POINT('', (-2.375, -2.375, -49.));
#48 = CARTESIAN_POINT('', (-2.375, 2.65595274565082E-15, -41.));
#49 = CARTESIAN_POINT('', (-2.375, 2.10084123333824E-15, -49.));
#50 = ADVANCED_FACE('', (#51), #70, .T.);
#51 = FACE_OUTER_BOUND('', #52, .T.);
#52 = EDGE_LOOP('', (#53, #61, #68, #69));
#53 = ORIENTED_EDGE('', *, *, #54, .F.);
#54 = EDGE_CURVE('', #55, #8, #57, .T.);
#55 = VERTEX_POINT('', #56);
#56 = CARTESIAN_POINT('', (-3., 2.63299061816681E-15, -40.));
#57 = LINE('', #58, #59);
#58 = CARTESIAN_POINT('', (-3., 2.63299061816681E-15, -40.));
#59 = VECTOR('', #60, 1.17924764150708);
#60 = DIRECTION('', (0.625, 2.29621274840101E-17, -1.));
#61 = ORIENTED_EDGE('', *, *, #62, .T.);
#62 = EDGE_CURVE('', #55, #55, #63, .T.);
#63 = CIRCLE('', #64, 3.);
#64 = AXIS2_PLACEMENT_3D('', #65, #66, #67);
#65 = CARTESIAN_POINT('', (2.08166817117217E-16, 2.22044604925031E-15, -40.));
#66 = DIRECTION('', (-1.10853428861107E-30, -8.06119657463322E-15, -1.));
#67 = DIRECTION('', (-1., 1.37514856305499E-16, 0.));
#68 = ORIENTED_EDGE('', *, *, #54, .T.);
#69 = ORIENTED_EDGE('', *, *, #17, .F.);
#70 = (
   BOUNDED_SURFACE ()
   B_SPLINE_SURFACE (2, 1, ((#71, #72), (#73, #74), (#75, #76), (#77, #78), (#79, #80), (#81, #82), (#83, #84), (#85, #86), (#87, #88)), .UNSPECIFIED., .T., .F., .U.)
   B_SPLINE_SURFACE_WITH_KNOTS ((3, 2, 2, 2, 3), (2, 2), (0., 0.25, 0.5, 0.75, 1.), (0., 1.), .UNSPECIFIED.)
   GEOMETRIC_REPRESENTATION_ITEM ()
   RATIONAL_B_SPLINE_SURFACE (((1., 1.), (0.707106781186548, 0.707106781186548), (1., 1.), (0.707106781186548, 0.707106781186548), (1., 1.), (0.707106781186548, 0.707106781186548), (1., 1.), (0.707106781186548, 0.707106781186548), (1., 1.)))
   REPRESENTATION_ITEM ('')
   SURFACE ()
);
#71 = CARTESIAN_POINT('', (-3., 2.63299061816681E-15, -40.));
#72 = CARTESIAN_POINT('', (-2.375, 3.2659778372556E-16, -41.));
#73 = CARTESIAN_POINT('', (-3., 3., -40.));
#74 = CARTESIAN_POINT('', (-2.375, 2.375, -41.));
#75 = CARTESIAN_POINT('', (4.37014366161611E-16, 3., -40.));
#76 = CARTESIAN_POINT('', (3.89337793444028E-16, 2.375, -41.));
#77 = CARTESIAN_POINT('', (3., 3., -40.));
#78 = CARTESIAN_POINT('', (2.375, 2.375, -41.));
#79 = CARTESIAN_POINT('', (3., 2.17529552007802E-15, -40.));
#80 = CARTESIAN_POINT('', (2.375, -3.57441689280635E-17, -41.));
#81 = CARTESIAN_POINT('', (3., -3., -40.));
#82 = CARTESIAN_POINT('', (2.375, -2.375, -41.));
#83 = CARTESIAN_POINT('', (3.46713307817029E-16, -3., -40.));
#84 = CARTESIAN_POINT('', (3.17849455587901E-16, -2.375, -41.));
#85 = CARTESIAN_POINT('', (-3., -3., -40.));
#86 = CARTESIAN_POINT('', (-2.375, -2.375, -41.));
#87 = CARTESIAN_POINT('', (-3., 2.63299061816681E-15, -40.));
#88 = CARTESIAN_POINT('', (-2.375, 3.2659778372556E-16, -41.));
#89 = ADVANCED_FACE('', (#90), #109, .T.);
#90 = FACE_OUTER_BOUND('', #91, .T.);
#91 = EDGE_LOOP('', (#92, #100, #107, #108));
#92 = ORIENTED_EDGE('', *, *, #93, .T.);
#93 = EDGE_CURVE('', #55, #94, #96, .T.);
#94 = VERTEX_POINT('', #95);
#95 = CARTESIAN_POINT('', (-3., 2.02066721859313E-16, -0.299999999999997));
#96 = LINE('', #97, #98);
#97 = CARTESIAN_POINT('', (-3., 2.63299061816681E-15, -40.));
#98 = VECTOR('', #99, 39.7);
#99 = DIRECTION('', (0., -2.4309238963075E-15, 39.7));
#100 = ORIENTED_EDGE('', *, *, #101, .T.);
#101 = EDGE_CURVE('', #94, #94, #102, .T.);
#102 = CIRCLE('', #103, 3.);
#103 = AXIS2_PLACEMENT_3D('', #104, #105, #106);
#104 = CARTESIAN_POINT('', (1.346145417358E-15, -1.88737914186277E-15, -0.299999999999997));
#105 = DIRECTION('', (-1.85037170770859E-17, 6.01984494166833E-17, -1.));
#106 = DIRECTION('', (-1., 6.96481954574026E-16, 1.85037170770859E-17));
#107 = ORIENTED_EDGE('', *, *, #93, .F.);
#108 = ORIENTED_EDGE('', *, *, #62, .F.);
#109 = (
   BOUNDED_SURFACE ()
   B_SPLINE_SURFACE (1, 2, ((#110, #111, #112, #113, #114, #115, #116, #117, #118), (#119, #120, #121, #122, #123, #124, #125, #126, #127)), .UNSPECIFIED., .F., .T., .U.)
   B_SPLINE_SURFACE_WITH_KNOTS ((2, 2), (3, 2, 2, 2, 3), (0., 1.), (0., 4.7123889803847, 9.4247779607694, 14.1371669411541, 18.8495559215388), .UNSPECIFIED.)
   GEOMETRIC_REPRESENTATION_ITEM ()
   RATIONAL_B_SPLINE_SURFACE (((1., 0.707106781186548, 1., 0.707106781186548, 1., 0.707106781186548, 1., 0.707106781186548, 1.), (1., 0.707106781186548, 1., 0.707106781186548, 1., 0.707106781186548, 1., 0.707106781186548, 1.)))
   REPRESENTATION_ITEM ('')
   SURFACE ()
);
#110 = CARTESIAN_POINT('', (-3., 1.09024514155944E-15, -40.));
#111 = CARTESIAN_POINT('', (-3., 3., -40.));
#112 = CARTESIAN_POINT('', (2.51729669324767E-15, 3., -40.));
#113 = CARTESIAN_POINT('', (3., 3., -40.));
#114 = CARTESIAN_POINT('', (3., -2.72125254614051E-15, -40.));
#115 = CARTESIAN_POINT('', (3., -3., -40.));
#116 = CARTESIAN_POINT('', (-9.26806954708078E-16, -3., -40.));
#117 = CARTESIAN_POINT('', (-3., -3., -40.));
#118 = CARTESIAN_POINT('', (-3., 1.09024514155944E-15, -40.));
#119 = CARTESIAN_POINT('', (-3., 2.02066721859312E-16, -0.299999999999997));
#120 = CARTESIAN_POINT('', (-3., 3., -0.299999999999997));
#121 = CARTESIAN_POINT('', (3.25189426120798E-15, 3., -0.299999999999997));
#122 = CARTESIAN_POINT('', (3., 3., -0.299999999999997));
#123 = CARTESIAN_POINT('', (3., -3.60943096584064E-15, -0.299999999999997));
#124 = CARTESIAN_POINT('', (3., -3., -0.299999999999997));
#125 = CARTESIAN_POINT('', (-1.92209386747767E-16, -3., -0.299999999999997));
#126 = CARTESIAN_POINT('', (-3., -3., -0.299999999999997));
#127 = CARTESIAN_POINT('', (-3., 2.02066721859312E-16, -0.299999999999997));
#128 = ADVANCED_FACE('', (#129), #148, .T.);
#129 = FACE_OUTER_BOUND('', #130, .T.);
#130 = EDGE_LOOP('', (#131, #139, #146, #147));
#131 = ORIENTED_EDGE('', *, *, #132, .T.);
#132 = EDGE_CURVE('', #94, #133, #135, .T.);
#133 = VERTEX_POINT('', #134);
#134 = CARTESIAN_POINT('', (-2.7, 1.65327317884893E-16, 0.));
#135 = LINE('', #136, #137);
#136 = CARTESIAN_POINT('', (-3., 2.02066721859313E-16, -0.299999999999997));
#137 = VECTOR('', #138, 0.424264068711926);
#138 = DIRECTION('', (0.3, -3.673940397442E-17, 0.299999999999997));
#139 = ORIENTED_EDGE('', *, *, #140, .T.);
#140 = EDGE_CURVE('', #133, #133, #141, .T.);
#141 = CIRCLE('', #142, 2.7);
#142 = AXIS2_PLACEMENT_3D('', #143, #144, #145);
#143 = CARTESIAN_POINT('', (9.22872889219661E-16, -1.27675647831893E-15, -8.0118685686509E-32));
#144 = DIRECTION('', (3.03091835913145E-33, 6.12323399573678E-17, -1.));
#145 = DIRECTION('', (-1., 5.34105109705119E-16, 2.96735872912996E-32));
#146 = ORIENTED_EDGE('', *, *, #132, .F.);
#147 = ORIENTED_EDGE('', *, *, #101, .F.);
#148 = (
   BOUNDED_SURFACE ()
   B_SPLINE_SURFACE (1, 2, ((#149, #150, #151, #152, #153, #154, #155, #156, #157), (#158, #159, #160, #161, #162, #163, #164, #165, #166)), .UNSPECIFIED., .F., .T., .U.)
   B_SPLINE_SURFACE_WITH_KNOTS ((2, 2), (3, 2, 2, 2, 3), (0., 1.), (0., 0.25, 0.5, 0.75, 1.), .UNSPECIFIED.)
   GEOMETRIC_REPRESENTATION_ITEM ()
   RATIONAL_B_SPLINE_SURFACE (((1., 0.707106781186548, 1., 0.707106781186548, 1., 0.707106781186548, 1., 0.707106781186548, 1.), (1., 0.707106781186548, 1., 0.707106781186548, 1., 0.707106781186548, 1., 0.707106781186548, 1.)))
   REPRESENTATION_ITEM ('')
   SURFACE ()
);
#149 = CARTESIAN_POINT('', (-3., 1.49129302665284E-15, -0.299999999999997));
#150 = CARTESIAN_POINT('', (-3., 3., -0.299999999999985));
#151 = CARTESIAN_POINT('', (2.34149119846292E-15, 3., -0.299999999999985));
#152 = CARTESIAN_POINT('', (3., 3., -0.299999999999985));
#153 = CARTESIAN_POINT('', (3., -1.34594359183367E-15, -0.299999999999997));
#154 = CARTESIAN_POINT('', (3., -3., -0.300000000000009));
#155 = CARTESIAN_POINT('', (-1.28351380279387E-16, -3., -0.300000000000009));
#156 = CARTESIAN_POINT('', (-3., -3., -0.300000000000009));
#157 = CARTESIAN_POINT('', (-3., 1.49129302665284E-15, -0.299999999999997));
#158 = CARTESIAN_POINT('', (-2.7, 1.65327317884893E-16, -2.18952885050753E-47));
#159 = CARTESIAN_POINT('', (-2.7, 2.7, 1.04916075827078E-14));
#160 = CARTESIAN_POINT('', (2.19962936753859E-15, 2.7, 1.04916075827078E-14));
#161 = CARTESIAN_POINT('', (2.7, 2.7, 1.04916075827078E-14));
#162 = CARTESIAN_POINT('', (2.7, -2.38818563875297E-15, 1.12461399303431E-30));
#163 = CARTESIAN_POINT('', (2.7, -2.7, -1.04916075827078E-14));
#164 = CARTESIAN_POINT('', (-2.32289533294833E-17, -2.7, -1.04916075827078E-14));
#165 = CARTESIAN_POINT('', (-2.7, -2.7, -1.04916075827078E-14));
#166 = CARTESIAN_POINT('', (-2.7, 1.65327317884893E-16, -2.18952885050753E-47));
#167 = ADVANCED_FACE('', (#168), #171, .T.);
#168 = FACE_OUTER_BOUND('', #169, .T.);
#169 = EDGE_LOOP('', (#170));
#170 = ORIENTED_EDGE('', *, *, #140, .F.);
#171 = B_SPLINE_SURFACE_WITH_KNOTS('', 1, 1, ((#172, #173), (#174, #175)), .UNSPECIFIED., .F., .F., .U., (2, 2), (2, 2), (0.0454545454545454, 0.954545454545454), (0.0454545454545454, 0.954545454545454), .UNSPECIFIED.);
#172 = CARTESIAN_POINT('', (2.7, -2.7, -1.65327317884893E-16));
#173 = CARTESIAN_POINT('', (-2.7, -2.7, -1.65327317884893E-16));
#174 = CARTESIAN_POINT('', (2.7, 2.7, 1.65327317884893E-16));
#175 = CARTESIAN_POINT('', (-2.7, 2.7, 1.65327317884893E-16));
#176 = ADVANCED_FACE('', (#177), #180, .T.);
#177 = FACE_OUTER_BOUND('', #178, .T.);
#178 = EDGE_LOOP('', (#179));
#179 = ORIENTED_EDGE('', *, *, #25, .T.);
#180 = B_SPLINE_SURFACE_WITH_KNOTS('', 1, 1, ((#181, #182), (#183, #184)), .UNSPECIFIED., .F., .F., .U., (2, 2), (2, 2), (0.498116336564782, 0.539328853638095), (0.460671146361905, 0.501883663435217), .UNSPECIFIED.);
#181 = CARTESIAN_POINT('', (-2.37500000000001, 2.37500000000002, -49.));
#182 = CARTESIAN_POINT('', (-2.37500000000001, -2.37499999999998, -49.));
#183 = CARTESIAN_POINT('', (2.37499999999999, 2.37500000000002, -49.));
#184 = CARTESIAN_POINT('', (2.37499999999999, -2.37499999999998, -49.));
#185 = DRAUGHTING_MODEL('', (#193, #268, #307, #312, #317, #322, #327), #341);
#186 = PRESENTATION_STYLE_ASSIGNMENT((#187));
#187 = SURFACE_STYLE_USAGE(.POSITIVE., #188);
#188 = SURFACE_SIDE_STYLE('', (#189));
#189 = SURFACE_STYLE_FILL_AREA(#190);
#190 = FILL_AREA_STYLE('', (#191));
#191 = FILL_AREA_STYLE_COLOUR('', #192);
#192 = COLOUR_RGB('', 0.50196078431373, 0.50196078431373, 0.50196078431373);
#193 = STYLED_ITEM('', (#186), #1);
#194 = MANIFOLD_SOLID_BREP('CUT', #195);
#195 = CLOSED_SHELL('', (#196, #213, #252));
#196 = ADVANCED_FACE('', (#197), #208, .T.);
#197 = FACE_OUTER_BOUND('', #198, .T.);
#198 = EDGE_LOOP('', (#199));
#199 = ORIENTED_EDGE('', *, *, #200, .F.);
#200 = EDGE_CURVE('', #201, #201, #203, .T.);
#201 = VERTEX_POINT('', #202);
#202 = CARTESIAN_POINT('', (-2.5, 3.15346550780443E-15, -49.));
#203 = CIRCLE('', #204, 2.5);
#204 = AXIS2_PLACEMENT_3D('', #205, #206, #207);
#205 = CARTESIAN_POINT('', (3.33066907387547E-16, -3.33066907387547E-16, -49.));
#206 = DIRECTION('', (0., 0., -1.));
#207 = DIRECTION('', (-1., 1.39461296607679E-15, 0.));
#208 = B_SPLINE_SURFACE_WITH_KNOTS('', 1, 1, ((#209, #210), (#211, #212)), .UNSPECIFIED., .F., .F., .U., (2, 2), (2, 2), (0.0454545454545454, 0.954545454545455), (0.0454545454545454, 0.954545454545455), .UNSPECIFIED.);
#209 = CARTESIAN_POINT('', (2.5, -2.5, -49.));
#210 = CARTESIAN_POINT('', (-2.5, -2.5, -49.));
#211 = CARTESIAN_POINT('', (2.5, 2.5, -49.));
#212 = CARTESIAN_POINT('', (-2.5, 2.5, -49.));
#213 = ADVANCED_FACE('', (#214), #233, .T.);
#214 = FACE_OUTER_BOUND('', #215, .T.);
#215 = EDGE_LOOP('', (#216, #224, #225, #226));
#216 = ORIENTED_EDGE('', *, *, #217, .F.);
#217 = EDGE_CURVE('', #201, #218, #220, .T.);
#218 = VERTEX_POINT('', #219);
#219 = CARTESIAN_POINT('', (-2.5, 3.64332422746338E-15, -57.));
#220 = LINE('', #221, #222);
#221 = CARTESIAN_POINT('', (-2.5, 3.15346550780443E-15, -49.));
#222 = VECTOR('', #223, 8.);
#223 = DIRECTION('', (0., 4.8985871965895E-16, -8.));
#224 = ORIENTED_EDGE('', *, *, #200, .T.);
#225 = ORIENTED_EDGE('', *, *, #217, .T.);
#226 = ORIENTED_EDGE('', *, *, #227, .F.);
#227 = EDGE_CURVE('', #218, #218, #228, .T.);
#228 = CIRCLE('', #229, 2.5);
#229 = AXIS2_PLACEMENT_3D('', #230, #231, #232);
#230 = CARTESIAN_POINT('', (-2.0122792321331E-16, 1.38777878078145E-15, -57.));
#231 = DIRECTION('', (0., 0., -1.));
#232 = DIRECTION('', (-1., 9.02218178672774E-16, 0.));
#233 = (
   BOUNDED_SURFACE ()
   B_SPLINE_SURFACE (2, 1, ((#234, #235), (#236, #237), (#238, #239), (#240, #241), (#242, #243), (#244, #245), (#246, #247), (#248, #249), (#250, #251)), .UNSPECIFIED., .T., .F., .U.)
   B_SPLINE_SURFACE_WITH_KNOTS ((3, 2, 2, 2, 3), (2, 2), (0., 3.92699081698725, 7.8539816339745, 11.7809724509618, 15.707963267949), (0., 1.), .UNSPECIFIED.)
   GEOMETRIC_REPRESENTATION_ITEM ()
   RATIONAL_B_SPLINE_SURFACE (((1., 1.), (0.707106781186548, 0.707106781186548), (1., 1.), (0.707106781186548, 0.707106781186548), (1., 1.), (0.707106781186548, 0.707106781186548), (1., 1.), (0.707106781186548, 0.707106781186548), (1., 1.)))
   REPRESENTATION_ITEM ('')
   SURFACE ()
);
#234 = CARTESIAN_POINT('', (-2.5, 3.15346550780443E-15, -49.));
#235 = CARTESIAN_POINT('', (-2.5, 3.54204356642323E-15, -57.));
#236 = CARTESIAN_POINT('', (-2.5, 2.5, -49.));
#237 = CARTESIAN_POINT('', (-2.5, 2.5, -57.));
#238 = CARTESIAN_POINT('', (1.82077269424678E-15, 2.5, -49.));
#239 = CARTESIAN_POINT('', (1.82077269424678E-15, 2.5, -57.));
#240 = CARTESIAN_POINT('', (2.5, 2.5, -49.));
#241 = CARTESIAN_POINT('', (2.5, 2.5, -57.));
#242 = CARTESIAN_POINT('', (2.5, -8.4890236369231E-16, -49.));
#243 = CARTESIAN_POINT('', (2.5, -4.60324305073505E-16, -57.));
#244 = CARTESIAN_POINT('', (2.5, -2.5, -49.));
#245 = CARTESIAN_POINT('', (2.5, -2.5, -57.));
#246 = CARTESIAN_POINT('', (-1.87543347746312E-15, -2.5, -49.));
#247 = CARTESIAN_POINT('', (-1.87543347746312E-15, -2.5, -57.));
#248 = CARTESIAN_POINT('', (-2.5, -2.5, -49.));
#249 = CARTESIAN_POINT('', (-2.5, -2.5, -57.));
#250 = CARTESIAN_POINT('', (-2.5, 3.15346550780443E-15, -49.));
#251 = CARTESIAN_POINT('', (-2.5, 3.54204356642323E-15, -57.));
#252 = ADVANCED_FACE('', (#253), #256, .T.);
#253 = FACE_OUTER_BOUND('', #254, .T.);
#254 = EDGE_LOOP('', (#255));
#255 = ORIENTED_EDGE('', *, *, #227, .T.);
#256 = B_SPLINE_SURFACE_WITH_KNOTS('', 1, 1, ((#257, #258), (#259, #260)), .UNSPECIFIED., .F., .F., .U., (2, 2), (2, 2), (0.0454545454545454, 0.954545454545455), (0.0454545454545454, 0.954545454545455), .UNSPECIFIED.);
#257 = CARTESIAN_POINT('', (2.5, -2.5, -57.));
#258 = CARTESIAN_POINT('', (2.5, 2.5, -57.));
#259 = CARTESIAN_POINT('', (-2.5, -2.5, -57.));
#260 = CARTESIAN_POINT('', (-2.5, 2.5, -57.));
#261 = PRESENTATION_STYLE_ASSIGNMENT((#262));
#262 = SURFACE_STYLE_USAGE(.POSITIVE., #263);
#263 = SURFACE_SIDE_STYLE('', (#264));
#264 = SURFACE_STYLE_FILL_AREA(#265);
#265 = FILL_AREA_STYLE('', (#266));
#266 = FILL_AREA_STYLE_COLOUR('', #267);
#267 = COLOUR_RGB('', 0.8, 0.8, 0.8);
#268 = STYLED_ITEM('', (#261), #194);
#269 = TRIMMED_CURVE('cutting part line', #270, (#274), (#275), .T., .CARTESIAN.);
#270 = LINE('', #271, #272);
#271 = CARTESIAN_POINT('', (1.11022302462516E-16, 0., -57.));
#272 = VECTOR('', #273, 2.5);
#273 = DIRECTION('', (2.5, 0., 0.));
#274 = CARTESIAN_POINT('', (1.11022302462516E-16, 0., -57.));
#275 = CARTESIAN_POINT('', (2.5, 0., -57.));
#276 = TRIMMED_CURVE('cutting part line', #277, (#281), (#282), .T., .CARTESIAN.);
#277 = LINE('', #278, #279);
#278 = CARTESIAN_POINT('', (2.5, 3.88518876298357E-16, -57.));
#279 = VECTOR('', #280, 8.);
#280 = DIRECTION('', (0., -3.88518876298357E-16, 8.));
#281 = CARTESIAN_POINT('', (2.5, 3.88518876298357E-16, -57.));
#282 = CARTESIAN_POINT('', (2.5, 0., -49.));
#283 = TRIMMED_CURVE('cutting part line', #284, (#288), (#289), .T., .CARTESIAN.);
#284 = LINE('', #285, #286);
#285 = CARTESIAN_POINT('', (2.5, 0., -49.));
#286 = VECTOR('', #287, 2.5);
#287 = DIRECTION('', (-2.5, 0., 7.105427357601E-15));
#288 = CARTESIAN_POINT('', (2.5, 0., -49.));
#289 = CARTESIAN_POINT('', (0., 0., -49.));
#290 = TRIMMED_CURVE('cutting part line', #291, (#295), (#296), .T., .CARTESIAN.);
#291 = LINE('', #292, #293);
#292 = CARTESIAN_POINT('', (0., 0., -49.));
#293 = VECTOR('', #294, 8.);
#294 = DIRECTION('', (0., 0., -8.));
#295 = CARTESIAN_POINT('', (0., 0., -49.));
#296 = CARTESIAN_POINT('', (0., 0., -57.));
#297 = COMPOSITE_CURVE('cutting part line', (#298, #299, #300, #301), .U.);
#298 = COMPOSITE_CURVE_SEGMENT(.CONTINUOUS., .T., #269);
#299 = COMPOSITE_CURVE_SEGMENT(.CONTINUOUS., .T., #276);
#300 = COMPOSITE_CURVE_SEGMENT(.CONTINUOUS., .T., #283);
#301 = COMPOSITE_CURVE_SEGMENT(.CONTINUOUS., .T., #290);
#302 = GEOMETRIC_SET('', (#297, #340));
#303 = PRESENTATION_STYLE_ASSIGNMENT((#304));
#304 = CURVE_STYLE('', #306, POSITIVE_LENGTH_MEASURE(1.E-6), #305);
#305 = COLOUR_RGB('', 0., 0., 1.);
#306 = DRAUGHTING_PRE_DEFINED_CURVE_FONT('continuous');
#307 = STYLED_ITEM('', (#303), #297);
#308 = PRESENTATION_STYLE_ASSIGNMENT((#309));
#309 = CURVE_STYLE('', #311, POSITIVE_LENGTH_MEASURE(1.E-6), #310);
#310 = COLOUR_RGB('', 0., 0., 1.);
#311 = DRAUGHTING_PRE_DEFINED_CURVE_FONT('continuous');
#312 = OVER_RIDING_STYLED_ITEM('', (#308), #269, #307);
#313 = PRESENTATION_STYLE_ASSIGNMENT((#314));
#314 = CURVE_STYLE('', #316, POSITIVE_LENGTH_MEASURE(1.E-6), #315);
#315 = COLOUR_RGB('', 0., 0., 1.);
#316 = DRAUGHTING_PRE_DEFINED_CURVE_FONT('continuous');
#317 = OVER_RIDING_STYLED_ITEM('', (#313), #276, #307);
#318 = PRESENTATION_STYLE_ASSIGNMENT((#319));
#319 = CURVE_STYLE('', #321, POSITIVE_LENGTH_MEASURE(1.E-6), #320);
#320 = COLOUR_RGB('', 0., 0., 1.);
#321 = DRAUGHTING_PRE_DEFINED_CURVE_FONT('continuous');
#322 = OVER_RIDING_STYLED_ITEM('', (#318), #283, #307);
#323 = PRESENTATION_STYLE_ASSIGNMENT((#324));
#324 = CURVE_STYLE('', #326, POSITIVE_LENGTH_MEASURE(1.E-6), #325);
#325 = COLOUR_RGB('', 0., 0., 1.);
#326 = DRAUGHTING_PRE_DEFINED_CURVE_FONT('continuous');
#327 = OVER_RIDING_STYLED_ITEM('', (#323), #290, #307);
#328 = AXIS2_PLACEMENT_3D('MCS', #329, #330, #331);
#329 = CARTESIAN_POINT('', (0., 0., -36.));
#330 = DIRECTION('', (0., 0., 1.));
#331 = DIRECTION('', (1., 0., 0.));
#332 = AXIS2_PLACEMENT_3D('PCS', #333, #334, #335);
#333 = CARTESIAN_POINT('', (0., 0., 0.));
#334 = DIRECTION('', (0., 0., 1.));
#335 = DIRECTION('', (1., 0., 0.));
#336 = AXIS2_PLACEMENT_3D('CIP', #337, #338, #339);
#337 = CARTESIAN_POINT('', (0., 0., -57.));
#338 = DIRECTION('', (0., 0., 1.));
#339 = DIRECTION('', (1., 0., 0.));
#340 = CARTESIAN_POINT('CRP', (2.5, 0., -57.));
#341 = (
   GEOMETRIC_REPRESENTATION_CONTEXT (3)
   GLOBAL_UNCERTAINTY_ASSIGNED_CONTEXT ((#343))
   GLOBAL_UNIT_ASSIGNED_CONTEXT ((#342, #344, #345))
   REPRESENTATION_CONTEXT ('', '3D')
);
#342 = (
   LENGTH_UNIT ()
   NAMED_UNIT (*)
   SI_UNIT (.MILLI., .METRE.)
);
#343 = UNCERTAINTY_MEASURE_WITH_UNIT(LENGTH_MEASURE(1.E-6), #342, 'DISTANCE_ACCURACY_VALUE', '');
#344 = (
   NAMED_UNIT (*)
   SI_UNIT ($, .STERADIAN.)
   SOLID_ANGLE_UNIT ()
);
#345 = (
   NAMED_UNIT (*)
   PLANE_ANGLE_UNIT ()
   SI_UNIT ($, .RADIAN.)
);
#346 = SHAPE_REPRESENTATION('', (), #341);
#347 = PRODUCT_DEFINITION_SHAPE('', '', #348);
#348 = PRODUCT_DEFINITION('', '', #351, #355);
#349 = APPLICATION_CONTEXT('configuration controlled 3D designs of mechanical parts and assemblies');
#350 = APPLICATION_PROTOCOL_DEFINITION('International Standard', 'automotive_design', 2002, #349);
#351 = PRODUCT_DEFINITION_FORMATION_WITH_SPECIFIED_SOURCE('', '', #352, .NOT_KNOWN.);
#352 = PRODUCT('product-name', '2P120-0500-NC       H10F', '', (#353));
#353 = PRODUCT_CONTEXT('', #349, 'mechanical');
#354 = PRODUCT_RELATED_PRODUCT_CATEGORY('detail', '', (#352));
#355 = PRODUCT_DEFINITION_CONTEXT('part definition', #349, 'design');
#356 = SHAPE_DEFINITION_REPRESENTATION(#347, #346);
#357 = CONSTRUCTIVE_GEOMETRY_REPRESENTATION('supplemental geometry', (#328, #332, #336), #341);
#358 = CONSTRUCTIVE_GEOMETRY_REPRESENTATION_RELATIONSHIP('', '', #346, #357);
#359 = SHAPE_REPRESENTATION_RELATIONSHIP('', '', #346, #360);
#360 = SHAPE_REPRESENTATION('', (#302), #341);
#361 = SHAPE_REPRESENTATION_RELATIONSHIP('', '', #346, #362);
#362 = ADVANCED_BREP_SHAPE_REPRESENTATION('', (#1, #194), #341);
ENDSEC;
END-ISO-10303-21;
