ISO-10303-21;
HEADER;
FILE_DESCRIPTION(('STEP'), '1');
FILE_NAME('C:\\Users\\ds2002\\OneDrive - Sandvik\\HomeShare\\Documents\\Batchrepair\\CorSRT2\\NEW_MILSQ_SLD\\Output\\MOD000000000000000020082305000000.stp', '2019-01-02T12:10:03', (''), (''), 'Express v3.0.0.0', 'Express Tool', 'Unknown');
FILE_SCHEMA(('AUTOMOTIVE_DESIGN'));
ENDSEC;

DATA;
#1 = MANIFOLD_SOLID_BREP('NOCUT', #2);
#2 = CLOSED_SHELL('', (#3, #50, #70, #109, #148, #157));
#3 = ADVANCED_FACE('', (#4), #31, .T.);
#4 = FACE_OUTER_BOUND('', #5, .T.);
#5 = EDGE_LOOP('', (#6, #16, #23, #24));
#6 = ORIENTED_EDGE('', *, *, #7, .F.);
#7 = EDGE_CURVE('', #8, #10, #12, .T.);
#8 = VERTEX_POINT('', #9);
#9 = CARTESIAN_POINT('', (-1.9, 2.32070568438423E-15, -36.));
#10 = VERTEX_POINT('', #11);
#11 = CARTESIAN_POINT('', (-1.9, 2.81056440404318E-15, -44.));
#12 = LINE('', #13, #14);
#13 = CARTESIAN_POINT('', (-1.9, 2.32070568438423E-15, -36.));
#14 = VECTOR('', #15, 8.);
#15 = DIRECTION('', (0., 4.8985871965895E-16, -8.));
#16 = ORIENTED_EDGE('', *, *, #17, .T.);
#17 = EDGE_CURVE('', #8, #8, #18, .T.);
#18 = CIRCLE('', #19, 1.9);
#19 = AXIS2_PLACEMENT_3D('', #20, #21, #22);
#20 = CARTESIAN_POINT('', (-8.32667268468867E-17, 4.44089209850063E-16, -36.));
#21 = DIRECTION('', (0., 0., -1.));
#22 = DIRECTION('', (-1., 9.87692881333772E-16, 0.));
#23 = ORIENTED_EDGE('', *, *, #7, .T.);
#24 = ORIENTED_EDGE('', *, *, #25, .F.);
#25 = EDGE_CURVE('', #10, #10, #26, .T.);
#26 = CIRCLE('', #27, 1.9);
#27 = AXIS2_PLACEMENT_3D('', #28, #29, #30);
#28 = CARTESIAN_POINT('', (1.31838984174237E-16, 6.66133814775094E-16, -44.));
#29 = DIRECTION('', (0., 0., -1.));
#30 = DIRECTION('', (-1., 1.12864767856215E-15, 0.));
#31 = (
   BOUNDED_SURFACE ()
   B_SPLINE_SURFACE (2, 1, ((#32, #33), (#34, #35), (#36, #37), (#38, #39), (#40, #41), (#42, #43), (#44, #45), (#46, #47), (#48, #49)), .UNSPECIFIED., .T., .F., .U.)
   B_SPLINE_SURFACE_WITH_KNOTS ((3, 2, 2, 2, 3), (2, 2), (0., 2.9845130209103, 5.9690260418206, 8.9535390627309, 11.9380520836412), (0., 1.), .UNSPECIFIED.)
   GEOMETRIC_REPRESENTATION_ITEM ()
   RATIONAL_B_SPLINE_SURFACE (((1., 1.), (0.707106781186548, 0.707106781186548), (1., 1.), (0.707106781186548, 0.707106781186548), (1., 1.), (0.707106781186548, 0.707106781186548), (1., 1.), (0.707106781186548, 0.707106781186548), (1., 1.)))
   REPRESENTATION_ITEM ('')
   SURFACE ()
);
#32 = CARTESIAN_POINT('', (-1.9, 2.32070568438423E-15, -36.));
#33 = CARTESIAN_POINT('', (-1.9, 2.0986610794592E-15, -44.));
#34 = CARTESIAN_POINT('', (-1.9, 1.9, -36.));
#35 = CARTESIAN_POINT('', (-1.9, 1.9, -44.));
#36 = CARTESIAN_POINT('', (1.33700250047683E-15, 1.9, -36.));
#37 = CARTESIAN_POINT('', (1.33700250047683E-15, 1.9, -44.));
#38 = CARTESIAN_POINT('', (1.9, 1.9, -36.));
#39 = CARTESIAN_POINT('', (1.9, 1.9, -44.));
#40 = CARTESIAN_POINT('', (1.9, -3.11665953145982E-16, -36.));
#41 = CARTESIAN_POINT('', (1.9, -5.33710558071014E-16, -44.));
#42 = CARTESIAN_POINT('', (1.9, -1.9, -36.));
#43 = CARTESIAN_POINT('', (1.9, -1.9, -44.));
#44 = CARTESIAN_POINT('', (-1.06268624521539E-15, -1.9, -36.));
#45 = CARTESIAN_POINT('', (-1.06268624521539E-15, -1.9, -44.));
#46 = CARTESIAN_POINT('', (-1.9, -1.9, -36.));
#47 = CARTESIAN_POINT('', (-1.9, -1.9, -44.));
#48 = CARTESIAN_POINT('', (-1.9, 2.32070568438423E-15, -36.));
#49 = CARTESIAN_POINT('', (-1.9, 2.0986610794592E-15, -44.));
#50 = ADVANCED_FACE('', (#51, #62), #65, .T.);
#51 = FACE_OUTER_BOUND('', #52, .T.);
#52 = EDGE_LOOP('', (#53));
#53 = ORIENTED_EDGE('', *, *, #54, .T.);
#54 = EDGE_CURVE('', #55, #55, #57, .T.);
#55 = VERTEX_POINT('', #56);
#56 = CARTESIAN_POINT('', (-2., 2.32682891837997E-15, -36.));
#57 = CIRCLE('', #58, 2.);
#58 = AXIS2_PLACEMENT_3D('', #59, #60, #61);
#59 = CARTESIAN_POINT('', (6.24500451351651E-17, 1.38777878078145E-15, -36.));
#60 = DIRECTION('', (0., 0., -1.));
#61 = DIRECTION('', (-1., 4.69525068799262E-16, 0.));
#62 = FACE_BOUND('', #63, .T.);
#63 = EDGE_LOOP('', (#64));
#64 = ORIENTED_EDGE('', *, *, #17, .F.);
#65 = B_SPLINE_SURFACE_WITH_KNOTS('', 1, 1, ((#66, #67), (#68, #69)), .UNSPECIFIED., .F., .F., .U., (2, 2), (2, 2), (0.0454545454545453, 0.954545454545454), (0.0454545454545452, 0.954545454545454), .UNSPECIFIED.);
#66 = CARTESIAN_POINT('', (2., -2., -36.));
#67 = CARTESIAN_POINT('', (2., 2., -36.));
#68 = CARTESIAN_POINT('', (-2., -2., -36.));
#69 = CARTESIAN_POINT('', (-2., 2., -36.));
#70 = ADVANCED_FACE('', (#71), #90, .T.);
#71 = FACE_OUTER_BOUND('', #72, .T.);
#72 = EDGE_LOOP('', (#73, #81, #88, #89));
#73 = ORIENTED_EDGE('', *, *, #74, .T.);
#74 = EDGE_CURVE('', #55, #75, #77, .T.);
#75 = VERTEX_POINT('', #76);
#76 = CARTESIAN_POINT('', (-2., 1.34711147906209E-16, -0.200000000000003));
#77 = LINE('', #78, #79);
#78 = CARTESIAN_POINT('', (-2., 2.32682891837997E-15, -36.));
#79 = VECTOR('', #80, 35.8);
#80 = DIRECTION('', (0., -2.19211777047376E-15, 35.8));
#81 = ORIENTED_EDGE('', *, *, #82, .T.);
#82 = EDGE_CURVE('', #75, #75, #83, .T.);
#83 = CIRCLE('', #84, 2.);
#84 = AXIS2_PLACEMENT_3D('', #85, #86, #87);
#85 = CARTESIAN_POINT('', (-1.04083408558608E-16, -6.66133814775094E-16, -0.200000000000003));
#86 = DIRECTION('', (1.38777878078145E-17, 2.08473661697978E-18, -1.));
#87 = DIRECTION('', (-1., 4.00422481340651E-16, -1.38777878078145E-17));
#88 = ORIENTED_EDGE('', *, *, #74, .F.);
#89 = ORIENTED_EDGE('', *, *, #54, .F.);
#90 = (
   BOUNDED_SURFACE ()
   B_SPLINE_SURFACE (1, 2, ((#91, #92, #93, #94, #95, #96, #97, #98, #99), (#100, #101, #102, #103, #104, #105, #106, #107, #108)), .UNSPECIFIED., .F., .T., .U.)
   B_SPLINE_SURFACE_WITH_KNOTS ((2, 2), (3, 2, 2, 2, 3), (0., 1.), (0., 3.1415926535898, 6.2831853071796, 9.4247779607694, 12.5663706143592), .UNSPECIFIED.)
   GEOMETRIC_REPRESENTATION_ITEM ()
   RATIONAL_B_SPLINE_SURFACE (((1., 0.707106781186548, 1., 0.707106781186548, 1., 0.707106781186548, 1., 0.707106781186548, 1.), (1., 0.707106781186548, 1., 0.707106781186548, 1., 0.707106781186548, 1., 0.707106781186548, 1.)))
   REPRESENTATION_ITEM ('')
   SURFACE ()
);
#91 = CARTESIAN_POINT('', (-2., 1.30044532376262E-15, -36.));
#92 = CARTESIAN_POINT('', (-2., 2., -36.));
#93 = CARTESIAN_POINT('', (1.07112167772772E-15, 2., -36.));
#94 = CARTESIAN_POINT('', (2., 2., -36.));
#95 = CARTESIAN_POINT('', (2., -5.63152417705121E-17, -36.));
#96 = CARTESIAN_POINT('', (2., -2., -36.));
#97 = CARTESIAN_POINT('', (-4.07095279759474E-17, -2., -36.));
#98 = CARTESIAN_POINT('', (-2., -2., -36.));
#99 = CARTESIAN_POINT('', (-2., 1.30044532376262E-15, -36.));
#100 = CARTESIAN_POINT('', (-2., 1.34711147906209E-16, -0.200000000000003));
#101 = CARTESIAN_POINT('', (-2., 2., -0.200000000000003));
#102 = CARTESIAN_POINT('', (5.74296874207959E-16, 2., -0.200000000000003));
#103 = CARTESIAN_POINT('', (2., 2., -0.200000000000003));
#104 = CARTESIAN_POINT('', (2., -1.22204941762693E-15, -0.200000000000003));
#105 = CARTESIAN_POINT('', (2., -2., -0.200000000000003));
#106 = CARTESIAN_POINT('', (-5.37534331495705E-16, -2., -0.200000000000003));
#107 = CARTESIAN_POINT('', (-2., -2., -0.200000000000003));
#108 = CARTESIAN_POINT('', (-2., 1.34711147906209E-16, -0.200000000000003));
#109 = ADVANCED_FACE('', (#110), #129, .T.);
#110 = FACE_OUTER_BOUND('', #111, .T.);
#111 = EDGE_LOOP('', (#112, #120, #127, #128));
#112 = ORIENTED_EDGE('', *, *, #113, .T.);
#113 = EDGE_CURVE('', #75, #114, #116, .T.);
#114 = VERTEX_POINT('', #115);
#115 = CARTESIAN_POINT('', (-1.8, 1.10218211923262E-16, 0.));
#116 = LINE('', #117, #118);
#117 = CARTESIAN_POINT('', (-2., 1.34711147906209E-16, -0.200000000000003));
#118 = VECTOR('', #119, 0.282842712474621);
#119 = DIRECTION('', (0.2, -2.4492935982947E-17, 0.200000000000003));
#120 = ORIENTED_EDGE('', *, *, #121, .T.);
#121 = EDGE_CURVE('', #114, #114, #122, .T.);
#122 = CIRCLE('', #123, 1.8);
#123 = AXIS2_PLACEMENT_3D('', #124, #125, #126);
#124 = CARTESIAN_POINT('', (-2.08166817117217E-17, -1.66533453693773E-16, -7.78751025318189E-16));
#125 = DIRECTION('', (-4.32639458510105E-16, 1.26401621069751E-15, -1.));
#126 = DIRECTION('', (-1., 1.53750925342797E-16, 4.32639458510105E-16));
#127 = ORIENTED_EDGE('', *, *, #113, .F.);
#128 = ORIENTED_EDGE('', *, *, #82, .F.);
#129 = (
   BOUNDED_SURFACE ()
   B_SPLINE_SURFACE (1, 2, ((#130, #131, #132, #133, #134, #135, #136, #137, #138), (#139, #140, #141, #142, #143, #144, #145, #146, #147)), .UNSPECIFIED., .F., .T., .U.)
   B_SPLINE_SURFACE_WITH_KNOTS ((2, 2), (3, 2, 2, 2, 3), (0., 1.), (0., 0.25, 0.5, 0.75, 1.), .UNSPECIFIED.)
   GEOMETRIC_REPRESENTATION_ITEM ()
   RATIONAL_B_SPLINE_SURFACE (((1., 0.707106781186548, 1., 0.707106781186548, 1., 0.707106781186548, 1., 0.707106781186548, 1.), (1., 0.707106781186548, 1., 0.707106781186548, 1., 0.707106781186548, 1., 0.707106781186548, 1.)))
   REPRESENTATION_ITEM ('')
   SURFACE ()
);
#130 = CARTESIAN_POINT('', (-2., -1.02476577886459E-15, -0.200000000000002));
#131 = CARTESIAN_POINT('', (-2., 2., -0.200000000000014));
#132 = CARTESIAN_POINT('', (7.76925973571109E-17, 2., -0.200000000000015));
#133 = CARTESIAN_POINT('', (2., 2., -0.200000000000016));
#134 = CARTESIAN_POINT('', (2., -1.39484012040631E-15, -0.200000000000004));
#135 = CARTESIAN_POINT('', (2., -2., -0.199999999999992));
#136 = CARTESIAN_POINT('', (-4.7452384355128E-17, -2., -0.199999999999991));
#137 = CARTESIAN_POINT('', (-2., -2., -0.19999999999999));
#138 = CARTESIAN_POINT('', (-2., -1.02476577886459E-15, -0.200000000000002));
#139 = CARTESIAN_POINT('', (-1.8, 1.10218211923262E-16, 0.));
#140 = CARTESIAN_POINT('', (-1.8, 1.8, -1.04916075827076E-14));
#141 = CARTESIAN_POINT('', (1.45716771982047E-16, 1.8, -1.12703586080258E-14));
#142 = CARTESIAN_POINT('', (1.8, 1.8, -1.2049109633344E-14));
#143 = CARTESIAN_POINT('', (1.8, -2.22848695464285E-16, -1.55750205063638E-15));
#144 = CARTESIAN_POINT('', (1.8, -1.8, 8.93410553207123E-15));
#145 = CARTESIAN_POINT('', (3.30862884410328E-17, -1.8, 9.71285655738942E-15));
#146 = CARTESIAN_POINT('', (-1.8, -1.8, 1.04916075827076E-14));
#147 = CARTESIAN_POINT('', (-1.8, 1.10218211923262E-16, 0.));
#148 = ADVANCED_FACE('', (#149), #152, .T.);
#149 = FACE_OUTER_BOUND('', #150, .T.);
#150 = EDGE_LOOP('', (#151));
#151 = ORIENTED_EDGE('', *, *, #121, .F.);
#152 = B_SPLINE_SURFACE_WITH_KNOTS('', 1, 1, ((#153, #154), (#155, #156)), .UNSPECIFIED., .F., .F., .U., (2, 2), (2, 2), (0.0454545454545454, 0.954545454545455), (0.0454545454545454, 0.954545454545454), .UNSPECIFIED.);
#153 = CARTESIAN_POINT('', (1.8, -1.8, -1.10218211923262E-16));
#154 = CARTESIAN_POINT('', (-1.8, -1.8, -1.10218211923262E-16));
#155 = CARTESIAN_POINT('', (1.8, 1.8, 1.10218211923262E-16));
#156 = CARTESIAN_POINT('', (-1.8, 1.8, 1.10218211923262E-16));
#157 = ADVANCED_FACE('', (#158), #161, .T.);
#158 = FACE_OUTER_BOUND('', #159, .T.);
#159 = EDGE_LOOP('', (#160));
#160 = ORIENTED_EDGE('', *, *, #25, .T.);
#161 = B_SPLINE_SURFACE_WITH_KNOTS('', 1, 1, ((#162, #163), (#164, #165)), .UNSPECIFIED., .F., .F., .U., (2, 2), (2, 2), (0.49622410323212, 0.533983209864424), (0.466016790135575, 0.50377589676788), .UNSPECIFIED.);
#162 = CARTESIAN_POINT('', (-1.90000000000001, 1.90000000000002, -44.));
#163 = CARTESIAN_POINT('', (-1.90000000000001, -1.89999999999999, -44.));
#164 = CARTESIAN_POINT('', (1.89999999999999, 1.90000000000002, -44.));
#165 = CARTESIAN_POINT('', (1.89999999999999, -1.89999999999999, -44.));
#166 = DRAUGHTING_MODEL('', (#174, #249, #288, #293, #298, #303, #308), #322);
#167 = PRESENTATION_STYLE_ASSIGNMENT((#168));
#168 = SURFACE_STYLE_USAGE(.POSITIVE., #169);
#169 = SURFACE_SIDE_STYLE('', (#170));
#170 = SURFACE_STYLE_FILL_AREA(#171);
#171 = FILL_AREA_STYLE('', (#172));
#172 = FILL_AREA_STYLE_COLOUR('', #173);
#173 = COLOUR_RGB('', 0.50196078431373, 0.50196078431373, 0.50196078431373);
#174 = STYLED_ITEM('', (#167), #1);
#175 = MANIFOLD_SOLID_BREP('CUT', #176);
#176 = CLOSED_SHELL('', (#177, #194, #233));
#177 = ADVANCED_FACE('', (#178), #189, .T.);
#178 = FACE_OUTER_BOUND('', #179, .T.);
#179 = EDGE_LOOP('', (#180));
#180 = ORIENTED_EDGE('', *, *, #181, .F.);
#181 = EDGE_CURVE('', #182, #182, #184, .T.);
#182 = VERTEX_POINT('', #183);
#183 = CARTESIAN_POINT('', (-2., 2.81668763803891E-15, -44.));
#184 = CIRCLE('', #185, 2.);
#185 = AXIS2_PLACEMENT_3D('', #186, #187, #188);
#186 = CARTESIAN_POINT('', (2.63677968348475E-16, 5.55111512312578E-16, -44.));
#187 = DIRECTION('', (0., 0., -1.));
#188 = DIRECTION('', (-1., 1.13078806286317E-15, 0.));
#189 = B_SPLINE_SURFACE_WITH_KNOTS('', 1, 1, ((#190, #191), (#192, #193)), .UNSPECIFIED., .F., .F., .U., (2, 2), (2, 2), (0.0454545454545453, 0.954545454545454), (0.0454545454545455, 0.954545454545454), .UNSPECIFIED.);
#190 = CARTESIAN_POINT('', (2., -2., -44.));
#191 = CARTESIAN_POINT('', (-2., -2., -44.));
#192 = CARTESIAN_POINT('', (2., 2., -44.));
#193 = CARTESIAN_POINT('', (-2., 2., -44.));
#194 = ADVANCED_FACE('', (#195), #214, .T.);
#195 = FACE_OUTER_BOUND('', #196, .T.);
#196 = EDGE_LOOP('', (#197, #205, #206, #207));
#197 = ORIENTED_EDGE('', *, *, #198, .F.);
#198 = EDGE_CURVE('', #182, #199, #201, .T.);
#199 = VERTEX_POINT('', #200);
#200 = CARTESIAN_POINT('', (-2., 3.18408167778312E-15, -50.));
#201 = LINE('', #202, #203);
#202 = CARTESIAN_POINT('', (-2., 2.81668763803891E-15, -44.));
#203 = VECTOR('', #204, 6.);
#204 = DIRECTION('', (0., 3.6739403974421E-16, -6.));
#205 = ORIENTED_EDGE('', *, *, #181, .T.);
#206 = ORIENTED_EDGE('', *, *, #198, .T.);
#207 = ORIENTED_EDGE('', *, *, #208, .F.);
#208 = EDGE_CURVE('', #199, #199, #209, .T.);
#209 = CIRCLE('', #210, 2.);
#210 = AXIS2_PLACEMENT_3D('', #211, #212, #213);
#211 = CARTESIAN_POINT('', (-2.28983498828939E-16, 6.10622663543836E-16, -50.));
#212 = DIRECTION('', (1.55588692429087E-29, 1.209179486195E-14, -1.));
#213 = DIRECTION('', (-1., 1.28672950711964E-15, 0.));
#214 = (
   BOUNDED_SURFACE ()
   B_SPLINE_SURFACE (2, 1, ((#215, #216), (#217, #218), (#219, #220), (#221, #222), (#223, #224), (#225, #226), (#227, #228), (#229, #230), (#231, #232)), .UNSPECIFIED., .T., .F., .U.)
   B_SPLINE_SURFACE_WITH_KNOTS ((3, 2, 2, 2, 3), (2, 2), (0., 3.1415926535898, 6.2831853071796, 9.4247779607694, 12.5663706143592), (0., 1.), .UNSPECIFIED.)
   GEOMETRIC_REPRESENTATION_ITEM ()
   RATIONAL_B_SPLINE_SURFACE (((1., 1.), (0.707106781186548, 0.707106781186548), (1., 1.), (0.707106781186548, 0.707106781186548), (1., 1.), (0.707106781186548, 0.707106781186548), (1., 1.), (0.707106781186548, 0.707106781186548), (1., 1.)))
   REPRESENTATION_ITEM ('')
   SURFACE ()
);
#215 = CARTESIAN_POINT('', (-2., 2.81668763803891E-15, -44.));
#216 = CARTESIAN_POINT('', (-2., 2.98322109173268E-15, -50.));
#217 = CARTESIAN_POINT('', (-2., 2., -44.));
#218 = CARTESIAN_POINT('', (-2., 2., -50.));
#219 = CARTESIAN_POINT('', (2.02808914334908E-15, 2., -44.));
#220 = CARTESIAN_POINT('', (2.02808914334908E-15, 2., -50.));
#221 = CARTESIAN_POINT('', (2., 2., -44.));
#222 = CARTESIAN_POINT('', (2., 2., -50.));
#223 = CARTESIAN_POINT('', (2., -1.68357985850931E-15, -44.));
#224 = CARTESIAN_POINT('', (2., -1.51704640481554E-15, -50.));
#225 = CARTESIAN_POINT('', (2., -2., -44.));
#226 = CARTESIAN_POINT('', (2., -2., -50.));
#227 = CARTESIAN_POINT('', (-2.22724899336967E-15, -2., -44.));
#228 = CARTESIAN_POINT('', (-2.22724899336967E-15, -2., -50.));
#229 = CARTESIAN_POINT('', (-2., -2., -44.));
#230 = CARTESIAN_POINT('', (-2., -2., -50.));
#231 = CARTESIAN_POINT('', (-2., 2.81668763803891E-15, -44.));
#232 = CARTESIAN_POINT('', (-2., 2.98322109173268E-15, -50.));
#233 = ADVANCED_FACE('', (#234), #237, .T.);
#234 = FACE_OUTER_BOUND('', #235, .T.);
#235 = EDGE_LOOP('', (#236));
#236 = ORIENTED_EDGE('', *, *, #208, .T.);
#237 = B_SPLINE_SURFACE_WITH_KNOTS('', 1, 1, ((#238, #239), (#240, #241)), .UNSPECIFIED., .F., .F., .U., (2, 2), (2, 2), (0.0454545454545455, 0.954545454545454), (0.0454545454545454, 0.954545454545454), .UNSPECIFIED.);
#238 = CARTESIAN_POINT('', (2., -2., -50.));
#239 = CARTESIAN_POINT('', (2., 2., -50.));
#240 = CARTESIAN_POINT('', (-2., -2., -50.));
#241 = CARTESIAN_POINT('', (-2., 2., -50.));
#242 = PRESENTATION_STYLE_ASSIGNMENT((#243));
#243 = SURFACE_STYLE_USAGE(.POSITIVE., #244);
#244 = SURFACE_SIDE_STYLE('', (#245));
#245 = SURFACE_STYLE_FILL_AREA(#246);
#246 = FILL_AREA_STYLE('', (#247));
#247 = FILL_AREA_STYLE_COLOUR('', #248);
#248 = COLOUR_RGB('', 0.8, 0.8, 0.8);
#249 = STYLED_ITEM('', (#242), #175);
#250 = TRIMMED_CURVE('cutting part line', #251, (#255), (#256), .T., .CARTESIAN.);
#251 = LINE('', #252, #253);
#252 = CARTESIAN_POINT('', (-3.88578058618805E-16, 0., -50.));
#253 = VECTOR('', #254, 2.);
#254 = DIRECTION('', (2., 0., 7.105427357601E-15));
#255 = CARTESIAN_POINT('', (-3.88578058618805E-16, 0., -50.));
#256 = CARTESIAN_POINT('', (2., 0., -50.));
#257 = TRIMMED_CURVE('cutting part line', #258, (#262), (#263), .T., .CARTESIAN.);
#258 = LINE('', #259, #260);
#259 = CARTESIAN_POINT('', (2., 1.66508089842153E-16, -50.));
#260 = VECTOR('', #261, 6.);
#261 = DIRECTION('', (0., -1.66508089842153E-16, 6.));
#262 = CARTESIAN_POINT('', (2., 1.66508089842153E-16, -50.));
#263 = CARTESIAN_POINT('', (2., 0., -44.));
#264 = TRIMMED_CURVE('cutting part line', #265, (#269), (#270), .T., .CARTESIAN.);
#265 = LINE('', #266, #267);
#266 = CARTESIAN_POINT('', (2., 0., -44.));
#267 = VECTOR('', #268, 2.);
#268 = DIRECTION('', (-2., 0., 0.));
#269 = CARTESIAN_POINT('', (2., 0., -44.));
#270 = CARTESIAN_POINT('', (0., 0., -44.));
#271 = TRIMMED_CURVE('cutting part line', #272, (#276), (#277), .T., .CARTESIAN.);
#272 = LINE('', #273, #274);
#273 = CARTESIAN_POINT('', (0., 0., -44.));
#274 = VECTOR('', #275, 6.);
#275 = DIRECTION('', (0., 0., -6.));
#276 = CARTESIAN_POINT('', (0., 0., -44.));
#277 = CARTESIAN_POINT('', (0., 0., -50.));
#278 = COMPOSITE_CURVE('cutting part line', (#279, #280, #281, #282), .U.);
#279 = COMPOSITE_CURVE_SEGMENT(.CONTINUOUS., .T., #250);
#280 = COMPOSITE_CURVE_SEGMENT(.CONTINUOUS., .T., #257);
#281 = COMPOSITE_CURVE_SEGMENT(.CONTINUOUS., .T., #264);
#282 = COMPOSITE_CURVE_SEGMENT(.CONTINUOUS., .T., #271);
#283 = GEOMETRIC_SET('', (#278, #321));
#284 = PRESENTATION_STYLE_ASSIGNMENT((#285));
#285 = CURVE_STYLE('', #287, POSITIVE_LENGTH_MEASURE(1.E-6), #286);
#286 = COLOUR_RGB('', 0., 0., 1.);
#287 = DRAUGHTING_PRE_DEFINED_CURVE_FONT('continuous');
#288 = STYLED_ITEM('', (#284), #278);
#289 = PRESENTATION_STYLE_ASSIGNMENT((#290));
#290 = CURVE_STYLE('', #292, POSITIVE_LENGTH_MEASURE(1.E-6), #291);
#291 = COLOUR_RGB('', 0., 0., 1.);
#292 = DRAUGHTING_PRE_DEFINED_CURVE_FONT('continuous');
#293 = OVER_RIDING_STYLED_ITEM('', (#289), #250, #288);
#294 = PRESENTATION_STYLE_ASSIGNMENT((#295));
#295 = CURVE_STYLE('', #297, POSITIVE_LENGTH_MEASURE(1.E-6), #296);
#296 = COLOUR_RGB('', 0., 0., 1.);
#297 = DRAUGHTING_PRE_DEFINED_CURVE_FONT('continuous');
#298 = OVER_RIDING_STYLED_ITEM('', (#294), #257, #288);
#299 = PRESENTATION_STYLE_ASSIGNMENT((#300));
#300 = CURVE_STYLE('', #302, POSITIVE_LENGTH_MEASURE(1.E-6), #301);
#301 = COLOUR_RGB('', 0., 0., 1.);
#302 = DRAUGHTING_PRE_DEFINED_CURVE_FONT('continuous');
#303 = OVER_RIDING_STYLED_ITEM('', (#299), #264, #288);
#304 = PRESENTATION_STYLE_ASSIGNMENT((#305));
#305 = CURVE_STYLE('', #307, POSITIVE_LENGTH_MEASURE(1.E-6), #306);
#306 = COLOUR_RGB('', 0., 0., 1.);
#307 = DRAUGHTING_PRE_DEFINED_CURVE_FONT('continuous');
#308 = OVER_RIDING_STYLED_ITEM('', (#304), #271, #288);
#309 = AXIS2_PLACEMENT_3D('MCS', #310, #311, #312);
#310 = CARTESIAN_POINT('', (0., 0., -28.));
#311 = DIRECTION('', (0., 0., 1.));
#312 = DIRECTION('', (1., 0., 0.));
#313 = AXIS2_PLACEMENT_3D('PCS', #314, #315, #316);
#314 = CARTESIAN_POINT('', (0., 0., 0.));
#315 = DIRECTION('', (0., 0., 1.));
#316 = DIRECTION('', (1., 0., 0.));
#317 = AXIS2_PLACEMENT_3D('CIP', #318, #319, #320);
#318 = CARTESIAN_POINT('', (0., 0., -50.));
#319 = DIRECTION('', (0., 0., 1.));
#320 = DIRECTION('', (1., 0., 0.));
#321 = CARTESIAN_POINT('CRP', (2., 0., -50.));
#322 = (
   GEOMETRIC_REPRESENTATION_CONTEXT (3)
   GLOBAL_UNCERTAINTY_ASSIGNED_CONTEXT ((#324))
   GLOBAL_UNIT_ASSIGNED_CONTEXT ((#323, #325, #326))
   REPRESENTATION_CONTEXT ('', '3D')
);
#323 = (
   LENGTH_UNIT ()
   NAMED_UNIT (*)
   SI_UNIT (.MILLI., .METRE.)
);
#324 = UNCERTAINTY_MEASURE_WITH_UNIT(LENGTH_MEASURE(1.E-6), #323, 'DISTANCE_ACCURACY_VALUE', '');
#325 = (
   NAMED_UNIT (*)
   SI_UNIT ($, .STERADIAN.)
   SOLID_ANGLE_UNIT ()
);
#326 = (
   NAMED_UNIT (*)
   PLANE_ANGLE_UNIT ()
   SI_UNIT ($, .RADIAN.)
);
#327 = SHAPE_REPRESENTATION('', (), #322);
#328 = PRODUCT_DEFINITION_SHAPE('', '', #329);
#329 = PRODUCT_DEFINITION('', '', #332, #336);
#330 = APPLICATION_CONTEXT('configuration controlled 3D designs of mechanical parts and assemblies');
#331 = APPLICATION_PROTOCOL_DEFINITION('International Standard', 'automotive_design', 2002, #330);
#332 = PRODUCT_DEFINITION_FORMATION_WITH_SPECIFIED_SOURCE('', '', #333, .NOT_KNOWN.);
#333 = PRODUCT('product-name', '2P120-0400-NC       H10F', '', (#334));
#334 = PRODUCT_CONTEXT('', #330, 'mechanical');
#335 = PRODUCT_RELATED_PRODUCT_CATEGORY('detail', '', (#333));
#336 = PRODUCT_DEFINITION_CONTEXT('part definition', #330, 'design');
#337 = SHAPE_DEFINITION_REPRESENTATION(#328, #327);
#338 = CONSTRUCTIVE_GEOMETRY_REPRESENTATION('supplemental geometry', (#309, #313, #317), #322);
#339 = CONSTRUCTIVE_GEOMETRY_REPRESENTATION_RELATIONSHIP('', '', #327, #338);
#340 = SHAPE_REPRESENTATION_RELATIONSHIP('', '', #327, #341);
#341 = SHAPE_REPRESENTATION('', (#283), #322);
#342 = SHAPE_REPRESENTATION_RELATIONSHIP('', '', #327, #343);
#343 = ADVANCED_BREP_SHAPE_REPRESENTATION('', (#1, #175), #322);
ENDSEC;
END-ISO-10303-21;
