ISO-10303-21;
HEADER;
FILE_DESCRIPTION(('STEP'), '1');
FILE_NAME('C:\\Users\\ds2002\\OneDrive - Sandvik\\HomeShare\\Documents\\Batchrepair\\CorSRT2\\NEW_MILSQ_SLD\\Output\\MOD000000000000000020082304900000.stp', '2019-01-02T12:10:02', (''), (''), 'Express v3.0.0.0', 'Express Tool', 'Unknown');
FILE_SCHEMA(('AUTOMOTIVE_DESIGN'));
ENDSEC;

DATA;
#1 = MANIFOLD_SOLID_BREP('NOCUT', #2);
#2 = CLOSED_SHELL('', (#3, #50, #70, #109, #148, #157));
#3 = ADVANCED_FACE('', (#4), #31, .T.);
#4 = FACE_OUTER_BOUND('', #5, .T.);
#5 = EDGE_LOOP('', (#6, #16, #23, #24));
#6 = ORIENTED_EDGE('', *, *, #7, .F.);
#7 = EDGE_CURVE('', #8, #10, #12, .T.);
#8 = VERTEX_POINT('', #9);
#9 = CARTESIAN_POINT('', (-1.45, 1.68082773182974E-15, -26.));
#10 = VERTEX_POINT('', #11);
#11 = CARTESIAN_POINT('', (-1.45, 2.17068645148868E-15, -34.));
#12 = LINE('', #13, #14);
#13 = CARTESIAN_POINT('', (-1.45, 1.68082773182974E-15, -26.));
#14 = VECTOR('', #15, 8.);
#15 = DIRECTION('', (0., 4.8985871965894E-16, -8.));
#16 = ORIENTED_EDGE('', *, *, #17, .T.);
#17 = EDGE_CURVE('', #8, #8, #18, .T.);
#18 = CIRCLE('', #19, 1.45);
#19 = AXIS2_PLACEMENT_3D('', #20, #21, #22);
#20 = CARTESIAN_POINT('', (-1.66533453693773E-16, -8.32667268468867E-17, -26.));
#21 = DIRECTION('', (0., 0., -1.));
#22 = DIRECTION('', (-1., 1.21661686805285E-15, 0.));
#23 = ORIENTED_EDGE('', *, *, #7, .T.);
#24 = ORIENTED_EDGE('', *, *, #25, .F.);
#25 = EDGE_CURVE('', #10, #10, #26, .T.);
#26 = CIRCLE('', #27, 1.45);
#27 = AXIS2_PLACEMENT_3D('', #28, #29, #30);
#28 = CARTESIAN_POINT('', (2.42861286636753E-16, 4.71844785465692E-16, -34.));
#29 = DIRECTION('', (0., 0., -1.));
#30 = DIRECTION('', (-1., 1.17161494208482E-15, 0.));
#31 = (
   BOUNDED_SURFACE ()
   B_SPLINE_SURFACE (2, 1, ((#32, #33), (#34, #35), (#36, #37), (#38, #39), (#40, #41), (#42, #43), (#44, #45), (#46, #47), (#48, #49)), .UNSPECIFIED., .T., .F., .U.)
   B_SPLINE_SURFACE_WITH_KNOTS ((3, 2, 2, 2, 3), (2, 2), (0., 2.2776546738526, 4.5553093477052, 6.8329640215578, 9.1106186954104), (0., 1.), .UNSPECIFIED.)
   GEOMETRIC_REPRESENTATION_ITEM ()
   RATIONAL_B_SPLINE_SURFACE (((1., 1.), (0.707106781186548, 0.707106781186548), (1., 1.), (0.707106781186548, 0.707106781186548), (1., 1.), (0.707106781186548, 0.707106781186548), (1., 1.), (0.707106781186548, 0.707106781186548), (1., 1.)))
   REPRESENTATION_ITEM ('')
   SURFACE ()
);
#32 = CARTESIAN_POINT('', (-1.45, 1.68082773182974E-15, -26.));
#33 = CARTESIAN_POINT('', (-1.45, 1.56980542936722E-15, -34.));
#34 = CARTESIAN_POINT('', (-1.45, 1.45, -26.));
#35 = CARTESIAN_POINT('', (-1.45, 1.45, -34.));
#36 = CARTESIAN_POINT('', (7.31617994807061E-16, 1.45, -26.));
#37 = CARTESIAN_POINT('', (7.31617994807061E-16, 1.45, -34.));
#38 = CARTESIAN_POINT('', (1.45, 1.45, -26.));
#39 = CARTESIAN_POINT('', (1.45, 1.45, -34.));
#40 = CARTESIAN_POINT('', (1.45, -3.3751977009696E-16, -26.));
#41 = CARTESIAN_POINT('', (1.45, -4.48542072559475E-16, -34.));
#42 = CARTESIAN_POINT('', (1.45, -1.45, -26.));
#43 = CARTESIAN_POINT('', (1.45, -1.45, -34.));
#44 = CARTESIAN_POINT('', (-1.10915572124327E-15, -1.45, -26.));
#45 = CARTESIAN_POINT('', (-1.10915572124327E-15, -1.45, -34.));
#46 = CARTESIAN_POINT('', (-1.45, -1.45, -26.));
#47 = CARTESIAN_POINT('', (-1.45, -1.45, -34.));
#48 = CARTESIAN_POINT('', (-1.45, 1.68082773182974E-15, -26.));
#49 = CARTESIAN_POINT('', (-1.45, 1.56980542936722E-15, -34.));
#50 = ADVANCED_FACE('', (#51, #62), #65, .T.);
#51 = FACE_OUTER_BOUND('', #52, .T.);
#52 = EDGE_LOOP('', (#53));
#53 = ORIENTED_EDGE('', *, *, #54, .T.);
#54 = EDGE_CURVE('', #55, #55, #57, .T.);
#55 = VERTEX_POINT('', #56);
#56 = CARTESIAN_POINT('', (-1.5, 1.68388934882761E-15, -26.));
#57 = CIRCLE('', #58, 1.5);
#58 = AXIS2_PLACEMENT_3D('', #59, #60, #61);
#59 = CARTESIAN_POINT('', (4.16333634234434E-16, 8.60422844084496E-16, -26.));
#60 = DIRECTION('', (0., 0., -1.));
#61 = DIRECTION('', (-1., 5.48977669828742E-16, 0.));
#62 = FACE_BOUND('', #63, .T.);
#63 = EDGE_LOOP('', (#64));
#64 = ORIENTED_EDGE('', *, *, #17, .F.);
#65 = B_SPLINE_SURFACE_WITH_KNOTS('', 1, 1, ((#66, #67), (#68, #69)), .UNSPECIFIED., .F., .F., .U., (2, 2), (2, 2), (0.0454545454545453, 0.954545454545454), (0.0454545454545451, 0.954545454545455), .UNSPECIFIED.);
#66 = CARTESIAN_POINT('', (1.5, -1.5, -26.));
#67 = CARTESIAN_POINT('', (1.5, 1.5, -26.));
#68 = CARTESIAN_POINT('', (-1.5, -1.5, -26.));
#69 = CARTESIAN_POINT('', (-1.5, 1.5, -26.));
#70 = ADVANCED_FACE('', (#71), #90, .T.);
#71 = FACE_OUTER_BOUND('', #72, .T.);
#72 = EDGE_LOOP('', (#73, #81, #88, #89));
#73 = ORIENTED_EDGE('', *, *, #74, .T.);
#74 = EDGE_CURVE('', #55, #75, #77, .T.);
#75 = VERTEX_POINT('', #76);
#76 = CARTESIAN_POINT('', (-1.5, 1.01033360929657E-16, -0.149999999999999));
#77 = LINE('', #78, #79);
#78 = CARTESIAN_POINT('', (-1.5, 1.68388934882761E-15, -26.));
#79 = VECTOR('', #80, 25.85);
#80 = DIRECTION('', (0., -1.58285598789795E-15, 25.85));
#81 = ORIENTED_EDGE('', *, *, #82, .T.);
#82 = EDGE_CURVE('', #75, #75, #83, .T.);
#83 = CIRCLE('', #84, 1.5);
#84 = AXIS2_PLACEMENT_3D('', #85, #86, #87);
#85 = CARTESIAN_POINT('', (1.52655665885959E-16, -3.60822483003176E-16, -0.149999999999999));
#86 = DIRECTION('', (0., 0., -1.));
#87 = DIRECTION('', (-1., 3.07903895955222E-16, 0.));
#88 = ORIENTED_EDGE('', *, *, #74, .F.);
#89 = ORIENTED_EDGE('', *, *, #54, .F.);
#90 = (
   BOUNDED_SURFACE ()
   B_SPLINE_SURFACE (1, 2, ((#91, #92, #93, #94, #95, #96, #97, #98, #99), (#100, #101, #102, #103, #104, #105, #106, #107, #108)), .UNSPECIFIED., .F., .T., .U.)
   B_SPLINE_SURFACE_WITH_KNOTS ((2, 2), (3, 2, 2, 2, 3), (0., 1.), (0., 2.35619449019235, 4.71238898038469, 7.06858347057704, 9.42477796076938), .UNSPECIFIED.)
   GEOMETRIC_REPRESENTATION_ITEM ()
   RATIONAL_B_SPLINE_SURFACE (((1., 0.707106781186548, 1., 0.707106781186548, 1., 0.707106781186548, 1., 0.707106781186548, 1.), (1., 0.707106781186548, 1., 0.707106781186548, 1., 0.707106781186548, 1., 0.707106781186548, 1.)))
   REPRESENTATION_ITEM ('')
   SURFACE ()
);
#91 = CARTESIAN_POINT('', (-1.5, 9.33700629398524E-16, -26.));
#92 = CARTESIAN_POINT('', (-1.5, 1.5, -26.));
#93 = CARTESIAN_POINT('', (5.22662999882741E-16, 1.5, -26.));
#94 = CARTESIAN_POINT('', (1.5, 1.5, -26.));
#95 = CARTESIAN_POINT('', (1.5, 1.93685961404962E-16, -26.));
#96 = CARTESIAN_POINT('', (1.5, -1.5, -26.));
#97 = CARTESIAN_POINT('', (-3.36546482387191E-17, -1.5, -26.));
#98 = CARTESIAN_POINT('', (-1.5, -1.5, -26.));
#99 = CARTESIAN_POINT('', (-1.5, 9.33700629398524E-16, -26.));
#100 = CARTESIAN_POINT('', (-1.5, 1.01033360929657E-16, -0.149999999999999));
#101 = CARTESIAN_POINT('', (-1.5, 1.5, -0.149999999999999));
#102 = CARTESIAN_POINT('', (5.2266299988274E-16, 1.5, -0.149999999999999));
#103 = CARTESIAN_POINT('', (1.5, 1.5, -0.149999999999999));
#104 = CARTESIAN_POINT('', (1.5, -6.38981307063906E-16, -0.149999999999999));
#105 = CARTESIAN_POINT('', (1.5, -1.5, -0.149999999999999));
#106 = CARTESIAN_POINT('', (-3.36546482387192E-17, -1.5, -0.149999999999999));
#107 = CARTESIAN_POINT('', (-1.5, -1.5, -0.149999999999999));
#108 = CARTESIAN_POINT('', (-1.5, 1.01033360929657E-16, -0.149999999999999));
#109 = ADVANCED_FACE('', (#110), #129, .T.);
#110 = FACE_OUTER_BOUND('', #111, .T.);
#111 = EDGE_LOOP('', (#112, #120, #127, #128));
#112 = ORIENTED_EDGE('', *, *, #113, .T.);
#113 = EDGE_CURVE('', #75, #114, #116, .T.);
#114 = VERTEX_POINT('', #115);
#115 = CARTESIAN_POINT('', (-1.35, 8.26636589424463E-17, 0.));
#116 = LINE('', #117, #118);
#117 = CARTESIAN_POINT('', (-1.5, 1.01033360929657E-16, -0.149999999999999));
#118 = VECTOR('', #119, 0.212132034355963);
#119 = DIRECTION('', (0.15, -1.83697019872107E-17, 0.149999999999999));
#120 = ORIENTED_EDGE('', *, *, #121, .T.);
#121 = EDGE_CURVE('', #114, #114, #122, .T.);
#122 = CIRCLE('', #123, 1.35);
#123 = AXIS2_PLACEMENT_3D('', #124, #125, #126);
#124 = CARTESIAN_POINT('', (4.61436444609831E-16, -6.38378239159465E-16, 7.7875102531819E-16));
#125 = DIRECTION('', (5.76852611346806E-16, -1.54247948769616E-15, -1.));
#126 = DIRECTION('', (-1., 5.34105109705119E-16, -5.76852611346807E-16));
#127 = ORIENTED_EDGE('', *, *, #113, .F.);
#128 = ORIENTED_EDGE('', *, *, #82, .F.);
#129 = (
   BOUNDED_SURFACE ()
   B_SPLINE_SURFACE (1, 2, ((#130, #131, #132, #133, #134, #135, #136, #137, #138), (#139, #140, #141, #142, #143, #144, #145, #146, #147)), .UNSPECIFIED., .F., .T., .U.)
   B_SPLINE_SURFACE_WITH_KNOTS ((2, 2), (3, 2, 2, 2, 3), (0., 1.), (0., 0.25, 0.5, 0.75, 1.), .UNSPECIFIED.)
   GEOMETRIC_REPRESENTATION_ITEM ()
   RATIONAL_B_SPLINE_SURFACE (((1., 0.707106781186548, 1., 0.707106781186548, 1., 0.707106781186548, 1., 0.707106781186548, 1.), (1., 0.707106781186548, 1., 0.707106781186548, 1., 0.707106781186548, 1., 0.707106781186548, 1.)))
   REPRESENTATION_ITEM ('')
   SURFACE ()
);
#130 = CARTESIAN_POINT('', (-1.5, 7.45646513326421E-16, -0.15));
#131 = CARTESIAN_POINT('', (-1.5, 1.5, -0.149999999999994));
#132 = CARTESIAN_POINT('', (1.25727349093348E-15, 1.5, -0.149999999999993));
#133 = CARTESIAN_POINT('', (1.5, 1.5, -0.149999999999992));
#134 = CARTESIAN_POINT('', (1.5, -6.72971795916834E-16, -0.149999999999998));
#135 = CARTESIAN_POINT('', (1.5, -1.5, -0.150000000000004));
#136 = CARTESIAN_POINT('', (2.2352201562331E-17, -1.5, -0.150000000000005));
#137 = CARTESIAN_POINT('', (-1.5, -1.5, -0.150000000000006));
#138 = CARTESIAN_POINT('', (-1.5, 7.45646513326421E-16, -0.15));
#139 = CARTESIAN_POINT('', (-1.35, 8.2663658942446E-17, 1.97215226305253E-31));
#140 = CARTESIAN_POINT('', (-1.35, 1.35, 5.24580379135387E-15));
#141 = CARTESIAN_POINT('', (1.09981468376929E-15, 1.35, 6.02455481667206E-15));
#142 = CARTESIAN_POINT('', (1.35, 1.35, 6.80330584199025E-15));
#143 = CARTESIAN_POINT('', (1.35, -1.19409281937648E-15, 1.55750205063638E-15));
#144 = CARTESIAN_POINT('', (1.35, -1.35, -3.68830174071749E-15));
#145 = CARTESIAN_POINT('', (-1.16144766647383E-17, -1.35, -4.46705276603568E-15));
#146 = CARTESIAN_POINT('', (-1.35, -1.35, -5.24580379135387E-15));
#147 = CARTESIAN_POINT('', (-1.35, 8.2663658942446E-17, 1.97215226305253E-31));
#148 = ADVANCED_FACE('', (#149), #152, .T.);
#149 = FACE_OUTER_BOUND('', #150, .T.);
#150 = EDGE_LOOP('', (#151));
#151 = ORIENTED_EDGE('', *, *, #121, .F.);
#152 = B_SPLINE_SURFACE_WITH_KNOTS('', 1, 1, ((#153, #154), (#155, #156)), .UNSPECIFIED., .F., .F., .U., (2, 2), (2, 2), (0.0454545454545454, 0.954545454545454), (0.0454545454545454, 0.954545454545454), .UNSPECIFIED.);
#153 = CARTESIAN_POINT('', (1.35, -1.35, -8.26636589424464E-17));
#154 = CARTESIAN_POINT('', (-1.35, -1.35, -8.26636589424464E-17));
#155 = CARTESIAN_POINT('', (1.35, 1.35, 8.26636589424463E-17));
#156 = CARTESIAN_POINT('', (-1.35, 1.35, 8.26636589424463E-17));
#157 = ADVANCED_FACE('', (#158), #161, .T.);
#158 = FACE_OUTER_BOUND('', #159, .T.);
#159 = EDGE_LOOP('', (#160));
#160 = ORIENTED_EDGE('', *, *, #25, .T.);
#161 = B_SPLINE_SURFACE_WITH_KNOTS('', 1, 1, ((#162, #163), (#164, #165)), .UNSPECIFIED., .F., .F., .U., (2, 2), (2, 2), (0.496524384970055, 0.534446649524888), (0.465553350475112, 0.503475615029945), .UNSPECIFIED.);
#162 = CARTESIAN_POINT('', (-1.45000000000001, 1.45000000000001, -34.));
#163 = CARTESIAN_POINT('', (-1.45000000000001, -1.44999999999999, -34.));
#164 = CARTESIAN_POINT('', (1.44999999999999, 1.45000000000001, -34.));
#165 = CARTESIAN_POINT('', (1.44999999999999, -1.44999999999999, -34.));
#166 = DRAUGHTING_MODEL('', (#174, #249, #288, #293, #298, #303, #308), #322);
#167 = PRESENTATION_STYLE_ASSIGNMENT((#168));
#168 = SURFACE_STYLE_USAGE(.POSITIVE., #169);
#169 = SURFACE_SIDE_STYLE('', (#170));
#170 = SURFACE_STYLE_FILL_AREA(#171);
#171 = FILL_AREA_STYLE('', (#172));
#172 = FILL_AREA_STYLE_COLOUR('', #173);
#173 = COLOUR_RGB('', 0.50196078431373, 0.50196078431373, 0.50196078431373);
#174 = STYLED_ITEM('', (#167), #1);
#175 = MANIFOLD_SOLID_BREP('CUT', #176);
#176 = CLOSED_SHELL('', (#177, #194, #233));
#177 = ADVANCED_FACE('', (#178), #189, .T.);
#178 = FACE_OUTER_BOUND('', #179, .T.);
#179 = EDGE_LOOP('', (#180));
#180 = ORIENTED_EDGE('', *, *, #181, .F.);
#181 = EDGE_CURVE('', #182, #182, #184, .T.);
#182 = VERTEX_POINT('', #183);
#183 = CARTESIAN_POINT('', (-1.5, 2.17374806848655E-15, -34.));
#184 = CIRCLE('', #185, 1.5);
#185 = AXIS2_PLACEMENT_3D('', #186, #187, #188);
#186 = CARTESIAN_POINT('', (2.77555756156289E-16, 6.10622663543836E-16, -34.));
#187 = DIRECTION('', (0., 0., -1.));
#188 = DIRECTION('', (-1., 1.04208360329514E-15, 0.));
#189 = B_SPLINE_SURFACE_WITH_KNOTS('', 1, 1, ((#190, #191), (#192, #193)), .UNSPECIFIED., .F., .F., .U., (2, 2), (2, 2), (0.0454545454545454, 0.954545454545454), (0.0454545454545455, 0.954545454545454), .UNSPECIFIED.);
#190 = CARTESIAN_POINT('', (1.5, -1.5, -34.));
#191 = CARTESIAN_POINT('', (-1.5, -1.5, -34.));
#192 = CARTESIAN_POINT('', (1.5, 1.5, -34.));
#193 = CARTESIAN_POINT('', (-1.5, 1.5, -34.));
#194 = ADVANCED_FACE('', (#195), #214, .T.);
#195 = FACE_OUTER_BOUND('', #196, .T.);
#196 = EDGE_LOOP('', (#197, #205, #206, #207));
#197 = ORIENTED_EDGE('', *, *, #198, .F.);
#198 = EDGE_CURVE('', #182, #199, #201, .T.);
#199 = VERTEX_POINT('', #200);
#200 = CARTESIAN_POINT('', (-1.5, 2.41867742831602E-15, -38.));
#201 = LINE('', #202, #203);
#202 = CARTESIAN_POINT('', (-1.5, 2.17374806848655E-15, -34.));
#203 = VECTOR('', #204, 4.);
#204 = DIRECTION('', (0., 2.4492935982947E-16, -4.));
#205 = ORIENTED_EDGE('', *, *, #181, .T.);
#206 = ORIENTED_EDGE('', *, *, #198, .T.);
#207 = ORIENTED_EDGE('', *, *, #208, .F.);
#208 = EDGE_CURVE('', #199, #199, #209, .T.);
#209 = CIRCLE('', #210, 1.5);
#210 = AXIS2_PLACEMENT_3D('', #211, #212, #213);
#211 = CARTESIAN_POINT('', (-2.84494650060196E-16, 1.19348975147204E-15, -38.));
#212 = DIRECTION('', (-1.31686382718099E-29, -1.61223931492663E-14, -1.));
#213 = DIRECTION('', (-1., 8.16791784562651E-16, 0.));
#214 = (
   BOUNDED_SURFACE ()
   B_SPLINE_SURFACE (2, 1, ((#215, #216), (#217, #218), (#219, #220), (#221, #222), (#223, #224), (#225, #226), (#227, #228), (#229, #230), (#231, #232)), .UNSPECIFIED., .T., .F., .U.)
   B_SPLINE_SURFACE_WITH_KNOTS ((3, 2, 2, 2, 3), (2, 2), (0., 2.35619449019235, 4.71238898038469, 7.06858347057704, 9.42477796076938), (0., 1.), .UNSPECIFIED.)
   GEOMETRIC_REPRESENTATION_ITEM ()
   RATIONAL_B_SPLINE_SURFACE (((1., 1.), (0.707106781186548, 0.707106781186548), (1., 1.), (0.707106781186548, 0.707106781186548), (1., 1.), (0.707106781186548, 0.707106781186548), (1., 1.), (0.707106781186548, 0.707106781186548), (1., 1.)))
   REPRESENTATION_ITEM ('')
   SURFACE ()
);
#215 = CARTESIAN_POINT('', (-1.5, 2.17374806848655E-15, -34.));
#216 = CARTESIAN_POINT('', (-1.5, 2.36803709779595E-15, -38.));
#217 = CARTESIAN_POINT('', (-1.5, 1.5, -34.));
#218 = CARTESIAN_POINT('', (-1.5, 1.5, -38.));
#219 = CARTESIAN_POINT('', (8.05143080231569E-16, 1.5, -34.));
#220 = CARTESIAN_POINT('', (8.05143080231569E-16, 1.5, -38.));
#221 = CARTESIAN_POINT('', (1.5, 1.5, -34.));
#222 = CARTESIAN_POINT('', (1.5, 1.5, -38.));
#223 = CARTESIAN_POINT('', (1.5, 8.35039571083428E-18, -34.));
#224 = CARTESIAN_POINT('', (1.5, 2.02639425020237E-16, -38.));
#225 = CARTESIAN_POINT('', (1.5, -1.5, -34.));
#226 = CARTESIAN_POINT('', (1.5, -1.5, -38.));
#227 = CARTESIAN_POINT('', (-1.17655757267204E-15, -1.5, -34.));
#228 = CARTESIAN_POINT('', (-1.17655757267204E-15, -1.5, -38.));
#229 = CARTESIAN_POINT('', (-1.5, -1.5, -34.));
#230 = CARTESIAN_POINT('', (-1.5, -1.5, -38.));
#231 = CARTESIAN_POINT('', (-1.5, 2.17374806848655E-15, -34.));
#232 = CARTESIAN_POINT('', (-1.5, 2.36803709779595E-15, -38.));
#233 = ADVANCED_FACE('', (#234), #237, .T.);
#234 = FACE_OUTER_BOUND('', #235, .T.);
#235 = EDGE_LOOP('', (#236));
#236 = ORIENTED_EDGE('', *, *, #208, .T.);
#237 = B_SPLINE_SURFACE_WITH_KNOTS('', 1, 1, ((#238, #239), (#240, #241)), .UNSPECIFIED., .F., .F., .U., (2, 2), (2, 2), (0.0454545454545455, 0.954545454545455), (0.0454545454545454, 0.954545454545455), .UNSPECIFIED.);
#238 = CARTESIAN_POINT('', (1.5, -1.5, -38.));
#239 = CARTESIAN_POINT('', (1.5, 1.5, -38.));
#240 = CARTESIAN_POINT('', (-1.5, -1.5, -38.));
#241 = CARTESIAN_POINT('', (-1.5, 1.5, -38.));
#242 = PRESENTATION_STYLE_ASSIGNMENT((#243));
#243 = SURFACE_STYLE_USAGE(.POSITIVE., #244);
#244 = SURFACE_SIDE_STYLE('', (#245));
#245 = SURFACE_STYLE_FILL_AREA(#246);
#246 = FILL_AREA_STYLE('', (#247));
#247 = FILL_AREA_STYLE_COLOUR('', #248);
#248 = COLOUR_RGB('', 0.8, 0.8, 0.8);
#249 = STYLED_ITEM('', (#242), #175);
#250 = TRIMMED_CURVE('cutting part line', #251, (#255), (#256), .T., .CARTESIAN.);
#251 = LINE('', #252, #253);
#252 = CARTESIAN_POINT('', (1.2490009027033E-16, 0., -38.));
#253 = VECTOR('', #254, 1.5);
#254 = DIRECTION('', (1.5, 0., 0.));
#255 = CARTESIAN_POINT('', (1.2490009027033E-16, 0., -38.));
#256 = CARTESIAN_POINT('', (1.5, 0., -38.));
#257 = TRIMMED_CURVE('cutting part line', #258, (#262), (#263), .T., .CARTESIAN.);
#258 = LINE('', #259, #260);
#259 = CARTESIAN_POINT('', (1.5, 1.94259438149179E-16, -38.));
#260 = VECTOR('', #261, 4.);
#261 = DIRECTION('', (0., -1.94259438149179E-16, 4.));
#262 = CARTESIAN_POINT('', (1.5, 1.94259438149179E-16, -38.));
#263 = CARTESIAN_POINT('', (1.5, 0., -34.));
#264 = TRIMMED_CURVE('cutting part line', #265, (#269), (#270), .T., .CARTESIAN.);
#265 = LINE('', #266, #267);
#266 = CARTESIAN_POINT('', (1.5, 0., -34.));
#267 = VECTOR('', #268, 1.5);
#268 = DIRECTION('', (-1.5, 0., 0.));
#269 = CARTESIAN_POINT('', (1.5, 0., -34.));
#270 = CARTESIAN_POINT('', (3.46944695195361E-18, 0., -34.));
#271 = TRIMMED_CURVE('cutting part line', #272, (#276), (#277), .T., .CARTESIAN.);
#272 = LINE('', #273, #274);
#273 = CARTESIAN_POINT('', (0., 0., -34.));
#274 = VECTOR('', #275, 4.);
#275 = DIRECTION('', (0., 0., -4.));
#276 = CARTESIAN_POINT('', (0., 0., -34.));
#277 = CARTESIAN_POINT('', (0., 0., -38.));
#278 = COMPOSITE_CURVE('cutting part line', (#279, #280, #281, #282), .U.);
#279 = COMPOSITE_CURVE_SEGMENT(.CONTINUOUS., .T., #250);
#280 = COMPOSITE_CURVE_SEGMENT(.CONTINUOUS., .T., #257);
#281 = COMPOSITE_CURVE_SEGMENT(.CONTINUOUS., .T., #264);
#282 = COMPOSITE_CURVE_SEGMENT(.CONTINUOUS., .T., #271);
#283 = GEOMETRIC_SET('', (#278, #321));
#284 = PRESENTATION_STYLE_ASSIGNMENT((#285));
#285 = CURVE_STYLE('', #287, POSITIVE_LENGTH_MEASURE(1.E-6), #286);
#286 = COLOUR_RGB('', 0., 0., 1.);
#287 = DRAUGHTING_PRE_DEFINED_CURVE_FONT('continuous');
#288 = STYLED_ITEM('', (#284), #278);
#289 = PRESENTATION_STYLE_ASSIGNMENT((#290));
#290 = CURVE_STYLE('', #292, POSITIVE_LENGTH_MEASURE(1.E-6), #291);
#291 = COLOUR_RGB('', 0., 0., 1.);
#292 = DRAUGHTING_PRE_DEFINED_CURVE_FONT('continuous');
#293 = OVER_RIDING_STYLED_ITEM('', (#289), #250, #288);
#294 = PRESENTATION_STYLE_ASSIGNMENT((#295));
#295 = CURVE_STYLE('', #297, POSITIVE_LENGTH_MEASURE(1.E-6), #296);
#296 = COLOUR_RGB('', 0., 0., 1.);
#297 = DRAUGHTING_PRE_DEFINED_CURVE_FONT('continuous');
#298 = OVER_RIDING_STYLED_ITEM('', (#294), #257, #288);
#299 = PRESENTATION_STYLE_ASSIGNMENT((#300));
#300 = CURVE_STYLE('', #302, POSITIVE_LENGTH_MEASURE(1.E-6), #301);
#301 = COLOUR_RGB('', 0., 0., 1.);
#302 = DRAUGHTING_PRE_DEFINED_CURVE_FONT('continuous');
#303 = OVER_RIDING_STYLED_ITEM('', (#299), #264, #288);
#304 = PRESENTATION_STYLE_ASSIGNMENT((#305));
#305 = CURVE_STYLE('', #307, POSITIVE_LENGTH_MEASURE(1.E-6), #306);
#306 = COLOUR_RGB('', 0., 0., 1.);
#307 = DRAUGHTING_PRE_DEFINED_CURVE_FONT('continuous');
#308 = OVER_RIDING_STYLED_ITEM('', (#304), #271, #288);
#309 = AXIS2_PLACEMENT_3D('MCS', #310, #311, #312);
#310 = CARTESIAN_POINT('', (0., 0., -28.));
#311 = DIRECTION('', (0., 0., 1.));
#312 = DIRECTION('', (1., 0., 0.));
#313 = AXIS2_PLACEMENT_3D('PCS', #314, #315, #316);
#314 = CARTESIAN_POINT('', (0., 0., 0.));
#315 = DIRECTION('', (0., 0., 1.));
#316 = DIRECTION('', (1., 0., 0.));
#317 = AXIS2_PLACEMENT_3D('CIP', #318, #319, #320);
#318 = CARTESIAN_POINT('', (0., 0., -38.));
#319 = DIRECTION('', (0., 0., 1.));
#320 = DIRECTION('', (1., 0., 0.));
#321 = CARTESIAN_POINT('CRP', (1.5, 0., -38.));
#322 = (
   GEOMETRIC_REPRESENTATION_CONTEXT (3)
   GLOBAL_UNCERTAINTY_ASSIGNED_CONTEXT ((#324))
   GLOBAL_UNIT_ASSIGNED_CONTEXT ((#323, #325, #326))
   REPRESENTATION_CONTEXT ('', '3D')
);
#323 = (
   LENGTH_UNIT ()
   NAMED_UNIT (*)
   SI_UNIT (.MILLI., .METRE.)
);
#324 = UNCERTAINTY_MEASURE_WITH_UNIT(LENGTH_MEASURE(1.E-6), #323, 'DISTANCE_ACCURACY_VALUE', '');
#325 = (
   NAMED_UNIT (*)
   SI_UNIT ($, .STERADIAN.)
   SOLID_ANGLE_UNIT ()
);
#326 = (
   NAMED_UNIT (*)
   PLANE_ANGLE_UNIT ()
   SI_UNIT ($, .RADIAN.)
);
#327 = SHAPE_REPRESENTATION('', (), #322);
#328 = PRODUCT_DEFINITION_SHAPE('', '', #329);
#329 = PRODUCT_DEFINITION('', '', #332, #336);
#330 = APPLICATION_CONTEXT('configuration controlled 3D designs of mechanical parts and assemblies');
#331 = APPLICATION_PROTOCOL_DEFINITION('International Standard', 'automotive_design', 2002, #330);
#332 = PRODUCT_DEFINITION_FORMATION_WITH_SPECIFIED_SOURCE('', '', #333, .NOT_KNOWN.);
#333 = PRODUCT('product-name', '2P120-0300-NC       H10F', '', (#334));
#334 = PRODUCT_CONTEXT('', #330, 'mechanical');
#335 = PRODUCT_RELATED_PRODUCT_CATEGORY('detail', '', (#333));
#336 = PRODUCT_DEFINITION_CONTEXT('part definition', #330, 'design');
#337 = SHAPE_DEFINITION_REPRESENTATION(#328, #327);
#338 = CONSTRUCTIVE_GEOMETRY_REPRESENTATION('supplemental geometry', (#309, #313, #317), #322);
#339 = CONSTRUCTIVE_GEOMETRY_REPRESENTATION_RELATIONSHIP('', '', #327, #338);
#340 = SHAPE_REPRESENTATION_RELATIONSHIP('', '', #327, #341);
#341 = SHAPE_REPRESENTATION('', (#283), #322);
#342 = SHAPE_REPRESENTATION_RELATIONSHIP('', '', #327, #343);
#343 = ADVANCED_BREP_SHAPE_REPRESENTATION('', (#1, #175), #322);
ENDSEC;
END-ISO-10303-21;
