ISO-10303-21;
HEADER;
FILE_DESCRIPTION(('STEP'), '1');
FILE_NAME('C:\\Users\\ds2002\\OneDrive - Sandvik\\HomeShare\\Documents\\Batchrepair\\CorSRT2\\NEW_MILSQ_SLD\\Output\\MOD000000000000000020082304800000.stp', '2019-01-02T12:09:59', (''), (''), 'Express v3.0.0.0', 'Express Tool', 'Unknown');
FILE_SCHEMA(('AUTOMOTIVE_DESIGN'));
ENDSEC;

DATA;
#1 = MANIFOLD_SOLID_BREP('NOCUT', #2);
#2 = CLOSED_SHELL('', (#3, #50, #89, #128, #167, #176));
#3 = ADVANCED_FACE('', (#4), #31, .T.);
#4 = FACE_OUTER_BOUND('', #5, .T.);
#5 = EDGE_LOOP('', (#6, #16, #23, #24));
#6 = ORIENTED_EDGE('', *, *, #7, .F.);
#7 = EDGE_CURVE('', #8, #10, #12, .T.);
#8 = VERTEX_POINT('', #9);
#9 = CARTESIAN_POINT('', (-0.96, 1.83452090512273E-15, -29.));
#10 = VERTEX_POINT('', #11);
#11 = CARTESIAN_POINT('', (-0.96, 2.20191494486694E-15, -35.));
#12 = LINE('', #13, #14);
#13 = CARTESIAN_POINT('', (-0.96, 1.83452090512274E-15, -29.));
#14 = VECTOR('', #15, 6.);
#15 = DIRECTION('', (0., 3.673940397442E-16, -6.));
#16 = ORIENTED_EDGE('', *, *, #17, .T.);
#17 = EDGE_CURVE('', #8, #8, #18, .T.);
#18 = CIRCLE('', #19, 0.96);
#19 = AXIS2_PLACEMENT_3D('', #20, #21, #22);
#20 = CARTESIAN_POINT('', (-1.97758476261356E-16, 1.58206781009085E-15, -29.));
#21 = DIRECTION('', (0., 0., -1.));
#22 = DIRECTION('', (-1., 2.62971973991554E-16, 0.));
#23 = ORIENTED_EDGE('', *, *, #7, .T.);
#24 = ORIENTED_EDGE('', *, *, #25, .F.);
#25 = EDGE_CURVE('', #10, #10, #26, .T.);
#26 = CIRCLE('', #27, 0.96);
#27 = AXIS2_PLACEMENT_3D('', #28, #29, #30);
#28 = CARTESIAN_POINT('', (-1.38777878078145E-16, 1.80411241501588E-15, -35.));
#29 = DIRECTION('', (0., 0., -1.));
#30 = DIRECTION('', (-1., 4.14377635261521E-16, 0.));
#31 = (
   BOUNDED_SURFACE ()
   B_SPLINE_SURFACE (2, 1, ((#32, #33), (#34, #35), (#36, #37), (#38, #39), (#40, #41), (#42, #43), (#44, #45), (#46, #47), (#48, #49)), .UNSPECIFIED., .T., .F., .U.)
   B_SPLINE_SURFACE_WITH_KNOTS ((3, 2, 2, 2, 3), (2, 2), (0., 1.5079644737231, 3.0159289474462, 4.5238934211693, 6.0318578948924), (0., 1.), .UNSPECIFIED.)
   GEOMETRIC_REPRESENTATION_ITEM ()
   RATIONAL_B_SPLINE_SURFACE (((1., 1.), (0.707106781186548, 0.707106781186548), (1., 1.), (0.707106781186548, 0.707106781186548), (1., 1.), (0.707106781186548, 0.707106781186548), (1., 1.), (0.707106781186548, 0.707106781186548), (1., 1.)))
   REPRESENTATION_ITEM ('')
   SURFACE ()
);
#32 = CARTESIAN_POINT('', (-0.96, 1.83452090512274E-15, -29.));
#33 = CARTESIAN_POINT('', (-0.96, 2.30636569058843E-15, -35.));
#34 = CARTESIAN_POINT('', (-0.96, 0.960000000000002, -29.));
#35 = CARTESIAN_POINT('', (-0.96, 0.960000000000002, -35.));
#36 = CARTESIAN_POINT('', (3.04692351135335E-16, 0.960000000000001, -29.));
#37 = CARTESIAN_POINT('', (3.04692351135335E-16, 0.960000000000002, -35.));
#38 = CARTESIAN_POINT('', (0.96, 0.960000000000001, -29.));
#39 = CARTESIAN_POINT('', (0.96, 0.960000000000001, -35.));
#40 = CARTESIAN_POINT('', (0.96, 9.47580446695782E-16, -29.));
#41 = CARTESIAN_POINT('', (0.96, 1.41942523216147E-15, -35.));
#42 = CARTESIAN_POINT('', (0.96, -0.959999999999999, -29.));
#43 = CARTESIAN_POINT('', (0.96, -0.959999999999998, -35.));
#44 = CARTESIAN_POINT('', (-4.64682014573478E-16, -0.959999999999999, -29.));
#45 = CARTESIAN_POINT('', (-4.64682014573478E-16, -0.959999999999998, -35.));
#46 = CARTESIAN_POINT('', (-0.96, -0.959999999999998, -29.));
#47 = CARTESIAN_POINT('', (-0.96, -0.959999999999998, -35.));
#48 = CARTESIAN_POINT('', (-0.96, 1.83452090512274E-15, -29.));
#49 = CARTESIAN_POINT('', (-0.96, 2.30636569058843E-15, -35.));
#50 = ADVANCED_FACE('', (#51), #70, .T.);
#51 = FACE_OUTER_BOUND('', #52, .T.);
#52 = EDGE_LOOP('', (#53, #61, #68, #69));
#53 = ORIENTED_EDGE('', *, *, #54, .F.);
#54 = EDGE_CURVE('', #55, #8, #57, .T.);
#55 = VERTEX_POINT('', #56);
#56 = CARTESIAN_POINT('', (-1.5, 1.80635402874235E-15, -28.));
#57 = LINE('', #58, #59);
#58 = CARTESIAN_POINT('', (-1.5, 1.80635402874235E-15, -28.));
#59 = VECTOR('', #60, 1.13648581161403);
#60 = DIRECTION('', (0.54, 2.81668763803898E-17, -1.));
#61 = ORIENTED_EDGE('', *, *, #62, .T.);
#62 = EDGE_CURVE('', #55, #55, #63, .T.);
#63 = CIRCLE('', #64, 1.5);
#64 = AXIS2_PLACEMENT_3D('', #65, #66, #67);
#65 = CARTESIAN_POINT('', (4.09394740330526E-16, 9.43689570931383E-16, -28.));
#66 = DIRECTION('', (2.368475785867E-15, -7.7054015253353E-15, -1.));
#67 = DIRECTION('', (-1., 5.75109638540645E-16, -2.368475785867E-15));
#68 = ORIENTED_EDGE('', *, *, #54, .T.);
#69 = ORIENTED_EDGE('', *, *, #17, .F.);
#70 = (
   BOUNDED_SURFACE ()
   B_SPLINE_SURFACE (2, 1, ((#71, #72), (#73, #74), (#75, #76), (#77, #78), (#79, #80), (#81, #82), (#83, #84), (#85, #86), (#87, #88)), .UNSPECIFIED., .T., .F., .U.)
   B_SPLINE_SURFACE_WITH_KNOTS ((3, 2, 2, 2, 3), (2, 2), (0., 0.25, 0.5, 0.75, 1.), (0., 1.), .UNSPECIFIED.)
   GEOMETRIC_REPRESENTATION_ITEM ()
   RATIONAL_B_SPLINE_SURFACE (((1., 1.), (0.707106781186548, 0.707106781186548), (1., 1.), (0.707106781186548, 0.707106781186548), (1., 1.), (0.707106781186548, 0.707106781186548), (1., 1.), (0.707106781186548, 0.707106781186548), (1., 1.)))
   REPRESENTATION_ITEM ('')
   SURFACE ()
);
#71 = CARTESIAN_POINT('', (-1.5, 1.80635402874235E-15, -28.));
#72 = CARTESIAN_POINT('', (-0.959999999999997, 2.13417306308986E-15, -29.));
#73 = CARTESIAN_POINT('', (-1.5, 1.5, -28.));
#74 = CARTESIAN_POINT('', (-0.959999999999997, 0.960000000000002, -29.));
#75 = CARTESIAN_POINT('', (1.18021068820544E-15, 1.5, -28.));
#76 = CARTESIAN_POINT('', (3.27119273283748E-15, 0.960000000000002, -29.));
#77 = CARTESIAN_POINT('', (1.5, 1.5, -28.));
#78 = CARTESIAN_POINT('', (0.960000000000003, 0.960000000000001, -29.));
#79 = CARTESIAN_POINT('', (1.5, 2.64722132992519E-16, -28.));
#80 = CARTESIAN_POINT('', (0.960000000000003, 1.14752864980998E-15, -29.));
#81 = CARTESIAN_POINT('', (1.5, -1.5, -28.));
#82 = CARTESIAN_POINT('', (0.960000000000002, -0.959999999999999, -29.));
#83 = CARTESIAN_POINT('', (-1.77724187672284E-16, -1.5, -28.));
#84 = CARTESIAN_POINT('', (2.40211441227574E-15, -0.959999999999998, -29.));
#85 = CARTESIAN_POINT('', (-1.5, -1.5, -28.));
#86 = CARTESIAN_POINT('', (-0.959999999999998, -0.959999999999998, -29.));
#87 = CARTESIAN_POINT('', (-1.5, 1.80635402874235E-15, -28.));
#88 = CARTESIAN_POINT('', (-0.959999999999997, 2.13417306308986E-15, -29.));
#89 = ADVANCED_FACE('', (#90), #109, .T.);
#90 = FACE_OUTER_BOUND('', #91, .T.);
#91 = EDGE_LOOP('', (#92, #100, #107, #108));
#92 = ORIENTED_EDGE('', *, *, #93, .T.);
#93 = EDGE_CURVE('', #55, #94, #96, .T.);
#94 = VERTEX_POINT('', #95);
#95 = CARTESIAN_POINT('', (-1.5, 1.01033360929657E-16, -0.149999999999999));
#96 = LINE('', #97, #98);
#97 = CARTESIAN_POINT('', (-1.5, 1.80635402874235E-15, -28.));
#98 = VECTOR('', #99, 27.85);
#99 = DIRECTION('', (0., -1.70532066781269E-15, 27.85));
#100 = ORIENTED_EDGE('', *, *, #101, .T.);
#101 = EDGE_CURVE('', #94, #94, #102, .T.);
#102 = CIRCLE('', #103, 1.5);
#103 = AXIS2_PLACEMENT_3D('', #104, #105, #106);
#104 = CARTESIAN_POINT('', (1.52655665885959E-16, -3.60822483003176E-16, -0.149999999999999));
#105 = DIRECTION('', (0., 0., -1.));
#106 = DIRECTION('', (-1., 3.07903895955222E-16, 0.));
#107 = ORIENTED_EDGE('', *, *, #93, .F.);
#108 = ORIENTED_EDGE('', *, *, #62, .F.);
#109 = (
   BOUNDED_SURFACE ()
   B_SPLINE_SURFACE (1, 2, ((#110, #111, #112, #113, #114, #115, #116, #117, #118), (#119, #120, #121, #122, #123, #124, #125, #126, #127)), .UNSPECIFIED., .F., .T., .U.)
   B_SPLINE_SURFACE_WITH_KNOTS ((2, 2), (3, 2, 2, 2, 3), (0., 1.), (0., 2.35619449019235, 4.71238898038469, 7.06858347057704, 9.42477796076938), .UNSPECIFIED.)
   GEOMETRIC_REPRESENTATION_ITEM ()
   RATIONAL_B_SPLINE_SURFACE (((1., 0.707106781186548, 1., 0.707106781186548, 1., 0.707106781186548, 1., 0.707106781186548, 1.), (1., 0.707106781186548, 1., 0.707106781186548, 1., 0.707106781186548, 1., 0.707106781186548, 1.)))
   REPRESENTATION_ITEM ('')
   SURFACE ()
);
#110 = CARTESIAN_POINT('', (-1.5, 1.01696735624541E-15, -28.));
#111 = CARTESIAN_POINT('', (-1.5, 1.5, -28.));
#112 = CARTESIAN_POINT('', (5.22662999882741E-16, 1.5, -28.));
#113 = CARTESIAN_POINT('', (1.5, 1.5, -28.));
#114 = CARTESIAN_POINT('', (1.5, 2.76952688251848E-16, -28.));
#115 = CARTESIAN_POINT('', (1.5, -1.5, -28.));
#116 = CARTESIAN_POINT('', (-3.36546482387189E-17, -1.5, -28.));
#117 = CARTESIAN_POINT('', (-1.5, -1.5, -28.));
#118 = CARTESIAN_POINT('', (-1.5, 1.01696735624541E-15, -28.));
#119 = CARTESIAN_POINT('', (-1.5, 1.01033360929657E-16, -0.149999999999999));
#120 = CARTESIAN_POINT('', (-1.5, 1.5, -0.149999999999999));
#121 = CARTESIAN_POINT('', (5.2266299988274E-16, 1.5, -0.149999999999999));
#122 = CARTESIAN_POINT('', (1.5, 1.5, -0.149999999999999));
#123 = CARTESIAN_POINT('', (1.5, -6.38981307063906E-16, -0.149999999999999));
#124 = CARTESIAN_POINT('', (1.5, -1.5, -0.149999999999999));
#125 = CARTESIAN_POINT('', (-3.36546482387192E-17, -1.5, -0.149999999999999));
#126 = CARTESIAN_POINT('', (-1.5, -1.5, -0.149999999999999));
#127 = CARTESIAN_POINT('', (-1.5, 1.01033360929657E-16, -0.149999999999999));
#128 = ADVANCED_FACE('', (#129), #148, .T.);
#129 = FACE_OUTER_BOUND('', #130, .T.);
#130 = EDGE_LOOP('', (#131, #139, #146, #147));
#131 = ORIENTED_EDGE('', *, *, #132, .T.);
#132 = EDGE_CURVE('', #94, #133, #135, .T.);
#133 = VERTEX_POINT('', #134);
#134 = CARTESIAN_POINT('', (-1.35, 8.26636589424463E-17, 0.));
#135 = LINE('', #136, #137);
#136 = CARTESIAN_POINT('', (-1.5, 1.01033360929657E-16, -0.149999999999999));
#137 = VECTOR('', #138, 0.212132034355963);
#138 = DIRECTION('', (0.15, -1.83697019872107E-17, 0.149999999999999));
#139 = ORIENTED_EDGE('', *, *, #140, .T.);
#140 = EDGE_CURVE('', #133, #133, #141, .T.);
#141 = CIRCLE('', #142, 1.35);
#142 = AXIS2_PLACEMENT_3D('', #143, #144, #145);
#143 = CARTESIAN_POINT('', (4.61436444609831E-16, -6.38378239159465E-16, -7.7875102531819E-16));
#144 = DIRECTION('', (-5.76852611346806E-16, 1.6649441676109E-15, -1.));
#145 = DIRECTION('', (-1., 5.34105109705119E-16, 5.76852611346807E-16));
#146 = ORIENTED_EDGE('', *, *, #132, .F.);
#147 = ORIENTED_EDGE('', *, *, #101, .F.);
#148 = (
   BOUNDED_SURFACE ()
   B_SPLINE_SURFACE (1, 2, ((#149, #150, #151, #152, #153, #154, #155, #156, #157), (#158, #159, #160, #161, #162, #163, #164, #165, #166)), .UNSPECIFIED., .F., .T., .U.)
   B_SPLINE_SURFACE_WITH_KNOTS ((2, 2), (3, 2, 2, 2, 3), (0., 1.), (0., 0.25, 0.5, 0.75, 1.), .UNSPECIFIED.)
   GEOMETRIC_REPRESENTATION_ITEM ()
   RATIONAL_B_SPLINE_SURFACE (((1., 0.707106781186548, 1., 0.707106781186548, 1., 0.707106781186548, 1., 0.707106781186548, 1.), (1., 0.707106781186548, 1., 0.707106781186548, 1., 0.707106781186548, 1., 0.707106781186548, 1.)))
   REPRESENTATION_ITEM ('')
   SURFACE ()
);
#149 = CARTESIAN_POINT('', (-1.5, 7.45646513326421E-16, -0.149999999999998));
#150 = CARTESIAN_POINT('', (-1.5, 1.5, -0.149999999999992));
#151 = CARTESIAN_POINT('', (1.08421770752944E-15, 1.5, -0.149999999999993));
#152 = CARTESIAN_POINT('', (1.5, 1.5, -0.149999999999994));
#153 = CARTESIAN_POINT('', (1.5, -6.72971795916834E-16, -0.15));
#154 = CARTESIAN_POINT('', (1.5, -1.5, -0.150000000000006));
#155 = CARTESIAN_POINT('', (-1.50703581841717E-16, -1.5, -0.150000000000005));
#156 = CARTESIAN_POINT('', (-1.5, -1.5, -0.150000000000004));
#157 = CARTESIAN_POINT('', (-1.5, 7.45646513326421E-16, -0.149999999999998));
#158 = CARTESIAN_POINT('', (-1.35, 8.2663658942446E-17, -2.95822839457879E-31));
#159 = CARTESIAN_POINT('', (-1.35, 1.35, 5.24580379135393E-15));
#160 = CARTESIAN_POINT('', (1.0998146837693E-15, 1.35, 4.46705276603574E-15));
#161 = CARTESIAN_POINT('', (1.35, 1.35, 3.68830174071755E-15));
#162 = CARTESIAN_POINT('', (1.35, -1.19409281937648E-15, -1.55750205063638E-15));
#163 = CARTESIAN_POINT('', (1.35, -1.35, -6.80330584199031E-15));
#164 = CARTESIAN_POINT('', (-1.16144766647444E-17, -1.35, -6.02455481667212E-15));
#165 = CARTESIAN_POINT('', (-1.35, -1.35, -5.24580379135393E-15));
#166 = CARTESIAN_POINT('', (-1.35, 8.2663658942446E-17, -2.95822839457879E-31));
#167 = ADVANCED_FACE('', (#168), #171, .T.);
#168 = FACE_OUTER_BOUND('', #169, .T.);
#169 = EDGE_LOOP('', (#170));
#170 = ORIENTED_EDGE('', *, *, #140, .F.);
#171 = B_SPLINE_SURFACE_WITH_KNOTS('', 1, 1, ((#172, #173), (#174, #175)), .UNSPECIFIED., .F., .F., .U., (2, 2), (2, 2), (0.0454545454545454, 0.954545454545454), (0.0454545454545454, 0.954545454545454), .UNSPECIFIED.);
#172 = CARTESIAN_POINT('', (1.35, -1.35, -8.26636589424464E-17));
#173 = CARTESIAN_POINT('', (-1.35, -1.35, -8.26636589424463E-17));
#174 = CARTESIAN_POINT('', (1.35, 1.35, 8.26636589424463E-17));
#175 = CARTESIAN_POINT('', (-1.35, 1.35, 8.26636589424464E-17));
#176 = ADVANCED_FACE('', (#177), #180, .T.);
#177 = FACE_OUTER_BOUND('', #178, .T.);
#178 = EDGE_LOOP('', (#179));
#179 = ORIENTED_EDGE('', *, *, #25, .T.);
#180 = B_SPLINE_SURFACE_WITH_KNOTS('', 1, 1, ((#181, #182), (#183, #184)), .UNSPECIFIED., .F., .F., .U., (2, 2), (2, 2), (0.503964307832025, 0.529071462295914), (0.470928537704085, 0.496035692167975), .UNSPECIFIED.);
#181 = CARTESIAN_POINT('', (-0.960000000000008, 0.960000000000008, -35.));
#182 = CARTESIAN_POINT('', (-0.960000000000008, -0.959999999999994, -35.));
#183 = CARTESIAN_POINT('', (0.959999999999994, 0.960000000000008, -35.));
#184 = CARTESIAN_POINT('', (0.959999999999994, -0.959999999999994, -35.));
#185 = DRAUGHTING_MODEL('', (#193, #268, #307, #312, #317, #322, #327), #341);
#186 = PRESENTATION_STYLE_ASSIGNMENT((#187));
#187 = SURFACE_STYLE_USAGE(.POSITIVE., #188);
#188 = SURFACE_SIDE_STYLE('', (#189));
#189 = SURFACE_STYLE_FILL_AREA(#190);
#190 = FILL_AREA_STYLE('', (#191));
#191 = FILL_AREA_STYLE_COLOUR('', #192);
#192 = COLOUR_RGB('', 0.50196078431373, 0.50196078431373, 0.50196078431373);
#193 = STYLED_ITEM('', (#186), #1);
#194 = MANIFOLD_SOLID_BREP('CUT', #195);
#195 = CLOSED_SHELL('', (#196, #213, #252));
#196 = ADVANCED_FACE('', (#197), #208, .T.);
#197 = FACE_OUTER_BOUND('', #198, .T.);
#198 = EDGE_LOOP('', (#199));
#199 = ORIENTED_EDGE('', *, *, #200, .F.);
#200 = EDGE_CURVE('', #201, #201, #203, .T.);
#201 = VERTEX_POINT('', #202);
#202 = CARTESIAN_POINT('', (-1., 2.20436423846524E-15, -35.));
#203 = CIRCLE('', #204, 1.);
#204 = AXIS2_PLACEMENT_3D('', #205, #206, #207);
#205 = CARTESIAN_POINT('', (1.31838984174237E-16, 1.49880108324396E-15, -35.));
#206 = DIRECTION('', (0., 0., -1.));
#207 = DIRECTION('', (-1., 7.05563155221279E-16, 0.));
#208 = B_SPLINE_SURFACE_WITH_KNOTS('', 1, 1, ((#209, #210), (#211, #212)), .UNSPECIFIED., .F., .F., .U., (2, 2), (2, 2), (0.0454545454545453, 0.954545454545454), (0.0454545454545455, 0.954545454545454), .UNSPECIFIED.);
#209 = CARTESIAN_POINT('', (1., -0.999999999999998, -35.));
#210 = CARTESIAN_POINT('', (-1., -0.999999999999998, -35.));
#211 = CARTESIAN_POINT('', (1., 1., -35.));
#212 = CARTESIAN_POINT('', (-1., 1., -35.));
#213 = ADVANCED_FACE('', (#214), #233, .T.);
#214 = FACE_OUTER_BOUND('', #215, .T.);
#215 = EDGE_LOOP('', (#216, #224, #225, #226));
#216 = ORIENTED_EDGE('', *, *, #217, .F.);
#217 = EDGE_CURVE('', #201, #218, #220, .T.);
#218 = VERTEX_POINT('', #219);
#219 = CARTESIAN_POINT('', (-1., 2.38806125833734E-15, -38.));
#220 = LINE('', #221, #222);
#221 = CARTESIAN_POINT('', (-1., 2.20436423846524E-15, -35.));
#222 = VECTOR('', #223, 3.);
#223 = DIRECTION('', (0., 1.836970198721E-16, -3.));
#224 = ORIENTED_EDGE('', *, *, #200, .T.);
#225 = ORIENTED_EDGE('', *, *, #217, .T.);
#226 = ORIENTED_EDGE('', *, *, #227, .F.);
#227 = EDGE_CURVE('', #218, #218, #228, .T.);
#228 = CIRCLE('', #229, 1.);
#229 = AXIS2_PLACEMENT_3D('', #230, #231, #232);
#230 = CARTESIAN_POINT('', (-2.77555756156289E-17, 1.55431223447522E-15, -38.));
#231 = DIRECTION('', (0., 0., -1.));
#232 = DIRECTION('', (-1., 8.33749023862121E-16, 0.));
#233 = (
   BOUNDED_SURFACE ()
   B_SPLINE_SURFACE (2, 1, ((#234, #235), (#236, #237), (#238, #239), (#240, #241), (#242, #243), (#244, #245), (#246, #247), (#248, #249), (#250, #251)), .UNSPECIFIED., .T., .F., .U.)
   B_SPLINE_SURFACE_WITH_KNOTS ((3, 2, 2, 2, 3), (2, 2), (0., 1.5707963267949, 3.14159265358979, 4.71238898038469, 6.28318530717959), (0., 1.), .UNSPECIFIED.)
   GEOMETRIC_REPRESENTATION_ITEM ()
   RATIONAL_B_SPLINE_SURFACE (((1., 1.), (0.707106781186548, 0.707106781186548), (1., 1.), (0.707106781186548, 0.707106781186548), (1., 1.), (0.707106781186548, 0.707106781186548), (1., 1.), (0.707106781186548, 0.707106781186548), (1., 1.)))
   REPRESENTATION_ITEM ('')
   SURFACE ()
);
#234 = CARTESIAN_POINT('', (-1., 2.20436423846524E-15, -35.));
#235 = CARTESIAN_POINT('', (-1., 2.0655863603871E-15, -38.));
#236 = CARTESIAN_POINT('', (-0.999999999999999, 1., -35.));
#237 = CARTESIAN_POINT('', (-0.999999999999999, 1., -38.));
#238 = CARTESIAN_POINT('', (3.73713953011529E-16, 1., -35.));
#239 = CARTESIAN_POINT('', (3.73713953011529E-16, 1., -38.));
#240 = CARTESIAN_POINT('', (1., 1., -35.));
#241 = CARTESIAN_POINT('', (1., 1., -38.));
#242 = CARTESIAN_POINT('', (0.999999999999999, 1.30428066655622E-15, -35.));
#243 = CARTESIAN_POINT('', (0.999999999999999, 1.16550278847808E-15, -38.));
#244 = CARTESIAN_POINT('', (0.999999999999999, -0.999999999999998, -35.));
#245 = CARTESIAN_POINT('', (0.999999999999999, -0.999999999999998, -38.));
#246 = CARTESIAN_POINT('', (-4.03904938982753E-16, -0.999999999999998, -35.));
#247 = CARTESIAN_POINT('', (-4.03904938982753E-16, -0.999999999999998, -38.));
#248 = CARTESIAN_POINT('', (-1., -0.999999999999997, -35.));
#249 = CARTESIAN_POINT('', (-1., -0.999999999999997, -38.));
#250 = CARTESIAN_POINT('', (-1., 2.20436423846524E-15, -35.));
#251 = CARTESIAN_POINT('', (-1., 2.0655863603871E-15, -38.));
#252 = ADVANCED_FACE('', (#253), #256, .T.);
#253 = FACE_OUTER_BOUND('', #254, .T.);
#254 = EDGE_LOOP('', (#255));
#255 = ORIENTED_EDGE('', *, *, #227, .T.);
#256 = B_SPLINE_SURFACE_WITH_KNOTS('', 1, 1, ((#257, #258), (#259, #260)), .UNSPECIFIED., .F., .F., .U., (2, 2), (2, 2), (0.0454545454545455, 0.954545454545454), (0.0454545454545454, 0.954545454545454), .UNSPECIFIED.);
#257 = CARTESIAN_POINT('', (1., -0.999999999999998, -38.));
#258 = CARTESIAN_POINT('', (1., 1., -38.));
#259 = CARTESIAN_POINT('', (-1., -0.999999999999998, -38.));
#260 = CARTESIAN_POINT('', (-1., 1., -38.));
#261 = PRESENTATION_STYLE_ASSIGNMENT((#262));
#262 = SURFACE_STYLE_USAGE(.POSITIVE., #263);
#263 = SURFACE_SIDE_STYLE('', (#264));
#264 = SURFACE_STYLE_FILL_AREA(#265);
#265 = FILL_AREA_STYLE('', (#266));
#266 = FILL_AREA_STYLE_COLOUR('', #267);
#267 = COLOUR_RGB('', 0.8, 0.8, 0.8);
#268 = STYLED_ITEM('', (#261), #194);
#269 = TRIMMED_CURVE('cutting part line', #270, (#274), (#275), .T., .CARTESIAN.);
#270 = LINE('', #271, #272);
#271 = CARTESIAN_POINT('', (-3.46944695195361E-17, 0., -38.));
#272 = VECTOR('', #273, 1.);
#273 = DIRECTION('', (1., 0., 0.));
#274 = CARTESIAN_POINT('', (-3.46944695195361E-17, 0., -38.));
#275 = CARTESIAN_POINT('', (1., 0., -38.));
#276 = TRIMMED_CURVE('cutting part line', #277, (#281), (#282), .T., .CARTESIAN.);
#277 = LINE('', #278, #279);
#278 = CARTESIAN_POINT('', (0.999999999999999, -1.38756741535128E-16, -38.));
#279 = VECTOR('', #280, 3.);
#280 = DIRECTION('', (0., 1.38756741535128E-16, 3.));
#281 = CARTESIAN_POINT('', (0.999999999999999, -1.38756741535128E-16, -38.));
#282 = CARTESIAN_POINT('', (0.999999999999999, 0., -35.));
#283 = TRIMMED_CURVE('cutting part line', #284, (#288), (#289), .T., .CARTESIAN.);
#284 = LINE('', #285, #286);
#285 = CARTESIAN_POINT('', (1., 0., -35.));
#286 = VECTOR('', #287, 1.);
#287 = DIRECTION('', (-1., 0., 0.));
#288 = CARTESIAN_POINT('', (1., 0., -35.));
#289 = CARTESIAN_POINT('', (0., 0., -35.));
#290 = TRIMMED_CURVE('cutting part line', #291, (#295), (#296), .T., .CARTESIAN.);
#291 = LINE('', #292, #293);
#292 = CARTESIAN_POINT('', (0., 0., -35.));
#293 = VECTOR('', #294, 3.);
#294 = DIRECTION('', (0., 0., -3.));
#295 = CARTESIAN_POINT('', (0., 0., -35.));
#296 = CARTESIAN_POINT('', (0., 0., -38.));
#297 = COMPOSITE_CURVE('cutting part line', (#298, #299, #300, #301), .U.);
#298 = COMPOSITE_CURVE_SEGMENT(.CONTINUOUS., .T., #269);
#299 = COMPOSITE_CURVE_SEGMENT(.CONTINUOUS., .T., #276);
#300 = COMPOSITE_CURVE_SEGMENT(.CONTINUOUS., .T., #283);
#301 = COMPOSITE_CURVE_SEGMENT(.CONTINUOUS., .T., #290);
#302 = GEOMETRIC_SET('', (#297, #340));
#303 = PRESENTATION_STYLE_ASSIGNMENT((#304));
#304 = CURVE_STYLE('', #306, POSITIVE_LENGTH_MEASURE(1.E-6), #305);
#305 = COLOUR_RGB('', 0., 0., 1.);
#306 = DRAUGHTING_PRE_DEFINED_CURVE_FONT('continuous');
#307 = STYLED_ITEM('', (#303), #297);
#308 = PRESENTATION_STYLE_ASSIGNMENT((#309));
#309 = CURVE_STYLE('', #311, POSITIVE_LENGTH_MEASURE(1.E-6), #310);
#310 = COLOUR_RGB('', 0., 0., 1.);
#311 = DRAUGHTING_PRE_DEFINED_CURVE_FONT('continuous');
#312 = OVER_RIDING_STYLED_ITEM('', (#308), #269, #307);
#313 = PRESENTATION_STYLE_ASSIGNMENT((#314));
#314 = CURVE_STYLE('', #316, POSITIVE_LENGTH_MEASURE(1.E-6), #315);
#315 = COLOUR_RGB('', 0., 0., 1.);
#316 = DRAUGHTING_PRE_DEFINED_CURVE_FONT('continuous');
#317 = OVER_RIDING_STYLED_ITEM('', (#313), #276, #307);
#318 = PRESENTATION_STYLE_ASSIGNMENT((#319));
#319 = CURVE_STYLE('', #321, POSITIVE_LENGTH_MEASURE(1.E-6), #320);
#320 = COLOUR_RGB('', 0., 0., 1.);
#321 = DRAUGHTING_PRE_DEFINED_CURVE_FONT('continuous');
#322 = OVER_RIDING_STYLED_ITEM('', (#318), #283, #307);
#323 = PRESENTATION_STYLE_ASSIGNMENT((#324));
#324 = CURVE_STYLE('', #326, POSITIVE_LENGTH_MEASURE(1.E-6), #325);
#325 = COLOUR_RGB('', 0., 0., 1.);
#326 = DRAUGHTING_PRE_DEFINED_CURVE_FONT('continuous');
#327 = OVER_RIDING_STYLED_ITEM('', (#323), #290, #307);
#328 = AXIS2_PLACEMENT_3D('MCS', #329, #330, #331);
#329 = CARTESIAN_POINT('', (0., 0., -28.));
#330 = DIRECTION('', (0., 0., 1.));
#331 = DIRECTION('', (1., 0., 0.));
#332 = AXIS2_PLACEMENT_3D('PCS', #333, #334, #335);
#333 = CARTESIAN_POINT('', (0., 0., 0.));
#334 = DIRECTION('', (0., 0., 1.));
#335 = DIRECTION('', (1., 0., 0.));
#336 = AXIS2_PLACEMENT_3D('CIP', #337, #338, #339);
#337 = CARTESIAN_POINT('', (0., 0., -38.));
#338 = DIRECTION('', (0., 0., 1.));
#339 = DIRECTION('', (1., 0., 0.));
#340 = CARTESIAN_POINT('CRP', (1., 0., -38.));
#341 = (
   GEOMETRIC_REPRESENTATION_CONTEXT (3)
   GLOBAL_UNCERTAINTY_ASSIGNED_CONTEXT ((#343))
   GLOBAL_UNIT_ASSIGNED_CONTEXT ((#342, #344, #345))
   REPRESENTATION_CONTEXT ('', '3D')
);
#342 = (
   LENGTH_UNIT ()
   NAMED_UNIT (*)
   SI_UNIT (.MILLI., .METRE.)
);
#343 = UNCERTAINTY_MEASURE_WITH_UNIT(LENGTH_MEASURE(1.E-6), #342, 'DISTANCE_ACCURACY_VALUE', '');
#344 = (
   NAMED_UNIT (*)
   SI_UNIT ($, .STERADIAN.)
   SOLID_ANGLE_UNIT ()
);
#345 = (
   NAMED_UNIT (*)
   PLANE_ANGLE_UNIT ()
   SI_UNIT ($, .RADIAN.)
);
#346 = SHAPE_REPRESENTATION('', (), #341);
#347 = PRODUCT_DEFINITION_SHAPE('', '', #348);
#348 = PRODUCT_DEFINITION('', '', #351, #355);
#349 = APPLICATION_CONTEXT('configuration controlled 3D designs of mechanical parts and assemblies');
#350 = APPLICATION_PROTOCOL_DEFINITION('International Standard', 'automotive_design', 2002, #349);
#351 = PRODUCT_DEFINITION_FORMATION_WITH_SPECIFIED_SOURCE('', '', #352, .NOT_KNOWN.);
#352 = PRODUCT('product-name', '2P120-0200-NC       H10F', '', (#353));
#353 = PRODUCT_CONTEXT('', #349, 'mechanical');
#354 = PRODUCT_RELATED_PRODUCT_CATEGORY('detail', '', (#352));
#355 = PRODUCT_DEFINITION_CONTEXT('part definition', #349, 'design');
#356 = SHAPE_DEFINITION_REPRESENTATION(#347, #346);
#357 = CONSTRUCTIVE_GEOMETRY_REPRESENTATION('supplemental geometry', (#328, #332, #336), #341);
#358 = CONSTRUCTIVE_GEOMETRY_REPRESENTATION_RELATIONSHIP('', '', #346, #357);
#359 = SHAPE_REPRESENTATION_RELATIONSHIP('', '', #346, #360);
#360 = SHAPE_REPRESENTATION('', (#302), #341);
#361 = SHAPE_REPRESENTATION_RELATIONSHIP('', '', #346, #362);
#362 = ADVANCED_BREP_SHAPE_REPRESENTATION('', (#1, #194), #341);
ENDSEC;
END-ISO-10303-21;
