ISO-10303-21;
HEADER;
FILE_DESCRIPTION(('STEP'), '1');
FILE_NAME('C:\\Users\\ds2002\\OneDrive - Sandvik\\HomeShare\\Documents\\Batchrepair\\CorSRT2\\NEW_MILBN_SLD\\Output2\\MOD000000000000000020082299800000.stp', '2018-11-23T12:38:46', (''), (''), 'Express v3.0.0.0', 'Express Tool', 'Unknown');
FILE_SCHEMA(('AUTOMOTIVE_DESIGN'));
ENDSEC;

DATA;
#1 = MANIFOLD_SOLID_BREP('NOCUT', #2);
#2 = CLOSED_SHELL('', (#3, #50, #89, #128, #167, #176));
#3 = ADVANCED_FACE('', (#4), #31, .T.);
#4 = FACE_OUTER_BOUND('', #5, .T.);
#5 = EDGE_LOOP('', (#6, #16, #23, #24));
#6 = ORIENTED_EDGE('', *, *, #7, .F.);
#7 = EDGE_CURVE('', #8, #10, #12, .T.);
#8 = VERTEX_POINT('', #9);
#9 = CARTESIAN_POINT('', (-3.85, 2.64217546916041E-15, -39.3));
#10 = VERTEX_POINT('', #11);
#11 = CARTESIAN_POINT('', (-3.85, 3.23612916674688E-15, -49.));
#12 = LINE('', #13, #14);
#13 = CARTESIAN_POINT('', (-3.85, 2.64217546916041E-15, -39.3));
#14 = VECTOR('', #15, 9.7);
#15 = DIRECTION('', (0., 5.9395369758647E-16, -9.7));
#16 = ORIENTED_EDGE('', *, *, #17, .T.);
#17 = EDGE_CURVE('', #8, #8, #18, .T.);
#18 = CIRCLE('', #19, 3.85);
#19 = AXIS2_PLACEMENT_3D('', #20, #21, #22);
#20 = CARTESIAN_POINT('', (2.08166817117217E-16, 8.88178419700125E-16, -39.3));
#21 = DIRECTION('', (0., 0., -1.));
#22 = DIRECTION('', (-1., 4.55583649210464E-16, 0.));
#23 = ORIENTED_EDGE('', *, *, #7, .T.);
#24 = ORIENTED_EDGE('', *, *, #25, .F.);
#25 = EDGE_CURVE('', #10, #10, #26, .T.);
#26 = CIRCLE('', #27, 3.85);
#27 = AXIS2_PLACEMENT_3D('', #28, #29, #30);
#28 = CARTESIAN_POINT('', (2.08166817117217E-16, 9.99200722162641E-16, -49.));
#29 = DIRECTION('', (3.6496515260952E-30, 6.28145187633755E-15, -1.));
#30 = DIRECTION('', (-1., 5.81020375216686E-16, 0.));
#31 = (
   BOUNDED_SURFACE ()
   B_SPLINE_SURFACE (2, 1, ((#32, #33), (#34, #35), (#36, #37), (#38, #39), (#40, #41), (#42, #43), (#44, #45), (#46, #47), (#48, #49)), .UNSPECIFIED., .T., .F., .U.)
   B_SPLINE_SURFACE_WITH_KNOTS ((3, 2, 2, 2, 3), (2, 2), (0., 6.04756585816035, 12.0951317163207, 18.1426975744811, 24.1902634326414), (0., 1.), .UNSPECIFIED.)
   GEOMETRIC_REPRESENTATION_ITEM ()
   RATIONAL_B_SPLINE_SURFACE (((1., 1.), (0.707106781186548, 0.707106781186548), (1., 1.), (0.707106781186548, 0.707106781186548), (1., 1.), (0.707106781186548, 0.707106781186548), (1., 1.), (0.707106781186548, 0.707106781186548), (1., 1.)))
   REPRESENTATION_ITEM ('')
   SURFACE ()
);
#32 = CARTESIAN_POINT('', (-3.85, 2.64217546916041E-15, -39.3));
#33 = CARTESIAN_POINT('', (-3.85, 2.97524237654796E-15, -49.));
#34 = CARTESIAN_POINT('', (-3.85, 3.85, -39.3));
#35 = CARTESIAN_POINT('', (-3.85, 3.85, -49.));
#36 = CARTESIAN_POINT('', (1.9762195382823E-15, 3.85, -39.3));
#37 = CARTESIAN_POINT('', (1.9762195382823E-15, 3.85, -49.));
#38 = CARTESIAN_POINT('', (3.85, 3.85, -39.3));
#39 = CARTESIAN_POINT('', (3.85, 3.85, -49.));
#40 = CARTESIAN_POINT('', (3.85, -8.38418821938491E-16, -39.3));
#41 = CARTESIAN_POINT('', (3.85, -5.05351914550944E-16, -49.));
#42 = CARTESIAN_POINT('', (3.85, -3.85, -39.3));
#43 = CARTESIAN_POINT('', (3.85, -3.85, -49.));
#44 = CARTESIAN_POINT('', (-1.03288573514487E-15, -3.85, -39.3));
#45 = CARTESIAN_POINT('', (-1.03288573514487E-15, -3.85, -49.));
#46 = CARTESIAN_POINT('', (-3.85, -3.85, -39.3));
#47 = CARTESIAN_POINT('', (-3.85, -3.85, -49.));
#48 = CARTESIAN_POINT('', (-3.85, 2.64217546916041E-15, -39.3));
#49 = CARTESIAN_POINT('', (-3.85, 2.97524237654796E-15, -49.));
#50 = ADVANCED_FACE('', (#51), #70, .T.);
#51 = FACE_OUTER_BOUND('', #52, .T.);
#52 = EDGE_LOOP('', (#53, #61, #68, #69));
#53 = ORIENTED_EDGE('', *, *, #54, .F.);
#54 = EDGE_CURVE('', #55, #8, #57, .T.);
#55 = VERTEX_POINT('', #56);
#56 = CARTESIAN_POINT('', (-4., 2.63299061816681E-15, -39.));
#57 = LINE('', #58, #59);
#58 = CARTESIAN_POINT('', (-4., 2.63299061816681E-15, -39.));
#59 = VECTOR('', #60, 0.335410196624966);
#60 = DIRECTION('', (0.15, 9.18485099360009E-18, -0.299999999999997));
#61 = ORIENTED_EDGE('', *, *, #62, .T.);
#62 = EDGE_CURVE('', #55, #55, #63, .T.);
#63 = CIRCLE('', #64, 4.);
#64 = AXIS2_PLACEMENT_3D('', #65, #66, #67);
#65 = CARTESIAN_POINT('', (4.30211422042248E-16, -3.33066907387547E-16, -39.));
#66 = DIRECTION('', (4.4831198934682E-30, 6.04589743097488E-15, -1.));
#67 = DIRECTION('', (-1., 7.41514381388589E-16, 0.));
#68 = ORIENTED_EDGE('', *, *, #54, .T.);
#69 = ORIENTED_EDGE('', *, *, #17, .F.);
#70 = (
   BOUNDED_SURFACE ()
   B_SPLINE_SURFACE (2, 1, ((#71, #72), (#73, #74), (#75, #76), (#77, #78), (#79, #80), (#81, #82), (#83, #84), (#85, #86), (#87, #88)), .UNSPECIFIED., .T., .F., .U.)
   B_SPLINE_SURFACE_WITH_KNOTS ((3, 2, 2, 2, 3), (2, 2), (0., 0.25, 0.5, 0.75, 1.), (0., 1.), .UNSPECIFIED.)
   GEOMETRIC_REPRESENTATION_ITEM ()
   RATIONAL_B_SPLINE_SURFACE (((1., 1.), (0.707106781186548, 0.707106781186548), (1., 1.), (0.707106781186548, 0.707106781186548), (1., 1.), (0.707106781186548, 0.707106781186548), (1., 1.), (0.707106781186548, 0.707106781186548), (1., 1.)))
   REPRESENTATION_ITEM ('')
   SURFACE ()
);
#71 = CARTESIAN_POINT('', (-4., 2.63299061816681E-15, -39.));
#72 = CARTESIAN_POINT('', (-3.85, 3.74300878804619E-15, -39.3));
#73 = CARTESIAN_POINT('', (-4., 4., -39.));
#74 = CARTESIAN_POINT('', (-3.85, 3.85, -39.3));
#75 = CARTESIAN_POINT('', (3.15133958776713E-15, 4., -39.));
#76 = CARTESIAN_POINT('', (3.04929728155245E-15, 3.85, -39.3));
#77 = CARTESIAN_POINT('', (4., 4., -39.));
#78 = CARTESIAN_POINT('', (3.85, 3.85, -39.3));
#79 = CARTESIAN_POINT('', (4., -2.80926571328296E-15, -39.));
#80 = CARTESIAN_POINT('', (3.85, -1.49516293097421E-15, -39.3));
#81 = CARTESIAN_POINT('', (4., -4., -39.));
#82 = CARTESIAN_POINT('', (3.85, -3.85, -39.3));
#83 = CARTESIAN_POINT('', (-1.8010580240237E-15, -4., -39.));
#84 = CARTESIAN_POINT('', (-1.71738541979622E-15, -3.85, -39.3));
#85 = CARTESIAN_POINT('', (-4., -4., -39.));
#86 = CARTESIAN_POINT('', (-3.85, -3.85, -39.3));
#87 = CARTESIAN_POINT('', (-4., 2.63299061816681E-15, -39.));
#88 = CARTESIAN_POINT('', (-3.85, 3.74300878804619E-15, -39.3));
#89 = ADVANCED_FACE('', (#90), #109, .T.);
#90 = FACE_OUTER_BOUND('', #91, .T.);
#91 = EDGE_LOOP('', (#92, #100, #107, #108));
#92 = ORIENTED_EDGE('', *, *, #93, .T.);
#93 = EDGE_CURVE('', #55, #94, #96, .T.);
#94 = VERTEX_POINT('', #95);
#95 = CARTESIAN_POINT('', (-4., 2.69422295812418E-16, -0.399999999999999));
#96 = LINE('', #97, #98);
#97 = CARTESIAN_POINT('', (-4., 2.63299061816681E-15, -39.));
#98 = VECTOR('', #99, 38.6);
#99 = DIRECTION('', (0., -2.36356832235439E-15, 38.6));
#100 = ORIENTED_EDGE('', *, *, #101, .T.);
#101 = EDGE_CURVE('', #94, #94, #102, .T.);
#102 = CIRCLE('', #103, 4.);
#103 = AXIS2_PLACEMENT_3D('', #104, #105, #106);
#104 = CARTESIAN_POINT('', (1.08246744900953E-15, -1.22124532708767E-15, -0.399999999999999));
#105 = DIRECTION('', (4.16333634234434E-17, 6.25420985093971E-18, -1.));
#106 = DIRECTION('', (-1., 3.72666905725022E-16, -4.16333634234434E-17));
#107 = ORIENTED_EDGE('', *, *, #93, .F.);
#108 = ORIENTED_EDGE('', *, *, #62, .F.);
#109 = (
   BOUNDED_SURFACE ()
   B_SPLINE_SURFACE (1, 2, ((#110, #111, #112, #113, #114, #115, #116, #117, #118), (#119, #120, #121, #122, #123, #124, #125, #126, #127)), .UNSPECIFIED., .F., .T., .U.)
   B_SPLINE_SURFACE_WITH_KNOTS ((2, 2), (3, 2, 2, 2, 3), (0., 1.), (0., 6.28318530717958, 12.5663706143591, 18.8495559215387, 25.1327412287183), .UNSPECIFIED.)
   GEOMETRIC_REPRESENTATION_ITEM ()
   RATIONAL_B_SPLINE_SURFACE (((1., 0.707106781186548, 1., 0.707106781186548, 1., 0.707106781186548, 1., 0.707106781186548, 1.), (1., 0.707106781186548, 1., 0.707106781186548, 1., 0.707106781186548, 1., 0.707106781186548, 1.)))
   REPRESENTATION_ITEM ('')
   SURFACE ()
);
#110 = CARTESIAN_POINT('', (-4., 1.04657841305003E-15, -39.));
#111 = CARTESIAN_POINT('', (-4., 4., -39.));
#112 = CARTESIAN_POINT('', (3.93525354022506E-15, 4., -39.));
#113 = CARTESIAN_POINT('', (4., 4., -39.));
#114 = CARTESIAN_POINT('', (4., -1.44489811309121E-15, -39.));
#115 = CARTESIAN_POINT('', (4., -4., -39.));
#116 = CARTESIAN_POINT('', (1.93363573374276E-15, -4., -39.));
#117 = CARTESIAN_POINT('', (-4., -4., -39.));
#118 = CARTESIAN_POINT('', (-4., 1.04657841305003E-15, -39.));
#119 = CARTESIAN_POINT('', (-4., 2.69422295812418E-16, -0.399999999999999));
#120 = CARTESIAN_POINT('', (-4., 4., -0.399999999999999));
#121 = CARTESIAN_POINT('', (2.32820571208015E-15, 4., -0.399999999999999));
#122 = CARTESIAN_POINT('', (4., 4., -0.399999999999999));
#123 = CARTESIAN_POINT('', (4., -2.22205423032882E-15, -0.399999999999999));
#124 = CARTESIAN_POINT('', (4., -4., -0.399999999999999));
#125 = CARTESIAN_POINT('', (3.2658790559785E-16, -4., -0.399999999999999));
#126 = CARTESIAN_POINT('', (-4., -4., -0.399999999999999));
#127 = CARTESIAN_POINT('', (-4., 2.69422295812418E-16, -0.399999999999999));
#128 = ADVANCED_FACE('', (#129), #148, .T.);
#129 = FACE_OUTER_BOUND('', #130, .T.);
#130 = EDGE_LOOP('', (#131, #139, #146, #147));
#131 = ORIENTED_EDGE('', *, *, #132, .T.);
#132 = EDGE_CURVE('', #94, #133, #135, .T.);
#133 = VERTEX_POINT('', #134);
#134 = CARTESIAN_POINT('', (-3.6, 2.20436423846524E-16, 0.));
#135 = LINE('', #136, #137);
#136 = CARTESIAN_POINT('', (-4., 2.69422295812418E-16, -0.399999999999999));
#137 = VECTOR('', #138, 0.565685424949237);
#138 = DIRECTION('', (0.4, -4.8985871965894E-17, 0.399999999999999));
#139 = ORIENTED_EDGE('', *, *, #140, .T.);
#140 = EDGE_CURVE('', #133, #133, #141, .T.);
#141 = CIRCLE('', #142, 3.6);
#142 = AXIS2_PLACEMENT_3D('', #143, #144, #145);
#143 = CARTESIAN_POINT('', (-4.16333634234434E-17, -3.33066907387547E-16, -1.84889274661175E-32));
#144 = DIRECTION('', (4.27871574431742E-33, 6.12323399573678E-17, -1.));
#145 = DIRECTION('', (-1., 1.53750925342797E-16, 5.13581318503263E-33));
#146 = ORIENTED_EDGE('', *, *, #132, .F.);
#147 = ORIENTED_EDGE('', *, *, #101, .F.);
#148 = (
   BOUNDED_SURFACE ()
   B_SPLINE_SURFACE (1, 2, ((#149, #150, #151, #152, #153, #154, #155, #156, #157), (#158, #159, #160, #161, #162, #163, #164, #165, #166)), .UNSPECIFIED., .F., .T., .U.)
   B_SPLINE_SURFACE_WITH_KNOTS ((2, 2), (3, 2, 2, 2, 3), (0., 1.), (0., 0.25, 0.5, 0.75, 1.), .UNSPECIFIED.)
   GEOMETRIC_REPRESENTATION_ITEM ()
   RATIONAL_B_SPLINE_SURFACE (((1., 0.707106781186548, 1., 0.707106781186548, 1., 0.707106781186548, 1., 0.707106781186548, 1.), (1., 0.707106781186548, 1., 0.707106781186548, 1., 0.707106781186548, 1., 0.707106781186548, 1.)))
   REPRESENTATION_ITEM ('')
   SURFACE ()
);
#149 = CARTESIAN_POINT('', (-4., -2.04953155772919E-15, -0.399999999999999));
#150 = CARTESIAN_POINT('', (-4., 4., -0.400000000000022));
#151 = CARTESIAN_POINT('', (3.28440978118275E-16, 4., -0.400000000000022));
#152 = CARTESIAN_POINT('', (4., 4., -0.400000000000022));
#153 = CARTESIAN_POINT('', (4., -2.78968024081262E-15, -0.399999999999999));
#154 = CARTESIAN_POINT('', (4., -4., -0.399999999999976));
#155 = CARTESIAN_POINT('', (7.81510146937783E-17, -4., -0.399999999999976));
#156 = CARTESIAN_POINT('', (-4., -4., -0.399999999999976));
#157 = CARTESIAN_POINT('', (-4., -2.04953155772919E-15, -0.399999999999999));
#158 = CARTESIAN_POINT('', (-3.6, 2.20436423846524E-16, 0.));
#159 = CARTESIAN_POINT('', (-3.6, 3.6, -2.09832151654155E-14));
#160 = CARTESIAN_POINT('', (2.91433543964104E-16, 3.6, -2.09832151654155E-14));
#161 = CARTESIAN_POINT('', (3.6, 3.6, -2.09832151654155E-14));
#162 = CARTESIAN_POINT('', (3.6, -4.45697390928571E-16, -2.60668058374687E-30));
#163 = CARTESIAN_POINT('', (3.6, -3.6, 2.09832151654155E-14));
#164 = CARTESIAN_POINT('', (6.61725768820564E-17, -3.6, 2.09832151654155E-14));
#165 = CARTESIAN_POINT('', (-3.6, -3.6, 2.09832151654155E-14));
#166 = CARTESIAN_POINT('', (-3.6, 2.20436423846524E-16, 0.));
#167 = ADVANCED_FACE('', (#168), #171, .T.);
#168 = FACE_OUTER_BOUND('', #169, .T.);
#169 = EDGE_LOOP('', (#170));
#170 = ORIENTED_EDGE('', *, *, #140, .F.);
#171 = B_SPLINE_SURFACE_WITH_KNOTS('', 1, 1, ((#172, #173), (#174, #175)), .UNSPECIFIED., .F., .F., .U., (2, 2), (2, 2), (0.0454545454545454, 0.954545454545455), (0.0454545454545454, 0.954545454545454), .UNSPECIFIED.);
#172 = CARTESIAN_POINT('', (3.6, -3.6, -2.20436423846524E-16));
#173 = CARTESIAN_POINT('', (-3.6, -3.6, -2.20436423846524E-16));
#174 = CARTESIAN_POINT('', (3.6, 3.6, 2.20436423846524E-16));
#175 = CARTESIAN_POINT('', (-3.6, 3.6, 2.20436423846524E-16));
#176 = ADVANCED_FACE('', (#177), #180, .T.);
#177 = FACE_OUTER_BOUND('', #178, .T.);
#178 = EDGE_LOOP('', (#179));
#179 = ORIENTED_EDGE('', *, *, #25, .T.);
#180 = B_SPLINE_SURFACE_WITH_KNOTS('', 1, 1, ((#181, #182), (#183, #184)), .UNSPECIFIED., .F., .F., .U., (2, 2), (2, 2), (0.48728454733084, 0.547433451668582), (0.452566548331418, 0.512715452669159), .UNSPECIFIED.);
#181 = CARTESIAN_POINT('', (-3.85000000000002, 3.85000000000002, -49.));
#182 = CARTESIAN_POINT('', (-3.85000000000002, -3.84999999999998, -49.));
#183 = CARTESIAN_POINT('', (3.84999999999998, 3.85000000000002, -49.));
#184 = CARTESIAN_POINT('', (3.84999999999998, -3.84999999999998, -49.));
#185 = DRAUGHTING_MODEL('', (#193, #301, #341, #346, #351, #356, #361), #375);
#186 = PRESENTATION_STYLE_ASSIGNMENT((#187));
#187 = SURFACE_STYLE_USAGE(.POSITIVE., #188);
#188 = SURFACE_SIDE_STYLE('', (#189));
#189 = SURFACE_STYLE_FILL_AREA(#190);
#190 = FILL_AREA_STYLE('', (#191));
#191 = FILL_AREA_STYLE_COLOUR('', #192);
#192 = COLOUR_RGB('', 0.50196078431373, 0.50196078431373, 0.50196078431373);
#193 = STYLED_ITEM('', (#186), #1);
#194 = MANIFOLD_SOLID_BREP('CUT', #195);
#195 = CLOSED_SHELL('', (#196, #213, #252));
#196 = ADVANCED_FACE('', (#197), #208, .T.);
#197 = FACE_OUTER_BOUND('', #198, .T.);
#198 = EDGE_LOOP('', (#199));
#199 = ORIENTED_EDGE('', *, *, #200, .F.);
#200 = EDGE_CURVE('', #201, #201, #203, .T.);
#201 = VERTEX_POINT('', #202);
#202 = CARTESIAN_POINT('', (-4., 3.24531401774049E-15, -49.));
#203 = CIRCLE('', #204, 4.);
#204 = AXIS2_PLACEMENT_3D('', #205, #206, #207);
#205 = CARTESIAN_POINT('', (1.80411241501588E-16, 1.4432899320127E-15, -49.));
#206 = DIRECTION('', (0., 0., -1.));
#207 = DIRECTION('', (-1., 4.50506021431947E-16, 0.));
#208 = B_SPLINE_SURFACE_WITH_KNOTS('', 1, 1, ((#209, #210), (#211, #212)), .UNSPECIFIED., .F., .F., .U., (2, 2), (2, 2), (0.0454545454545453, 0.954545454545454), (0.0454545454545455, 0.954545454545454), .UNSPECIFIED.);
#209 = CARTESIAN_POINT('', (4., -4., -49.));
#210 = CARTESIAN_POINT('', (-4., -4., -49.));
#211 = CARTESIAN_POINT('', (4., 4., -49.));
#212 = CARTESIAN_POINT('', (-4., 4., -49.));
#213 = ADVANCED_FACE('', (#214), #233, .T.);
#214 = FACE_OUTER_BOUND('', #215, .T.);
#215 = EDGE_LOOP('', (#216, #224, #225, #226));
#216 = ORIENTED_EDGE('', *, *, #217, .F.);
#217 = EDGE_CURVE('', #201, #218, #220, .T.);
#218 = VERTEX_POINT('', #219);
#219 = CARTESIAN_POINT('', (-4., 3.85763741731416E-15, -59.));
#220 = LINE('', #221, #222);
#221 = CARTESIAN_POINT('', (-4., 3.24531401774049E-15, -49.));
#222 = VECTOR('', #223, 10.);
#223 = DIRECTION('', (0., 6.1232339957367E-16, -10.));
#224 = ORIENTED_EDGE('', *, *, #200, .T.);
#225 = ORIENTED_EDGE('', *, *, #217, .T.);
#226 = ORIENTED_EDGE('', *, *, #227, .F.);
#227 = EDGE_CURVE('', #218, #218, #228, .T.);
#228 = CIRCLE('', #229, 4.);
#229 = AXIS2_PLACEMENT_3D('', #230, #231, #232);
#230 = CARTESIAN_POINT('', (1.16573417585641E-15, 7.7715611723761E-16, -59.));
#231 = DIRECTION('', (0., 0., -1.));
#232 = DIRECTION('', (-1., 7.70120325019137E-16, 0.));
#233 = (
   BOUNDED_SURFACE ()
   B_SPLINE_SURFACE (2, 1, ((#234, #235), (#236, #237), (#238, #239), (#240, #241), (#242, #243), (#244, #245), (#246, #247), (#248, #249), (#250, #251)), .UNSPECIFIED., .T., .F., .U.)
   B_SPLINE_SURFACE_WITH_KNOTS ((3, 2, 2, 2, 3), (2, 2), (0., 6.28318530717957, 12.5663706143591, 18.8495559215387, 25.1327412287183), (0., 1.), .UNSPECIFIED.)
   GEOMETRIC_REPRESENTATION_ITEM ()
   RATIONAL_B_SPLINE_SURFACE (((1., 1.), (0.707106781186548, 0.707106781186548), (1., 1.), (0.707106781186548, 0.707106781186548), (1., 1.), (0.707106781186548, 0.707106781186548), (1., 1.), (0.707106781186548, 0.707106781186548), (1., 1.)))
   REPRESENTATION_ITEM ('')
   SURFACE ()
);
#234 = CARTESIAN_POINT('', (-4., 3.24531401774049E-15, -49.));
#235 = CARTESIAN_POINT('', (-4., 4.0224701349781E-15, -59.));
#236 = CARTESIAN_POINT('', (-4., 4., -49.));
#237 = CARTESIAN_POINT('', (-4., 4., -59.));
#238 = CARTESIAN_POINT('', (4.17999662157525E-15, 4., -49.));
#239 = CARTESIAN_POINT('', (4.17999662157525E-15, 4., -59.));
#240 = CARTESIAN_POINT('', (4., 4., -49.));
#241 = CARTESIAN_POINT('', (4., 4., -59.));
#242 = CARTESIAN_POINT('', (4., -2.75545529808155E-15, -49.));
#243 = CARTESIAN_POINT('', (4., -1.97829918084394E-15, -59.));
#244 = CARTESIAN_POINT('', (4., -4., -49.));
#245 = CARTESIAN_POINT('', (4., -4., -59.));
#246 = CARTESIAN_POINT('', (-1.33091397458785E-15, -4., -49.));
#247 = CARTESIAN_POINT('', (-1.33091397458785E-15, -4., -59.));
#248 = CARTESIAN_POINT('', (-4., -4., -49.));
#249 = CARTESIAN_POINT('', (-4., -4., -59.));
#250 = CARTESIAN_POINT('', (-4., 3.24531401774049E-15, -49.));
#251 = CARTESIAN_POINT('', (-4., 4.0224701349781E-15, -59.));
#252 = ADVANCED_FACE('', (#253), #266, .T.);
#253 = FACE_OUTER_BOUND('', #254, .T.);
#254 = EDGE_LOOP('', (#255, #264, #265));
#255 = ORIENTED_EDGE('', *, *, #256, .F.);
#256 = EDGE_CURVE('', #218, #257, #259, .T.);
#257 = VERTEX_POINT('', #258);
#258 = CARTESIAN_POINT('', (1.17887728933847E-15, 3.85763741731416E-15, -63.));
#259 = CIRCLE('', #260, 3.99999999999997);
#260 = AXIS2_PLACEMENT_3D('', #261, #262, #263);
#261 = CARTESIAN_POINT('', (-3.33066907387547E-14, 3.61270805748469E-15, -59.));
#262 = DIRECTION('', (-6.12323399573676E-17, -1., -6.12323399573675E-17));
#263 = DIRECTION('', (-1., 6.12323399573673E-17, 5.3290705182008E-15));
#264 = ORIENTED_EDGE('', *, *, #227, .T.);
#265 = ORIENTED_EDGE('', *, *, #256, .T.);
#266 = (
   BOUNDED_SURFACE ()
   B_SPLINE_SURFACE (2, 2, ((#267, #268, #269), (#270, #271, #272), (#273, #274, #275), (#276, #277, #278), (#279, #280, #281), (#282, #283, #284), (#285, #286, #287), (#288, #289, #290), (#291, #292, #293)), .UNSPECIFIED., .T., .F., .U.)
   B_SPLINE_SURFACE_WITH_KNOTS ((3, 2, 2, 2, 3), (3, 3), (0., 0.25, 0.5, 0.75, 1.), (0., 1.), .UNSPECIFIED.)
   GEOMETRIC_REPRESENTATION_ITEM ()
   RATIONAL_B_SPLINE_SURFACE (((1., 0.707106781186548, 1.), (0.707106781186548, 0.5, 0.707106781186548), (1., 0.707106781186548, 1.), (0.707106781186548, 0.5, 0.707106781186548), (1., 0.707106781186548, 1.), (0.707106781186548, 0.5, 0.707106781186548), (1., 0.707106781186548, 1.), (0.707106781186548, 0.5, 0.707106781186548), (1., 0.707106781186548, 1.)))
   REPRESENTATION_ITEM ('')
   SURFACE ()
);
#267 = CARTESIAN_POINT('', (-4., 3.85763741731416E-15, -59.));
#268 = CARTESIAN_POINT('', (-4., 4.10256677714363E-15, -63.));
#269 = CARTESIAN_POINT('', (1.17887728933847E-15, 3.85763741731416E-15, -63.));
#270 = CARTESIAN_POINT('', (-4., 3.99999999999997, -59.));
#271 = CARTESIAN_POINT('', (-4., 3.99999999999997, -63.));
#272 = CARTESIAN_POINT('', (1.17887728933847E-15, 3.85763741731416E-15, -63.));
#273 = CARTESIAN_POINT('', (-3.33066907387547E-14, 3.99999999999997, -59.));
#274 = CARTESIAN_POINT('', (-3.30617613789252E-14, 3.99999999999997, -63.));
#275 = CARTESIAN_POINT('', (1.17887728933847E-15, 3.85763741731416E-15, -63.));
#276 = CARTESIAN_POINT('', (3.99999999999993, 3.99999999999997, -59.));
#277 = CARTESIAN_POINT('', (3.99999999999993, 3.99999999999997, -63.));
#278 = CARTESIAN_POINT('', (1.17887728933847E-15, 3.85763741731416E-15, -63.));
#279 = CARTESIAN_POINT('', (3.99999999999993, 3.85763741731416E-15, -59.));
#280 = CARTESIAN_POINT('', (3.99999999999993, 3.61270805748469E-15, -63.));
#281 = CARTESIAN_POINT('', (1.17887728933847E-15, 3.85763741731416E-15, -63.));
#282 = CARTESIAN_POINT('', (3.99999999999993, -3.99999999999996, -59.));
#283 = CARTESIAN_POINT('', (3.99999999999993, -3.99999999999996, -63.));
#284 = CARTESIAN_POINT('', (1.17887728933847E-15, 3.85763741731416E-15, -63.));
#285 = CARTESIAN_POINT('', (-3.28168320190958E-14, -3.99999999999996, -59.));
#286 = CARTESIAN_POINT('', (-3.30617613789252E-14, -3.99999999999996, -63.));
#287 = CARTESIAN_POINT('', (1.17887728933847E-15, 3.85763741731416E-15, -63.));
#288 = CARTESIAN_POINT('', (-4., -3.99999999999996, -59.));
#289 = CARTESIAN_POINT('', (-4., -3.99999999999996, -63.));
#290 = CARTESIAN_POINT('', (1.17887728933847E-15, 3.85763741731416E-15, -63.));
#291 = CARTESIAN_POINT('', (-4., 3.85763741731416E-15, -59.));
#292 = CARTESIAN_POINT('', (-4., 4.10256677714363E-15, -63.));
#293 = CARTESIAN_POINT('', (1.17887728933847E-15, 3.85763741731416E-15, -63.));
#294 = PRESENTATION_STYLE_ASSIGNMENT((#295));
#295 = SURFACE_STYLE_USAGE(.POSITIVE., #296);
#296 = SURFACE_SIDE_STYLE('', (#297));
#297 = SURFACE_STYLE_FILL_AREA(#298);
#298 = FILL_AREA_STYLE('', (#299));
#299 = FILL_AREA_STYLE_COLOUR('', #300);
#300 = COLOUR_RGB('', 0.8, 0.8, 0.8);
#301 = STYLED_ITEM('', (#294), #194);
#302 = TRIMMED_CURVE('cutting part line', #303, (#308), (#309), .T., .CARTESIAN.);
#303 = CIRCLE('', #304, 3.99999999999996);
#304 = AXIS2_PLACEMENT_3D('', #305, #306, #307);
#305 = CARTESIAN_POINT('', (-2.75335310107039E-14, 0., -59.));
#306 = DIRECTION('', (0., -1., 0.));
#307 = DIRECTION('', (-1.31145094783848E-15, 0., -1.));
#308 = CARTESIAN_POINT('', (-3.27793348020577E-14, 0., -63.));
#309 = CARTESIAN_POINT('', (3.99999999999993, 0., -59.));
#310 = TRIMMED_CURVE('cutting part line', #311, (#315), (#316), .T., .CARTESIAN.);
#311 = LINE('', #312, #313);
#312 = CARTESIAN_POINT('', (4., 7.77037752596714E-16, -59.));
#313 = VECTOR('', #314, 10.);
#314 = DIRECTION('', (0., -7.77037752596714E-16, 10.));
#315 = CARTESIAN_POINT('', (4., 7.77037752596714E-16, -59.));
#316 = CARTESIAN_POINT('', (4., 0., -49.));
#317 = TRIMMED_CURVE('cutting part line', #318, (#322), (#323), .T., .CARTESIAN.);
#318 = LINE('', #319, #320);
#319 = CARTESIAN_POINT('', (4., 0., -49.));
#320 = VECTOR('', #321, 4.);
#321 = DIRECTION('', (-4., 0., 0.));
#322 = CARTESIAN_POINT('', (4., 0., -49.));
#323 = CARTESIAN_POINT('', (0., 0., -49.));
#324 = TRIMMED_CURVE('cutting part line', #325, (#329), (#330), .T., .CARTESIAN.);
#325 = LINE('', #326, #327);
#326 = CARTESIAN_POINT('', (0., 0., -49.));
#327 = VECTOR('', #328, 14.);
#328 = DIRECTION('', (0., 0., -14.));
#329 = CARTESIAN_POINT('', (0., 0., -49.));
#330 = CARTESIAN_POINT('', (0., 0., -63.));
#331 = COMPOSITE_CURVE('cutting part line', (#332, #333, #334, #335), .U.);
#332 = COMPOSITE_CURVE_SEGMENT(.CONTINUOUS., .T., #302);
#333 = COMPOSITE_CURVE_SEGMENT(.CONTINUOUS., .T., #310);
#334 = COMPOSITE_CURVE_SEGMENT(.CONTINUOUS., .T., #317);
#335 = COMPOSITE_CURVE_SEGMENT(.CONTINUOUS., .T., #324);
#336 = GEOMETRIC_SET('', (#331, #374));
#337 = PRESENTATION_STYLE_ASSIGNMENT((#338));
#338 = CURVE_STYLE('', #340, POSITIVE_LENGTH_MEASURE(1.E-6), #339);
#339 = COLOUR_RGB('', 0., 0., 1.);
#340 = DRAUGHTING_PRE_DEFINED_CURVE_FONT('continuous');
#341 = STYLED_ITEM('', (#337), #331);
#342 = PRESENTATION_STYLE_ASSIGNMENT((#343));
#343 = CURVE_STYLE('', #345, POSITIVE_LENGTH_MEASURE(1.E-6), #344);
#344 = COLOUR_RGB('', 0., 0., 1.);
#345 = DRAUGHTING_PRE_DEFINED_CURVE_FONT('continuous');
#346 = OVER_RIDING_STYLED_ITEM('', (#342), #302, #341);
#347 = PRESENTATION_STYLE_ASSIGNMENT((#348));
#348 = CURVE_STYLE('', #350, POSITIVE_LENGTH_MEASURE(1.E-6), #349);
#349 = COLOUR_RGB('', 0., 0., 1.);
#350 = DRAUGHTING_PRE_DEFINED_CURVE_FONT('continuous');
#351 = OVER_RIDING_STYLED_ITEM('', (#347), #310, #341);
#352 = PRESENTATION_STYLE_ASSIGNMENT((#353));
#353 = CURVE_STYLE('', #355, POSITIVE_LENGTH_MEASURE(1.E-6), #354);
#354 = COLOUR_RGB('', 0., 0., 1.);
#355 = DRAUGHTING_PRE_DEFINED_CURVE_FONT('continuous');
#356 = OVER_RIDING_STYLED_ITEM('', (#352), #317, #341);
#357 = PRESENTATION_STYLE_ASSIGNMENT((#358));
#358 = CURVE_STYLE('', #360, POSITIVE_LENGTH_MEASURE(1.E-6), #359);
#359 = COLOUR_RGB('', 0., 0., 1.);
#360 = DRAUGHTING_PRE_DEFINED_CURVE_FONT('continuous');
#361 = OVER_RIDING_STYLED_ITEM('', (#357), #324, #341);
#362 = AXIS2_PLACEMENT_3D('MCS', #363, #364, #365);
#363 = CARTESIAN_POINT('', (0., 0., -36.));
#364 = DIRECTION('', (0., 0., 1.));
#365 = DIRECTION('', (1., 0., 0.));
#366 = AXIS2_PLACEMENT_3D('PCS', #367, #368, #369);
#367 = CARTESIAN_POINT('', (0., 0., 0.));
#368 = DIRECTION('', (0., 0., 1.));
#369 = DIRECTION('', (1., 0., 0.));
#370 = AXIS2_PLACEMENT_3D('CIP', #371, #372, #373);
#371 = CARTESIAN_POINT('', (0., 0., -63.));
#372 = DIRECTION('', (0., 0., 1.));
#373 = DIRECTION('', (1., 0., 0.));
#374 = CARTESIAN_POINT('CRP', (4., 0., -63.));
#375 = (
   GEOMETRIC_REPRESENTATION_CONTEXT (3)
   GLOBAL_UNCERTAINTY_ASSIGNED_CONTEXT ((#377))
   GLOBAL_UNIT_ASSIGNED_CONTEXT ((#376, #378, #379))
   REPRESENTATION_CONTEXT ('', '3D')
);
#376 = (
   LENGTH_UNIT ()
   NAMED_UNIT (*)
   SI_UNIT (.MILLI., .METRE.)
);
#377 = UNCERTAINTY_MEASURE_WITH_UNIT(LENGTH_MEASURE(1.E-6), #376, 'DISTANCE_ACCURACY_VALUE', '');
#378 = (
   NAMED_UNIT (*)
   SI_UNIT ($, .STERADIAN.)
   SOLID_ANGLE_UNIT ()
);
#379 = (
   NAMED_UNIT (*)
   PLANE_ANGLE_UNIT ()
   SI_UNIT ($, .RADIAN.)
);
#380 = SHAPE_REPRESENTATION('', (), #375);
#381 = PRODUCT_DEFINITION_SHAPE('', '', #382);
#382 = PRODUCT_DEFINITION('', '', #385, #389);
#383 = APPLICATION_CONTEXT('configuration controlled 3D designs of mechanical parts and assemblies');
#384 = APPLICATION_PROTOCOL_DEFINITION('International Standard', 'automotive_design', 2002, #383);
#385 = PRODUCT_DEFINITION_FORMATION_WITH_SPECIFIED_SOURCE('', '', #386, .NOT_KNOWN.);
#386 = PRODUCT('product-name', '2B330-0800-NC       H10F', '', (#387));
#387 = PRODUCT_CONTEXT('', #383, 'mechanical');
#388 = PRODUCT_RELATED_PRODUCT_CATEGORY('detail', '', (#386));
#389 = PRODUCT_DEFINITION_CONTEXT('part definition', #383, 'design');
#390 = SHAPE_DEFINITION_REPRESENTATION(#381, #380);
#391 = CONSTRUCTIVE_GEOMETRY_REPRESENTATION('supplemental geometry', (#362, #366, #370), #375);
#392 = CONSTRUCTIVE_GEOMETRY_REPRESENTATION_RELATIONSHIP('', '', #380, #391);
#393 = SHAPE_REPRESENTATION_RELATIONSHIP('', '', #380, #394);
#394 = SHAPE_REPRESENTATION('', (#336), #375);
#395 = SHAPE_REPRESENTATION_RELATIONSHIP('', '', #380, #396);
#396 = ADVANCED_BREP_SHAPE_REPRESENTATION('', (#1, #194), #375);
ENDSEC;
END-ISO-10303-21;
