ISO-10303-21;
HEADER;
FILE_DESCRIPTION(('STEP'), '1');
FILE_NAME('C:\\Users\\ds2002\\OneDrive - Sandvik\\HomeShare\\Documents\\Batchrepair\\CorSRT2\\NEW_MILBN_SLD\\Output2\\MOD000000000000000020082299700000.stp', '2018-11-23T12:38:44', (''), (''), 'Express v3.0.0.0', 'Express Tool', 'Unknown');
FILE_SCHEMA(('AUTOMOTIVE_DESIGN'));
ENDSEC;

DATA;
#1 = MANIFOLD_SOLID_BREP('NOCUT', #2);
#2 = CLOSED_SHELL('', (#3, #50, #89, #128, #167, #176));
#3 = ADVANCED_FACE('', (#4), #31, .T.);
#4 = FACE_OUTER_BOUND('', #5, .T.);
#5 = EDGE_LOOP('', (#6, #16, #23, #24));
#6 = ORIENTED_EDGE('', *, *, #7, .F.);
#7 = EDGE_CURVE('', #8, #10, #12, .T.);
#8 = VERTEX_POINT('', #9);
#9 = CARTESIAN_POINT('', (-2.85, 2.58094312920305E-15, -39.3));
#10 = VERTEX_POINT('', #11);
#11 = CARTESIAN_POINT('', (-2.85, 2.99119980691741E-15, -46.));
#12 = LINE('', #13, #14);
#13 = CARTESIAN_POINT('', (-2.85, 2.58094312920305E-15, -39.3));
#14 = VECTOR('', #15, 6.7);
#15 = DIRECTION('', (0., 4.1025667771436E-16, -6.7));
#16 = ORIENTED_EDGE('', *, *, #17, .T.);
#17 = EDGE_CURVE('', #8, #8, #18, .T.);
#18 = CIRCLE('', #19, 2.85);
#19 = AXIS2_PLACEMENT_3D('', #20, #21, #22);
#20 = CARTESIAN_POINT('', (-9.71445146547012E-17, 1.16573417585641E-15, -39.3));
#21 = DIRECTION('', (0., 0., -1.));
#22 = DIRECTION('', (-1., 4.96564545033907E-16, 0.));
#23 = ORIENTED_EDGE('', *, *, #7, .T.);
#24 = ORIENTED_EDGE('', *, *, #25, .F.);
#25 = EDGE_CURVE('', #10, #10, #26, .T.);
#26 = CIRCLE('', #27, 2.85);
#27 = AXIS2_PLACEMENT_3D('', #28, #29, #30);
#28 = CARTESIAN_POINT('', (9.29811783123569E-16, 9.99200722162641E-16, -46.));
#29 = DIRECTION('', (0., 0., -1.));
#30 = DIRECTION('', (-1., 6.98947047282375E-16, 0.));
#31 = (
   BOUNDED_SURFACE ()
   B_SPLINE_SURFACE (2, 1, ((#32, #33), (#34, #35), (#36, #37), (#38, #39), (#40, #41), (#42, #43), (#44, #45), (#46, #47), (#48, #49)), .UNSPECIFIED., .T., .F., .U.)
   B_SPLINE_SURFACE_WITH_KNOTS ((3, 2, 2, 2, 3), (2, 2), (0., 4.47676953136545, 8.9535390627309, 13.4303085940964, 17.9070781254618), (0., 1.), .UNSPECIFIED.)
   GEOMETRIC_REPRESENTATION_ITEM ()
   RATIONAL_B_SPLINE_SURFACE (((1., 1.), (0.707106781186548, 0.707106781186548), (1., 1.), (0.707106781186548, 0.707106781186548), (1., 1.), (0.707106781186548, 0.707106781186548), (1., 1.), (0.707106781186548, 0.707106781186548), (1., 1.)))
   REPRESENTATION_ITEM ('')
   SURFACE ()
);
#32 = CARTESIAN_POINT('', (-2.85, 2.58094312920305E-15, -39.3));
#33 = CARTESIAN_POINT('', (-2.84999999999998, 4.24627766614076E-15, -46.));
#34 = CARTESIAN_POINT('', (-2.85, 2.85, -39.3));
#35 = CARTESIAN_POINT('', (-2.84999999999998, 2.85, -46.));
#36 = CARTESIAN_POINT('', (4.6685103729983E-15, 2.85, -39.3));
#37 = CARTESIAN_POINT('', (2.13724974943761E-14, 2.85, -46.));
#38 = CARTESIAN_POINT('', (2.85, 2.85, -39.3));
#39 = CARTESIAN_POINT('', (2.85000000000002, 2.85, -46.));
#40 = CARTESIAN_POINT('', (2.85, -3.56418642099624E-15, -39.3));
#41 = CARTESIAN_POINT('', (2.85000000000002, -1.89885188405853E-15, -46.));
#42 = CARTESIAN_POINT('', (2.85, -2.85, -39.3));
#43 = CARTESIAN_POINT('', (2.85000000000001, -2.85, -46.));
#44 = CARTESIAN_POINT('', (-1.12759483944398E-15, -2.85, -39.3));
#45 = CARTESIAN_POINT('', (1.55763922819338E-14, -2.85, -46.));
#46 = CARTESIAN_POINT('', (-2.85, -2.85, -39.3));
#47 = CARTESIAN_POINT('', (-2.84999999999998, -2.85, -46.));
#48 = CARTESIAN_POINT('', (-2.85, 2.58094312920305E-15, -39.3));
#49 = CARTESIAN_POINT('', (-2.84999999999998, 4.24627766614076E-15, -46.));
#50 = ADVANCED_FACE('', (#51), #70, .T.);
#51 = FACE_OUTER_BOUND('', #52, .T.);
#52 = EDGE_LOOP('', (#53, #61, #68, #69));
#53 = ORIENTED_EDGE('', *, *, #54, .F.);
#54 = EDGE_CURVE('', #55, #8, #57, .T.);
#55 = VERTEX_POINT('', #56);
#56 = CARTESIAN_POINT('', (-3., 2.57175827820944E-15, -39.));
#57 = LINE('', #58, #59);
#58 = CARTESIAN_POINT('', (-3., 2.57175827820944E-15, -39.));
#59 = VECTOR('', #60, 0.335410196624966);
#60 = DIRECTION('', (0.15, 9.18485099360995E-18, -0.299999999999997));
#61 = ORIENTED_EDGE('', *, *, #62, .T.);
#62 = EDGE_CURVE('', #55, #55, #63, .T.);
#63 = CIRCLE('', #64, 3.);
#64 = AXIS2_PLACEMENT_3D('', #65, #66, #67);
#65 = CARTESIAN_POINT('', (2.08166817117217E-16, 2.16493489801906E-15, -39.));
#66 = DIRECTION('', (1.09316107962381E-30, 8.06119657463322E-15, -1.));
#67 = DIRECTION('', (-1., 1.35607793396795E-16, 0.));
#68 = ORIENTED_EDGE('', *, *, #54, .T.);
#69 = ORIENTED_EDGE('', *, *, #17, .F.);
#70 = (
   BOUNDED_SURFACE ()
   B_SPLINE_SURFACE (2, 1, ((#71, #72), (#73, #74), (#75, #76), (#77, #78), (#79, #80), (#81, #82), (#83, #84), (#85, #86), (#87, #88)), .UNSPECIFIED., .T., .F., .U.)
   B_SPLINE_SURFACE_WITH_KNOTS ((3, 2, 2, 2, 3), (2, 2), (0., 0.25, 0.5, 0.75, 1.), (0., 1.), .UNSPECIFIED.)
   GEOMETRIC_REPRESENTATION_ITEM ()
   RATIONAL_B_SPLINE_SURFACE (((1., 1.), (0.707106781186548, 0.707106781186548), (1., 1.), (0.707106781186548, 0.707106781186548), (1., 1.), (0.707106781186548, 0.707106781186548), (1., 1.), (0.707106781186548, 0.707106781186548), (1., 1.)))
   REPRESENTATION_ITEM ('')
   SURFACE ()
);
#71 = CARTESIAN_POINT('', (-3., 2.57175827820944E-15, -39.));
#72 = CARTESIAN_POINT('', (-2.85, 1.55221638703728E-15, -39.3));
#73 = CARTESIAN_POINT('', (-3., 3., -39.));
#74 = CARTESIAN_POINT('', (-2.85, 2.85, -39.3));
#75 = CARTESIAN_POINT('', (4.31293177435499E-16, 3., -39.));
#76 = CARTESIAN_POINT('', (4.20136859419585E-16, 2.85, -39.3));
#77 = CARTESIAN_POINT('', (3., 3., -39.));
#78 = CARTESIAN_POINT('', (2.85, 2.85, -39.3));
#79 = CARTESIAN_POINT('', (3., 2.12550555757288E-15, -39.));
#80 = CARTESIAN_POINT('', (2.85, 1.12827630243254E-15, -39.3));
#81 = CARTESIAN_POINT('', (3., -3., -39.));
#82 = CARTESIAN_POINT('', (2.85, -2.85, -39.3));
#83 = CARTESIAN_POINT('', (3.52434496543141E-16, -3., -39.));
#84 = CARTESIAN_POINT('', (3.45221112571845E-16, -2.85, -39.3));
#85 = CARTESIAN_POINT('', (-3., -3., -39.));
#86 = CARTESIAN_POINT('', (-2.85, -2.85, -39.3));
#87 = CARTESIAN_POINT('', (-3., 2.57175827820944E-15, -39.));
#88 = CARTESIAN_POINT('', (-2.85, 1.55221638703728E-15, -39.3));
#89 = ADVANCED_FACE('', (#90), #109, .T.);
#90 = FACE_OUTER_BOUND('', #91, .T.);
#91 = EDGE_LOOP('', (#92, #100, #107, #108));
#92 = ORIENTED_EDGE('', *, *, #93, .T.);
#93 = EDGE_CURVE('', #55, #94, #96, .T.);
#94 = VERTEX_POINT('', #95);
#95 = CARTESIAN_POINT('', (-3., 2.02066721859313E-16, -0.299999999999997));
#96 = LINE('', #97, #98);
#97 = CARTESIAN_POINT('', (-3., 2.57175827820944E-15, -39.));
#98 = VECTOR('', #99, 38.7);
#99 = DIRECTION('', (0., -2.36969155635013E-15, 38.7));
#100 = ORIENTED_EDGE('', *, *, #101, .T.);
#101 = EDGE_CURVE('', #94, #94, #102, .T.);
#102 = CIRCLE('', #103, 3.);
#103 = AXIS2_PLACEMENT_3D('', #104, #105, #106);
#104 = CARTESIAN_POINT('', (1.346145417358E-15, -1.88737914186277E-15, -0.299999999999997));
#105 = DIRECTION('', (-1.85037170770859E-17, 6.01984494166833E-17, -1.));
#106 = DIRECTION('', (-1., 6.96481954574026E-16, 1.85037170770859E-17));
#107 = ORIENTED_EDGE('', *, *, #93, .F.);
#108 = ORIENTED_EDGE('', *, *, #62, .F.);
#109 = (
   BOUNDED_SURFACE ()
   B_SPLINE_SURFACE (1, 2, ((#110, #111, #112, #113, #114, #115, #116, #117, #118), (#119, #120, #121, #122, #123, #124, #125, #126, #127)), .UNSPECIFIED., .F., .T., .U.)
   B_SPLINE_SURFACE_WITH_KNOTS ((2, 2), (3, 2, 2, 2, 3), (0., 1.), (0., 4.7123889803847, 9.4247779607694, 14.1371669411541, 18.8495559215388), .UNSPECIFIED.)
   GEOMETRIC_REPRESENTATION_ITEM ()
   RATIONAL_B_SPLINE_SURFACE (((1., 0.707106781186548, 1., 0.707106781186548, 1., 0.707106781186548, 1., 0.707106781186548, 1.), (1., 0.707106781186548, 1., 0.707106781186548, 1., 0.707106781186548, 1., 0.707106781186548, 1.)))
   REPRESENTATION_ITEM ('')
   SURFACE ()
);
#110 = CARTESIAN_POINT('', (-3., 1.09024514155944E-15, -39.));
#111 = CARTESIAN_POINT('', (-3., 3., -39.));
#112 = CARTESIAN_POINT('', (2.53580041032475E-15, 3., -39.));
#113 = CARTESIAN_POINT('', (3., 3., -39.));
#114 = CARTESIAN_POINT('', (3., -2.72125254614051E-15, -39.));
#115 = CARTESIAN_POINT('', (3., -3., -39.));
#116 = CARTESIAN_POINT('', (-9.08303237630992E-16, -3., -39.));
#117 = CARTESIAN_POINT('', (-3., -3., -39.));
#118 = CARTESIAN_POINT('', (-3., 1.09024514155944E-15, -39.));
#119 = CARTESIAN_POINT('', (-3., 2.02066721859312E-16, -0.299999999999997));
#120 = CARTESIAN_POINT('', (-3., 3., -0.299999999999997));
#121 = CARTESIAN_POINT('', (3.25189426120798E-15, 3., -0.299999999999997));
#122 = CARTESIAN_POINT('', (3., 3., -0.299999999999997));
#123 = CARTESIAN_POINT('', (3., -3.60943096584064E-15, -0.299999999999997));
#124 = CARTESIAN_POINT('', (3., -3., -0.299999999999997));
#125 = CARTESIAN_POINT('', (-1.92209386747767E-16, -3., -0.299999999999997));
#126 = CARTESIAN_POINT('', (-3., -3., -0.299999999999997));
#127 = CARTESIAN_POINT('', (-3., 2.02066721859312E-16, -0.299999999999997));
#128 = ADVANCED_FACE('', (#129), #148, .T.);
#129 = FACE_OUTER_BOUND('', #130, .T.);
#130 = EDGE_LOOP('', (#131, #139, #146, #147));
#131 = ORIENTED_EDGE('', *, *, #132, .T.);
#132 = EDGE_CURVE('', #94, #133, #135, .T.);
#133 = VERTEX_POINT('', #134);
#134 = CARTESIAN_POINT('', (-2.7, 1.65327317884893E-16, 0.));
#135 = LINE('', #136, #137);
#136 = CARTESIAN_POINT('', (-3., 2.02066721859313E-16, -0.299999999999997));
#137 = VECTOR('', #138, 0.424264068711926);
#138 = DIRECTION('', (0.3, -3.673940397442E-17, 0.299999999999997));
#139 = ORIENTED_EDGE('', *, *, #140, .T.);
#140 = EDGE_CURVE('', #133, #133, #141, .T.);
#141 = CIRCLE('', #142, 2.7);
#142 = AXIS2_PLACEMENT_3D('', #143, #144, #145);
#143 = CARTESIAN_POINT('', (9.22872889219661E-16, -1.27675647831893E-15, -8.0118685686509E-32));
#144 = DIRECTION('', (3.03091835913145E-33, 6.12323399573678E-17, -1.));
#145 = DIRECTION('', (-1., 5.34105109705119E-16, 2.96735872912996E-32));
#146 = ORIENTED_EDGE('', *, *, #132, .F.);
#147 = ORIENTED_EDGE('', *, *, #101, .F.);
#148 = (
   BOUNDED_SURFACE ()
   B_SPLINE_SURFACE (1, 2, ((#149, #150, #151, #152, #153, #154, #155, #156, #157), (#158, #159, #160, #161, #162, #163, #164, #165, #166)), .UNSPECIFIED., .F., .T., .U.)
   B_SPLINE_SURFACE_WITH_KNOTS ((2, 2), (3, 2, 2, 2, 3), (0., 1.), (0., 0.25, 0.5, 0.75, 1.), .UNSPECIFIED.)
   GEOMETRIC_REPRESENTATION_ITEM ()
   RATIONAL_B_SPLINE_SURFACE (((1., 0.707106781186548, 1., 0.707106781186548, 1., 0.707106781186548, 1., 0.707106781186548, 1.), (1., 0.707106781186548, 1., 0.707106781186548, 1., 0.707106781186548, 1., 0.707106781186548, 1.)))
   REPRESENTATION_ITEM ('')
   SURFACE ()
);
#149 = CARTESIAN_POINT('', (-3., 1.49129302665284E-15, -0.299999999999997));
#150 = CARTESIAN_POINT('', (-3., 3., -0.299999999999985));
#151 = CARTESIAN_POINT('', (2.34149119846292E-15, 3., -0.299999999999985));
#152 = CARTESIAN_POINT('', (3., 3., -0.299999999999985));
#153 = CARTESIAN_POINT('', (3., -1.34594359183367E-15, -0.299999999999997));
#154 = CARTESIAN_POINT('', (3., -3., -0.300000000000009));
#155 = CARTESIAN_POINT('', (-1.28351380279387E-16, -3., -0.300000000000009));
#156 = CARTESIAN_POINT('', (-3., -3., -0.300000000000009));
#157 = CARTESIAN_POINT('', (-3., 1.49129302665284E-15, -0.299999999999997));
#158 = CARTESIAN_POINT('', (-2.7, 1.65327317884893E-16, -2.18952885050753E-47));
#159 = CARTESIAN_POINT('', (-2.7, 2.7, 1.04916075827078E-14));
#160 = CARTESIAN_POINT('', (2.19962936753859E-15, 2.7, 1.04916075827078E-14));
#161 = CARTESIAN_POINT('', (2.7, 2.7, 1.04916075827078E-14));
#162 = CARTESIAN_POINT('', (2.7, -2.38818563875297E-15, 1.12461399303431E-30));
#163 = CARTESIAN_POINT('', (2.7, -2.7, -1.04916075827078E-14));
#164 = CARTESIAN_POINT('', (-2.32289533294833E-17, -2.7, -1.04916075827078E-14));
#165 = CARTESIAN_POINT('', (-2.7, -2.7, -1.04916075827078E-14));
#166 = CARTESIAN_POINT('', (-2.7, 1.65327317884893E-16, -2.18952885050753E-47));
#167 = ADVANCED_FACE('', (#168), #171, .T.);
#168 = FACE_OUTER_BOUND('', #169, .T.);
#169 = EDGE_LOOP('', (#170));
#170 = ORIENTED_EDGE('', *, *, #140, .F.);
#171 = B_SPLINE_SURFACE_WITH_KNOTS('', 1, 1, ((#172, #173), (#174, #175)), .UNSPECIFIED., .F., .F., .U., (2, 2), (2, 2), (0.0454545454545454, 0.954545454545454), (0.0454545454545454, 0.954545454545454), .UNSPECIFIED.);
#172 = CARTESIAN_POINT('', (2.7, -2.7, -1.65327317884893E-16));
#173 = CARTESIAN_POINT('', (-2.7, -2.7, -1.65327317884893E-16));
#174 = CARTESIAN_POINT('', (2.7, 2.7, 1.65327317884893E-16));
#175 = CARTESIAN_POINT('', (-2.7, 2.7, 1.65327317884893E-16));
#176 = ADVANCED_FACE('', (#177), #180, .T.);
#177 = FACE_OUTER_BOUND('', #178, .T.);
#178 = EDGE_LOOP('', (#179));
#179 = ORIENTED_EDGE('', *, *, #25, .T.);
#180 = B_SPLINE_SURFACE_WITH_KNOTS('', 1, 1, ((#181, #182), (#183, #184)), .UNSPECIFIED., .F., .F., .U., (2, 2), (2, 2), (0.491255193478342, 0.540710214815139), (0.459289785184861, 0.508744806521658), .UNSPECIFIED.);
#181 = CARTESIAN_POINT('', (-2.85000000000002, 2.85000000000002, -46.));
#182 = CARTESIAN_POINT('', (-2.85000000000002, -2.84999999999997, -46.));
#183 = CARTESIAN_POINT('', (2.84999999999999, 2.85000000000002, -46.));
#184 = CARTESIAN_POINT('', (2.84999999999999, -2.84999999999997, -46.));
#185 = DRAUGHTING_MODEL('', (#193, #301, #341, #346, #351, #356, #361), #375);
#186 = PRESENTATION_STYLE_ASSIGNMENT((#187));
#187 = SURFACE_STYLE_USAGE(.POSITIVE., #188);
#188 = SURFACE_SIDE_STYLE('', (#189));
#189 = SURFACE_STYLE_FILL_AREA(#190);
#190 = FILL_AREA_STYLE('', (#191));
#191 = FILL_AREA_STYLE_COLOUR('', #192);
#192 = COLOUR_RGB('', 0.50196078431373, 0.50196078431373, 0.50196078431373);
#193 = STYLED_ITEM('', (#186), #1);
#194 = MANIFOLD_SOLID_BREP('CUT', #195);
#195 = CLOSED_SHELL('', (#196, #213, #252));
#196 = ADVANCED_FACE('', (#197), #208, .T.);
#197 = FACE_OUTER_BOUND('', #198, .T.);
#198 = EDGE_LOOP('', (#199));
#199 = ORIENTED_EDGE('', *, *, #200, .F.);
#200 = EDGE_CURVE('', #201, #201, #203, .T.);
#201 = VERTEX_POINT('', #202);
#202 = CARTESIAN_POINT('', (-3., 3.00038465791102E-15, -46.));
#203 = CIRCLE('', #204, 3.);
#204 = AXIS2_PLACEMENT_3D('', #205, #206, #207);
#205 = CARTESIAN_POINT('', (4.02455846426619E-16, 1.22124532708767E-15, -46.));
#206 = DIRECTION('', (0., 0., -1.));
#207 = DIRECTION('', (-1., 5.93046443607782E-16, 0.));
#208 = B_SPLINE_SURFACE_WITH_KNOTS('', 1, 1, ((#209, #210), (#211, #212)), .UNSPECIFIED., .F., .F., .U., (2, 2), (2, 2), (0.0454545454545454, 0.954545454545454), (0.0454545454545455, 0.954545454545454), .UNSPECIFIED.);
#209 = CARTESIAN_POINT('', (3., -3., -46.));
#210 = CARTESIAN_POINT('', (-3., -3., -46.));
#211 = CARTESIAN_POINT('', (3., 3., -46.));
#212 = CARTESIAN_POINT('', (-3., 3., -46.));
#213 = ADVANCED_FACE('', (#214), #233, .T.);
#214 = FACE_OUTER_BOUND('', #215, .T.);
#215 = EDGE_LOOP('', (#216, #224, #225, #226));
#216 = ORIENTED_EDGE('', *, *, #217, .F.);
#217 = EDGE_CURVE('', #201, #218, #220, .T.);
#218 = VERTEX_POINT('', #219);
#219 = CARTESIAN_POINT('', (-3., 3.49024337756996E-15, -54.));
#220 = LINE('', #221, #222);
#221 = CARTESIAN_POINT('', (-3., 3.00038465791102E-15, -46.));
#222 = VECTOR('', #223, 8.);
#223 = DIRECTION('', (0., 4.8985871965894E-16, -8.));
#224 = ORIENTED_EDGE('', *, *, #200, .T.);
#225 = ORIENTED_EDGE('', *, *, #217, .T.);
#226 = ORIENTED_EDGE('', *, *, #227, .F.);
#227 = EDGE_CURVE('', #218, #218, #228, .T.);
#228 = CIRCLE('', #229, 3.);
#229 = AXIS2_PLACEMENT_3D('', #230, #231, #232);
#230 = CARTESIAN_POINT('', (8.32667268468867E-17, -2.22044604925031E-16, -54.));
#231 = DIRECTION('', (9.97516105618036E-30, 8.06119657463333E-15, -1.));
#232 = DIRECTION('', (-1., 1.23742932749833E-15, 0.));
#233 = (
   BOUNDED_SURFACE ()
   B_SPLINE_SURFACE (2, 1, ((#234, #235), (#236, #237), (#238, #239), (#240, #241), (#242, #243), (#244, #245), (#246, #247), (#248, #249), (#250, #251)), .UNSPECIFIED., .T., .F., .U.)
   B_SPLINE_SURFACE_WITH_KNOTS ((3, 2, 2, 2, 3), (2, 2), (0., 4.7123889803847, 9.4247779607694, 14.1371669411541, 18.8495559215388), (0., 1.), .UNSPECIFIED.)
   GEOMETRIC_REPRESENTATION_ITEM ()
   RATIONAL_B_SPLINE_SURFACE (((1., 1.), (0.707106781186548, 0.707106781186548), (1., 1.), (0.707106781186548, 0.707106781186548), (1., 1.), (0.707106781186548, 0.707106781186548), (1., 1.), (0.707106781186548, 0.707106781186548), (1., 1.)))
   REPRESENTATION_ITEM ('')
   SURFACE ()
);
#234 = CARTESIAN_POINT('', (-3., 3.00038465791102E-15, -46.));
#235 = CARTESIAN_POINT('', (-3., 2.22322854067341E-15, -54.));
#236 = CARTESIAN_POINT('', (-3., 3., -46.));
#237 = CARTESIAN_POINT('', (-3., 3., -54.));
#238 = CARTESIAN_POINT('', (2.62239860872951E-15, 3., -46.));
#239 = CARTESIAN_POINT('', (2.62239860872951E-15, 3., -54.));
#240 = CARTESIAN_POINT('', (3., 3., -46.));
#241 = CARTESIAN_POINT('', (3., 3., -54.));
#242 = CARTESIAN_POINT('', (3., -1.52276759354166E-15, -46.));
#243 = CARTESIAN_POINT('', (3., -2.29992371077927E-15, -54.));
#244 = CARTESIAN_POINT('', (3., -3., -46.));
#245 = CARTESIAN_POINT('', (3., -3., -54.));
#246 = CARTESIAN_POINT('', (-1.53335960297896E-15, -3., -46.));
#247 = CARTESIAN_POINT('', (-1.53335960297896E-15, -3., -54.));
#248 = CARTESIAN_POINT('', (-3., -3., -46.));
#249 = CARTESIAN_POINT('', (-3., -3., -54.));
#250 = CARTESIAN_POINT('', (-3., 3.00038465791102E-15, -46.));
#251 = CARTESIAN_POINT('', (-3., 2.22322854067341E-15, -54.));
#252 = ADVANCED_FACE('', (#253), #266, .T.);
#253 = FACE_OUTER_BOUND('', #254, .T.);
#254 = EDGE_LOOP('', (#255, #264, #265));
#255 = ORIENTED_EDGE('', *, *, #256, .F.);
#256 = EDGE_CURVE('', #218, #257, #259, .T.);
#257 = VERTEX_POINT('', #258);
#258 = CARTESIAN_POINT('', (5.51091059616309E-16, 3.49024337756996E-15, -57.));
#259 = CIRCLE('', #260, 3.);
#260 = AXIS2_PLACEMENT_3D('', #261, #262, #263);
#261 = CARTESIAN_POINT('', (-3.5527136788005E-15, 3.30654635769786E-15, -54.));
#262 = DIRECTION('', (-6.1232339957367E-17, -1., -6.12323399573669E-17));
#263 = DIRECTION('', (-1., 6.1232339957367E-17, 0.));
#264 = ORIENTED_EDGE('', *, *, #227, .T.);
#265 = ORIENTED_EDGE('', *, *, #256, .T.);
#266 = (
   BOUNDED_SURFACE ()
   B_SPLINE_SURFACE (2, 2, ((#267, #268, #269), (#270, #271, #272), (#273, #274, #275), (#276, #277, #278), (#279, #280, #281), (#282, #283, #284), (#285, #286, #287), (#288, #289, #290), (#291, #292, #293)), .UNSPECIFIED., .T., .F., .U.)
   B_SPLINE_SURFACE_WITH_KNOTS ((3, 2, 2, 2, 3), (3, 3), (0., 0.25, 0.5, 0.75, 1.), (0., 1.), .UNSPECIFIED.)
   GEOMETRIC_REPRESENTATION_ITEM ()
   RATIONAL_B_SPLINE_SURFACE (((1., 0.707106781186548, 1.), (0.707106781186548, 0.5, 0.707106781186548), (1., 0.707106781186548, 1.), (0.707106781186548, 0.5, 0.707106781186548), (1., 0.707106781186548, 1.), (0.707106781186548, 0.5, 0.707106781186548), (1., 0.707106781186548, 1.), (0.707106781186548, 0.5, 0.707106781186548), (1., 0.707106781186548, 1.)))
   REPRESENTATION_ITEM ('')
   SURFACE ()
);
#267 = CARTESIAN_POINT('', (-3., 3.49024337756996E-15, -54.));
#268 = CARTESIAN_POINT('', (-3., 3.67394039744206E-15, -57.));
#269 = CARTESIAN_POINT('', (5.51091059616309E-16, 3.49024337756996E-15, -57.));
#270 = CARTESIAN_POINT('', (-3., 3., -54.));
#271 = CARTESIAN_POINT('', (-3., 3., -57.));
#272 = CARTESIAN_POINT('', (5.51091059616309E-16, 3.49024337756996E-15, -57.));
#273 = CARTESIAN_POINT('', (-3.5527136788005E-15, 3., -54.));
#274 = CARTESIAN_POINT('', (-3.3690166589284E-15, 3., -57.));
#275 = CARTESIAN_POINT('', (5.51091059616309E-16, 3.49024337756996E-15, -57.));
#276 = CARTESIAN_POINT('', (2.99999999999999, 3., -54.));
#277 = CARTESIAN_POINT('', (2.99999999999999, 3., -57.));
#278 = CARTESIAN_POINT('', (5.51091059616309E-16, 3.49024337756996E-15, -57.));
#279 = CARTESIAN_POINT('', (2.99999999999999, 3.49024337756996E-15, -54.));
#280 = CARTESIAN_POINT('', (2.99999999999999, 3.30654635769786E-15, -57.));
#281 = CARTESIAN_POINT('', (5.51091059616309E-16, 3.49024337756996E-15, -57.));
#282 = CARTESIAN_POINT('', (2.99999999999999, -2.99999999999999, -54.));
#283 = CARTESIAN_POINT('', (2.99999999999999, -2.99999999999999, -57.));
#284 = CARTESIAN_POINT('', (5.51091059616309E-16, 3.49024337756996E-15, -57.));
#285 = CARTESIAN_POINT('', (-3.18531963905629E-15, -2.99999999999999, -54.));
#286 = CARTESIAN_POINT('', (-3.36901665892839E-15, -2.99999999999999, -57.));
#287 = CARTESIAN_POINT('', (5.51091059616309E-16, 3.49024337756996E-15, -57.));
#288 = CARTESIAN_POINT('', (-3., -2.99999999999999, -54.));
#289 = CARTESIAN_POINT('', (-3., -2.99999999999999, -57.));
#290 = CARTESIAN_POINT('', (5.51091059616309E-16, 3.49024337756996E-15, -57.));
#291 = CARTESIAN_POINT('', (-3., 3.49024337756996E-15, -54.));
#292 = CARTESIAN_POINT('', (-3., 3.67394039744206E-15, -57.));
#293 = CARTESIAN_POINT('', (5.51091059616309E-16, 3.49024337756996E-15, -57.));
#294 = PRESENTATION_STYLE_ASSIGNMENT((#295));
#295 = SURFACE_STYLE_USAGE(.POSITIVE., #296);
#296 = SURFACE_SIDE_STYLE('', (#297));
#297 = SURFACE_STYLE_FILL_AREA(#298);
#298 = FILL_AREA_STYLE('', (#299));
#299 = FILL_AREA_STYLE_COLOUR('', #300);
#300 = COLOUR_RGB('', 0.8, 0.8, 0.8);
#301 = STYLED_ITEM('', (#294), #194);
#302 = TRIMMED_CURVE('cutting part line', #303, (#308), (#309), .T., .CARTESIAN.);
#303 = CIRCLE('', #304, 2.99999999999998);
#304 = AXIS2_PLACEMENT_3D('', #305, #306, #307);
#305 = CARTESIAN_POINT('', (7.43849426498855E-15, 0., -54.));
#306 = DIRECTION('', (0., -1., 0.));
#307 = DIRECTION('', (-2.66916118836967E-15, 0., -1.));
#308 = CARTESIAN_POINT('', (-5.68989300120397E-16, 0., -57.));
#309 = CARTESIAN_POINT('', (2.99999999999999, 0., -54.));
#310 = TRIMMED_CURVE('cutting part line', #311, (#315), (#316), .T., .CARTESIAN.);
#311 = LINE('', #312, #313);
#312 = CARTESIAN_POINT('', (3., -7.77037752596714E-16, -54.));
#313 = VECTOR('', #314, 8.);
#314 = DIRECTION('', (0., 7.77037752596714E-16, 8.));
#315 = CARTESIAN_POINT('', (3., -7.77037752596714E-16, -54.));
#316 = CARTESIAN_POINT('', (3., 0., -46.));
#317 = TRIMMED_CURVE('cutting part line', #318, (#322), (#323), .T., .CARTESIAN.);
#318 = LINE('', #319, #320);
#319 = CARTESIAN_POINT('', (3., 0., -46.));
#320 = VECTOR('', #321, 3.);
#321 = DIRECTION('', (-3., 0., -7.105427357601E-15));
#322 = CARTESIAN_POINT('', (3., 0., -46.));
#323 = CARTESIAN_POINT('', (6.93889390390723E-18, 0., -46.));
#324 = TRIMMED_CURVE('cutting part line', #325, (#329), (#330), .T., .CARTESIAN.);
#325 = LINE('', #326, #327);
#326 = CARTESIAN_POINT('', (0., 0., -46.));
#327 = VECTOR('', #328, 11.);
#328 = DIRECTION('', (0., 0., -11.));
#329 = CARTESIAN_POINT('', (0., 0., -46.));
#330 = CARTESIAN_POINT('', (0., 0., -57.));
#331 = COMPOSITE_CURVE('cutting part line', (#332, #333, #334, #335), .U.);
#332 = COMPOSITE_CURVE_SEGMENT(.CONTINUOUS., .T., #302);
#333 = COMPOSITE_CURVE_SEGMENT(.CONTINUOUS., .T., #310);
#334 = COMPOSITE_CURVE_SEGMENT(.CONTINUOUS., .T., #317);
#335 = COMPOSITE_CURVE_SEGMENT(.CONTINUOUS., .T., #324);
#336 = GEOMETRIC_SET('', (#331, #374));
#337 = PRESENTATION_STYLE_ASSIGNMENT((#338));
#338 = CURVE_STYLE('', #340, POSITIVE_LENGTH_MEASURE(1.E-6), #339);
#339 = COLOUR_RGB('', 0., 0., 1.);
#340 = DRAUGHTING_PRE_DEFINED_CURVE_FONT('continuous');
#341 = STYLED_ITEM('', (#337), #331);
#342 = PRESENTATION_STYLE_ASSIGNMENT((#343));
#343 = CURVE_STYLE('', #345, POSITIVE_LENGTH_MEASURE(1.E-6), #344);
#344 = COLOUR_RGB('', 0., 0., 1.);
#345 = DRAUGHTING_PRE_DEFINED_CURVE_FONT('continuous');
#346 = OVER_RIDING_STYLED_ITEM('', (#342), #302, #341);
#347 = PRESENTATION_STYLE_ASSIGNMENT((#348));
#348 = CURVE_STYLE('', #350, POSITIVE_LENGTH_MEASURE(1.E-6), #349);
#349 = COLOUR_RGB('', 0., 0., 1.);
#350 = DRAUGHTING_PRE_DEFINED_CURVE_FONT('continuous');
#351 = OVER_RIDING_STYLED_ITEM('', (#347), #310, #341);
#352 = PRESENTATION_STYLE_ASSIGNMENT((#353));
#353 = CURVE_STYLE('', #355, POSITIVE_LENGTH_MEASURE(1.E-6), #354);
#354 = COLOUR_RGB('', 0., 0., 1.);
#355 = DRAUGHTING_PRE_DEFINED_CURVE_FONT('continuous');
#356 = OVER_RIDING_STYLED_ITEM('', (#352), #317, #341);
#357 = PRESENTATION_STYLE_ASSIGNMENT((#358));
#358 = CURVE_STYLE('', #360, POSITIVE_LENGTH_MEASURE(1.E-6), #359);
#359 = COLOUR_RGB('', 0., 0., 1.);
#360 = DRAUGHTING_PRE_DEFINED_CURVE_FONT('continuous');
#361 = OVER_RIDING_STYLED_ITEM('', (#357), #324, #341);
#362 = AXIS2_PLACEMENT_3D('MCS', #363, #364, #365);
#363 = CARTESIAN_POINT('', (0., 0., -36.));
#364 = DIRECTION('', (0., 0., 1.));
#365 = DIRECTION('', (1., 0., 0.));
#366 = AXIS2_PLACEMENT_3D('PCS', #367, #368, #369);
#367 = CARTESIAN_POINT('', (0., 0., 0.));
#368 = DIRECTION('', (0., 0., 1.));
#369 = DIRECTION('', (1., 0., 0.));
#370 = AXIS2_PLACEMENT_3D('CIP', #371, #372, #373);
#371 = CARTESIAN_POINT('', (0., 0., -57.));
#372 = DIRECTION('', (0., 0., 1.));
#373 = DIRECTION('', (1., 0., 0.));
#374 = CARTESIAN_POINT('CRP', (3., 0., -57.));
#375 = (
   GEOMETRIC_REPRESENTATION_CONTEXT (3)
   GLOBAL_UNCERTAINTY_ASSIGNED_CONTEXT ((#377))
   GLOBAL_UNIT_ASSIGNED_CONTEXT ((#376, #378, #379))
   REPRESENTATION_CONTEXT ('', '3D')
);
#376 = (
   LENGTH_UNIT ()
   NAMED_UNIT (*)
   SI_UNIT (.MILLI., .METRE.)
);
#377 = UNCERTAINTY_MEASURE_WITH_UNIT(LENGTH_MEASURE(1.E-6), #376, 'DISTANCE_ACCURACY_VALUE', '');
#378 = (
   NAMED_UNIT (*)
   SI_UNIT ($, .STERADIAN.)
   SOLID_ANGLE_UNIT ()
);
#379 = (
   NAMED_UNIT (*)
   PLANE_ANGLE_UNIT ()
   SI_UNIT ($, .RADIAN.)
);
#380 = SHAPE_REPRESENTATION('', (), #375);
#381 = PRODUCT_DEFINITION_SHAPE('', '', #382);
#382 = PRODUCT_DEFINITION('', '', #385, #389);
#383 = APPLICATION_CONTEXT('configuration controlled 3D designs of mechanical parts and assemblies');
#384 = APPLICATION_PROTOCOL_DEFINITION('International Standard', 'automotive_design', 2002, #383);
#385 = PRODUCT_DEFINITION_FORMATION_WITH_SPECIFIED_SOURCE('', '', #386, .NOT_KNOWN.);
#386 = PRODUCT('product-name', '2B330-0600-NC       H10F', '', (#387));
#387 = PRODUCT_CONTEXT('', #383, 'mechanical');
#388 = PRODUCT_RELATED_PRODUCT_CATEGORY('detail', '', (#386));
#389 = PRODUCT_DEFINITION_CONTEXT('part definition', #383, 'design');
#390 = SHAPE_DEFINITION_REPRESENTATION(#381, #380);
#391 = CONSTRUCTIVE_GEOMETRY_REPRESENTATION('supplemental geometry', (#362, #366, #370), #375);
#392 = CONSTRUCTIVE_GEOMETRY_REPRESENTATION_RELATIONSHIP('', '', #380, #391);
#393 = SHAPE_REPRESENTATION_RELATIONSHIP('', '', #380, #394);
#394 = SHAPE_REPRESENTATION('', (#336), #375);
#395 = SHAPE_REPRESENTATION_RELATIONSHIP('', '', #380, #396);
#396 = ADVANCED_BREP_SHAPE_REPRESENTATION('', (#1, #194), #375);
ENDSEC;
END-ISO-10303-21;
