ISO-10303-21;
HEADER;
FILE_DESCRIPTION(('STEP'), '1');
FILE_NAME('C:\\Users\\ds2002\\OneDrive - Sandvik\\HomeShare\\Documents\\Batchrepair\\CorSRT2\\NEW_MILBN_SLD\\Output2\\MOD000000000000000020082299500000.stp', '2018-11-23T12:38:41', (''), (''), 'Express v3.0.0.0', 'Express Tool', 'Unknown');
FILE_SCHEMA(('AUTOMOTIVE_DESIGN'));
ENDSEC;

DATA;
#1 = MANIFOLD_SOLID_BREP('NOCUT', #2);
#2 = CLOSED_SHELL('', (#3, #50, #89, #128, #167, #176));
#3 = ADVANCED_FACE('', (#4), #31, .T.);
#4 = FACE_OUTER_BOUND('', #5, .T.);
#5 = EDGE_LOOP('', (#6, #16, #23, #24));
#6 = ORIENTED_EDGE('', *, *, #7, .F.);
#7 = EDGE_CURVE('', #8, #10, #12, .T.);
#8 = VERTEX_POINT('', #9);
#9 = CARTESIAN_POINT('', (-1.85, 2.45847844928831E-15, -38.3));
#10 = VERTEX_POINT('', #11);
#11 = CARTESIAN_POINT('', (-1.85, 2.74627044708794E-15, -43.));
#12 = LINE('', #13, #14);
#13 = CARTESIAN_POINT('', (-1.85, 2.45847844928831E-15, -38.3));
#14 = VECTOR('', #15, 4.7);
#15 = DIRECTION('', (0., 2.8779199779963E-16, -4.7));
#16 = ORIENTED_EDGE('', *, *, #17, .T.);
#17 = EDGE_CURVE('', #8, #8, #18, .T.);
#18 = CIRCLE('', #19, 1.85);
#19 = AXIS2_PLACEMENT_3D('', #20, #21, #22);
#20 = CARTESIAN_POINT('', (-9.71445146547012E-17, 9.43689570931383E-16, -38.3));
#21 = DIRECTION('', (0., 0., -1.));
#22 = DIRECTION('', (-1., 8.18804799111852E-16, 0.));
#23 = ORIENTED_EDGE('', *, *, #7, .T.);
#24 = ORIENTED_EDGE('', *, *, #25, .F.);
#25 = EDGE_CURVE('', #10, #10, #26, .T.);
#26 = CIRCLE('', #27, 1.85);
#27 = AXIS2_PLACEMENT_3D('', #28, #29, #30);
#28 = CARTESIAN_POINT('', (2.22044604925031E-16, 1.72084568816899E-15, -43.));
#29 = DIRECTION('', (0., 0., -1.));
#30 = DIRECTION('', (-1., 5.54283653469701E-16, 0.));
#31 = (
   BOUNDED_SURFACE ()
   B_SPLINE_SURFACE (2, 1, ((#32, #33), (#34, #35), (#36, #37), (#38, #39), (#40, #41), (#42, #43), (#44, #45), (#46, #47), (#48, #49)), .UNSPECIFIED., .T., .F., .U.)
   B_SPLINE_SURFACE_WITH_KNOTS ((3, 2, 2, 2, 3), (2, 2), (0., 2.90597320457055, 5.8119464091411, 8.71791961371165, 11.6238928182822), (0., 1.), .UNSPECIFIED.)
   GEOMETRIC_REPRESENTATION_ITEM ()
   RATIONAL_B_SPLINE_SURFACE (((1., 1.), (0.707106781186548, 0.707106781186548), (1., 1.), (0.707106781186548, 0.707106781186548), (1., 1.), (0.707106781186548, 0.707106781186548), (1., 1.), (0.707106781186548, 0.707106781186548), (1., 1.)))
   REPRESENTATION_ITEM ('')
   SURFACE ()
);
#32 = CARTESIAN_POINT('', (-1.85, 2.45847844928831E-15, -38.3));
#33 = CARTESIAN_POINT('', (-1.85, 2.79154535667586E-15, -43.));
#34 = CARTESIAN_POINT('', (-1.85, 1.85, -38.3));
#35 = CARTESIAN_POINT('', (-1.85, 1.85, -43.));
#36 = CARTESIAN_POINT('', (9.71297627393549E-16, 1.85, -38.3));
#37 = CARTESIAN_POINT('', (9.71297627393549E-16, 1.85, -43.));
#38 = CARTESIAN_POINT('', (1.85, 1.85, -38.3));
#39 = CARTESIAN_POINT('', (1.85, 1.85, -43.));
#40 = CARTESIAN_POINT('', (1.85, 5.43638770116842E-16, -38.3));
#41 = CARTESIAN_POINT('', (1.85, 8.76705677504389E-16, -43.));
#42 = CARTESIAN_POINT('', (1.85, -1.85, -38.3));
#43 = CARTESIAN_POINT('', (1.85, -1.85, -43.));
#44 = CARTESIAN_POINT('', (-7.1698239393566E-16, -1.85, -38.3));
#45 = CARTESIAN_POINT('', (-7.16982393935659E-16, -1.85, -43.));
#46 = CARTESIAN_POINT('', (-1.85, -1.85, -38.3));
#47 = CARTESIAN_POINT('', (-1.85, -1.85, -43.));
#48 = CARTESIAN_POINT('', (-1.85, 2.45847844928831E-15, -38.3));
#49 = CARTESIAN_POINT('', (-1.85, 2.79154535667586E-15, -43.));
#50 = ADVANCED_FACE('', (#51), #70, .T.);
#51 = FACE_OUTER_BOUND('', #52, .T.);
#52 = EDGE_LOOP('', (#53, #61, #68, #69));
#53 = ORIENTED_EDGE('', *, *, #54, .F.);
#54 = EDGE_CURVE('', #55, #8, #57, .T.);
#55 = VERTEX_POINT('', #56);
#56 = CARTESIAN_POINT('', (-2., 2.44929359829471E-15, -38.));
#57 = LINE('', #58, #59);
#58 = CARTESIAN_POINT('', (-2., 2.44929359829471E-15, -38.));
#59 = VECTOR('', #60, 0.335410196624966);
#60 = DIRECTION('', (0.15, 9.18485099360009E-18, -0.299999999999997));
#61 = ORIENTED_EDGE('', *, *, #62, .T.);
#62 = EDGE_CURVE('', #55, #55, #63, .T.);
#63 = CIRCLE('', #64, 2.);
#64 = AXIS2_PLACEMENT_3D('', #65, #66, #67);
#65 = CARTESIAN_POINT('', (6.24500451351651E-17, 1.60982338570648E-15, -38.));
#66 = DIRECTION('', (0., 0., -1.));
#67 = DIRECTION('', (-1., 4.19735106294117E-16, 0.));
#68 = ORIENTED_EDGE('', *, *, #54, .T.);
#69 = ORIENTED_EDGE('', *, *, #17, .F.);
#70 = (
   BOUNDED_SURFACE ()
   B_SPLINE_SURFACE (2, 1, ((#71, #72), (#73, #74), (#75, #76), (#77, #78), (#79, #80), (#81, #82), (#83, #84), (#85, #86), (#87, #88)), .UNSPECIFIED., .T., .F., .U.)
   B_SPLINE_SURFACE_WITH_KNOTS ((3, 2, 2, 2, 3), (2, 2), (0., 0.25, 0.5, 0.75, 1.), (0., 1.), .UNSPECIFIED.)
   GEOMETRIC_REPRESENTATION_ITEM ()
   RATIONAL_B_SPLINE_SURFACE (((1., 1.), (0.707106781186548, 0.707106781186548), (1., 1.), (0.707106781186548, 0.707106781186548), (1., 1.), (0.707106781186548, 0.707106781186548), (1., 1.), (0.707106781186548, 0.707106781186548), (1., 1.)))
   REPRESENTATION_ITEM ('')
   SURFACE ()
);
#71 = CARTESIAN_POINT('', (-2., 2.44929359829471E-15, -38.));
#72 = CARTESIAN_POINT('', (-1.85, 1.7201995175755E-15, -38.3));
#73 = CARTESIAN_POINT('', (-2., 2., -38.));
#74 = CARTESIAN_POINT('', (-1.85, 1.85, -38.3));
#75 = CARTESIAN_POINT('', (7.79455577808663E-16, 2., -38.));
#76 = CARTESIAN_POINT('', (7.2568016285815E-16, 1.85, -38.3));
#77 = CARTESIAN_POINT('', (2., 2., -38.));
#78 = CARTESIAN_POINT('', (1.85, 1.85, -38.3));
#79 = CARTESIAN_POINT('', (2., 1.01528253294771E-15, -38.));
#80 = CARTESIAN_POINT('', (1.85, 3.93739282129528E-16, -38.3));
#81 = CARTESIAN_POINT('', (2., -2., -38.));
#82 = CARTESIAN_POINT('', (1.85, -1.85, -38.3));
#83 = CARTESIAN_POINT('', (-4.09626127708862E-16, -2., -38.));
#84 = CARTESIAN_POINT('', (-3.7422041474556E-16, -1.85, -38.3));
#85 = CARTESIAN_POINT('', (-2., -2., -38.));
#86 = CARTESIAN_POINT('', (-1.85, -1.85, -38.3));
#87 = CARTESIAN_POINT('', (-2., 2.44929359829471E-15, -38.));
#88 = CARTESIAN_POINT('', (-1.85, 1.7201995175755E-15, -38.3));
#89 = ADVANCED_FACE('', (#90), #109, .T.);
#90 = FACE_OUTER_BOUND('', #91, .T.);
#91 = EDGE_LOOP('', (#92, #100, #107, #108));
#92 = ORIENTED_EDGE('', *, *, #93, .T.);
#93 = EDGE_CURVE('', #55, #94, #96, .T.);
#94 = VERTEX_POINT('', #95);
#95 = CARTESIAN_POINT('', (-2., 1.34711147906209E-16, -0.200000000000003));
#96 = LINE('', #97, #98);
#97 = CARTESIAN_POINT('', (-2., 2.44929359829471E-15, -38.));
#98 = VECTOR('', #99, 37.8);
#99 = DIRECTION('', (0., -2.3145824503885E-15, 37.8));
#100 = ORIENTED_EDGE('', *, *, #101, .T.);
#101 = EDGE_CURVE('', #94, #94, #102, .T.);
#102 = CIRCLE('', #103, 2.);
#103 = AXIS2_PLACEMENT_3D('', #104, #105, #106);
#104 = CARTESIAN_POINT('', (-1.04083408558608E-16, -6.66133814775094E-16, -0.200000000000003));
#105 = DIRECTION('', (1.38777878078145E-17, 2.08473661697978E-18, -1.));
#106 = DIRECTION('', (-1., 4.00422481340651E-16, -1.38777878078145E-17));
#107 = ORIENTED_EDGE('', *, *, #93, .F.);
#108 = ORIENTED_EDGE('', *, *, #62, .F.);
#109 = (
   BOUNDED_SURFACE ()
   B_SPLINE_SURFACE (1, 2, ((#110, #111, #112, #113, #114, #115, #116, #117, #118), (#119, #120, #121, #122, #123, #124, #125, #126, #127)), .UNSPECIFIED., .F., .T., .U.)
   B_SPLINE_SURFACE_WITH_KNOTS ((2, 2), (3, 2, 2, 2, 3), (0., 1.), (0., 3.1415926535898, 6.2831853071796, 9.4247779607694, 12.5663706143592), .UNSPECIFIED.)
   GEOMETRIC_REPRESENTATION_ITEM ()
   RATIONAL_B_SPLINE_SURFACE (((1., 0.707106781186548, 1., 0.707106781186548, 1., 0.707106781186548, 1., 0.707106781186548, 1.), (1., 0.707106781186548, 1., 0.707106781186548, 1., 0.707106781186548, 1., 0.707106781186548, 1.)))
   REPRESENTATION_ITEM ('')
   SURFACE ()
);
#110 = CARTESIAN_POINT('', (-2., 8.00844962681303E-16, -38.));
#111 = CARTESIAN_POINT('', (-2., 2., -38.));
#112 = CARTESIAN_POINT('', (1.09887725334335E-15, 2., -38.));
#113 = CARTESIAN_POINT('', (2., 2., -38.));
#114 = CARTESIAN_POINT('', (2., -5.55915602851833E-16, -38.));
#115 = CARTESIAN_POINT('', (2., -2., -38.));
#116 = CARTESIAN_POINT('', (-1.29539523603188E-17, -2., -38.));
#117 = CARTESIAN_POINT('', (-2., -2., -38.));
#118 = CARTESIAN_POINT('', (-2., 8.00844962681303E-16, -38.));
#119 = CARTESIAN_POINT('', (-2., 1.34711147906209E-16, -0.200000000000003));
#120 = CARTESIAN_POINT('', (-2., 2., -0.200000000000003));
#121 = CARTESIAN_POINT('', (5.74296874207959E-16, 2., -0.200000000000003));
#122 = CARTESIAN_POINT('', (2., 2., -0.200000000000003));
#123 = CARTESIAN_POINT('', (2., -1.22204941762693E-15, -0.200000000000003));
#124 = CARTESIAN_POINT('', (2., -2., -0.200000000000003));
#125 = CARTESIAN_POINT('', (-5.37534331495705E-16, -2., -0.200000000000003));
#126 = CARTESIAN_POINT('', (-2., -2., -0.200000000000003));
#127 = CARTESIAN_POINT('', (-2., 1.34711147906209E-16, -0.200000000000003));
#128 = ADVANCED_FACE('', (#129), #148, .T.);
#129 = FACE_OUTER_BOUND('', #130, .T.);
#130 = EDGE_LOOP('', (#131, #139, #146, #147));
#131 = ORIENTED_EDGE('', *, *, #132, .T.);
#132 = EDGE_CURVE('', #94, #133, #135, .T.);
#133 = VERTEX_POINT('', #134);
#134 = CARTESIAN_POINT('', (-1.8, 1.10218211923262E-16, 0.));
#135 = LINE('', #136, #137);
#136 = CARTESIAN_POINT('', (-2., 1.34711147906209E-16, -0.200000000000003));
#137 = VECTOR('', #138, 0.282842712474621);
#138 = DIRECTION('', (0.2, -2.4492935982947E-17, 0.200000000000003));
#139 = ORIENTED_EDGE('', *, *, #140, .T.);
#140 = EDGE_CURVE('', #133, #133, #141, .T.);
#141 = CIRCLE('', #142, 1.8);
#142 = AXIS2_PLACEMENT_3D('', #143, #144, #145);
#143 = CARTESIAN_POINT('', (-2.08166817117217E-17, -1.66533453693773E-16, -7.78751025318189E-16));
#144 = DIRECTION('', (-4.32639458510105E-16, 1.26401621069751E-15, -1.));
#145 = DIRECTION('', (-1., 1.53750925342797E-16, 4.32639458510105E-16));
#146 = ORIENTED_EDGE('', *, *, #132, .F.);
#147 = ORIENTED_EDGE('', *, *, #101, .F.);
#148 = (
   BOUNDED_SURFACE ()
   B_SPLINE_SURFACE (1, 2, ((#149, #150, #151, #152, #153, #154, #155, #156, #157), (#158, #159, #160, #161, #162, #163, #164, #165, #166)), .UNSPECIFIED., .F., .T., .U.)
   B_SPLINE_SURFACE_WITH_KNOTS ((2, 2), (3, 2, 2, 2, 3), (0., 1.), (0., 0.25, 0.5, 0.75, 1.), .UNSPECIFIED.)
   GEOMETRIC_REPRESENTATION_ITEM ()
   RATIONAL_B_SPLINE_SURFACE (((1., 0.707106781186548, 1., 0.707106781186548, 1., 0.707106781186548, 1., 0.707106781186548, 1.), (1., 0.707106781186548, 1., 0.707106781186548, 1., 0.707106781186548, 1., 0.707106781186548, 1.)))
   REPRESENTATION_ITEM ('')
   SURFACE ()
);
#149 = CARTESIAN_POINT('', (-2., -1.02476577886459E-15, -0.200000000000002));
#150 = CARTESIAN_POINT('', (-2., 2., -0.200000000000014));
#151 = CARTESIAN_POINT('', (7.76925973571109E-17, 2., -0.200000000000015));
#152 = CARTESIAN_POINT('', (2., 2., -0.200000000000016));
#153 = CARTESIAN_POINT('', (2., -1.39484012040631E-15, -0.200000000000004));
#154 = CARTESIAN_POINT('', (2., -2., -0.199999999999992));
#155 = CARTESIAN_POINT('', (-4.7452384355128E-17, -2., -0.199999999999991));
#156 = CARTESIAN_POINT('', (-2., -2., -0.19999999999999));
#157 = CARTESIAN_POINT('', (-2., -1.02476577886459E-15, -0.200000000000002));
#158 = CARTESIAN_POINT('', (-1.8, 1.10218211923262E-16, 0.));
#159 = CARTESIAN_POINT('', (-1.8, 1.8, -1.04916075827076E-14));
#160 = CARTESIAN_POINT('', (1.45716771982047E-16, 1.8, -1.12703586080258E-14));
#161 = CARTESIAN_POINT('', (1.8, 1.8, -1.2049109633344E-14));
#162 = CARTESIAN_POINT('', (1.8, -2.22848695464285E-16, -1.55750205063638E-15));
#163 = CARTESIAN_POINT('', (1.8, -1.8, 8.93410553207123E-15));
#164 = CARTESIAN_POINT('', (3.30862884410328E-17, -1.8, 9.71285655738942E-15));
#165 = CARTESIAN_POINT('', (-1.8, -1.8, 1.04916075827076E-14));
#166 = CARTESIAN_POINT('', (-1.8, 1.10218211923262E-16, 0.));
#167 = ADVANCED_FACE('', (#168), #171, .T.);
#168 = FACE_OUTER_BOUND('', #169, .T.);
#169 = EDGE_LOOP('', (#170));
#170 = ORIENTED_EDGE('', *, *, #140, .F.);
#171 = B_SPLINE_SURFACE_WITH_KNOTS('', 1, 1, ((#172, #173), (#174, #175)), .UNSPECIFIED., .F., .F., .U., (2, 2), (2, 2), (0.0454545454545454, 0.954545454545455), (0.0454545454545454, 0.954545454545454), .UNSPECIFIED.);
#172 = CARTESIAN_POINT('', (1.8, -1.8, -1.10218211923262E-16));
#173 = CARTESIAN_POINT('', (-1.8, -1.8, -1.10218211923262E-16));
#174 = CARTESIAN_POINT('', (1.8, 1.8, 1.10218211923262E-16));
#175 = CARTESIAN_POINT('', (-1.8, 1.8, 1.10218211923262E-16));
#176 = ADVANCED_FACE('', (#177), #180, .T.);
#177 = FACE_OUTER_BOUND('', #178, .T.);
#178 = EDGE_LOOP('', (#179));
#179 = ORIENTED_EDGE('', *, *, #25, .T.);
#180 = B_SPLINE_SURFACE_WITH_KNOTS('', 1, 1, ((#181, #182), (#183, #184)), .UNSPECIFIED., .F., .F., .U., (2, 2), (2, 2), (0.495926004893719, 0.53269145155119), (0.46730854844881, 0.50407399510628), .UNSPECIFIED.);
#181 = CARTESIAN_POINT('', (-1.85000000000002, 1.85000000000003, -43.));
#182 = CARTESIAN_POINT('', (-1.85000000000002, -1.84999999999999, -43.));
#183 = CARTESIAN_POINT('', (1.84999999999999, 1.85000000000003, -43.));
#184 = CARTESIAN_POINT('', (1.84999999999999, -1.84999999999999, -43.));
#185 = DRAUGHTING_MODEL('', (#193, #301, #341, #346, #351, #356, #361), #375);
#186 = PRESENTATION_STYLE_ASSIGNMENT((#187));
#187 = SURFACE_STYLE_USAGE(.POSITIVE., #188);
#188 = SURFACE_SIDE_STYLE('', (#189));
#189 = SURFACE_STYLE_FILL_AREA(#190);
#190 = FILL_AREA_STYLE('', (#191));
#191 = FILL_AREA_STYLE_COLOUR('', #192);
#192 = COLOUR_RGB('', 0.50196078431373, 0.50196078431373, 0.50196078431373);
#193 = STYLED_ITEM('', (#186), #1);
#194 = MANIFOLD_SOLID_BREP('CUT', #195);
#195 = CLOSED_SHELL('', (#196, #213, #252));
#196 = ADVANCED_FACE('', (#197), #208, .T.);
#197 = FACE_OUTER_BOUND('', #198, .T.);
#198 = EDGE_LOOP('', (#199));
#199 = ORIENTED_EDGE('', *, *, #200, .F.);
#200 = EDGE_CURVE('', #201, #201, #203, .T.);
#201 = VERTEX_POINT('', #202);
#202 = CARTESIAN_POINT('', (-2., 2.75545529808154E-15, -43.));
#203 = CIRCLE('', #204, 2.);
#204 = AXIS2_PLACEMENT_3D('', #205, #206, #207);
#205 = CARTESIAN_POINT('', (4.85722573273506E-17, 1.94289029309402E-15, -43.));
#206 = DIRECTION('', (0., 0., -1.));
#207 = DIRECTION('', (-1., 4.06282502493758E-16, 0.));
#208 = B_SPLINE_SURFACE_WITH_KNOTS('', 1, 1, ((#209, #210), (#211, #212)), .UNSPECIFIED., .F., .F., .U., (2, 2), (2, 2), (0.0454545454545453, 0.954545454545454), (0.0454545454545455, 0.954545454545454), .UNSPECIFIED.);
#209 = CARTESIAN_POINT('', (2., -2., -43.));
#210 = CARTESIAN_POINT('', (-2., -2., -43.));
#211 = CARTESIAN_POINT('', (2., 2., -43.));
#212 = CARTESIAN_POINT('', (-2., 2., -43.));
#213 = ADVANCED_FACE('', (#214), #233, .T.);
#214 = FACE_OUTER_BOUND('', #215, .T.);
#215 = EDGE_LOOP('', (#216, #224, #225, #226));
#216 = ORIENTED_EDGE('', *, *, #217, .F.);
#217 = EDGE_CURVE('', #201, #218, #220, .T.);
#218 = VERTEX_POINT('', #219);
#219 = CARTESIAN_POINT('', (-2., 3.06161699786838E-15, -48.));
#220 = LINE('', #221, #222);
#221 = CARTESIAN_POINT('', (-2., 2.75545529808154E-15, -43.));
#222 = VECTOR('', #223, 5.);
#223 = DIRECTION('', (0., 3.0616169978684E-16, -5.));
#224 = ORIENTED_EDGE('', *, *, #200, .T.);
#225 = ORIENTED_EDGE('', *, *, #217, .T.);
#226 = ORIENTED_EDGE('', *, *, #227, .F.);
#227 = EDGE_CURVE('', #218, #218, #228, .T.);
#228 = CIRCLE('', #229, 2.);
#229 = AXIS2_PLACEMENT_3D('', #230, #231, #232);
#230 = CARTESIAN_POINT('', (-2.22044604925031E-16, 5.55111512312578E-16, -48.));
#231 = DIRECTION('', (1.51540750758465E-29, 1.209179486195E-14, -1.));
#232 = DIRECTION('', (-1., 1.2532527427779E-15, 0.));
#233 = (
   BOUNDED_SURFACE ()
   B_SPLINE_SURFACE (2, 1, ((#234, #235), (#236, #237), (#238, #239), (#240, #241), (#242, #243), (#244, #245), (#246, #247), (#248, #249), (#250, #251)), .UNSPECIFIED., .T., .F., .U.)
   B_SPLINE_SURFACE_WITH_KNOTS ((3, 2, 2, 2, 3), (2, 2), (0., 3.1415926535898, 6.2831853071796, 9.4247779607694, 12.5663706143592), (0., 1.), .UNSPECIFIED.)
   GEOMETRIC_REPRESENTATION_ITEM ()
   RATIONAL_B_SPLINE_SURFACE (((1., 1.), (0.707106781186548, 0.707106781186548), (1., 1.), (0.707106781186548, 0.707106781186548), (1., 1.), (0.707106781186548, 0.707106781186548), (1., 1.), (0.707106781186548, 0.707106781186548), (1., 1.)))
   REPRESENTATION_ITEM ('')
   SURFACE ()
);
#234 = CARTESIAN_POINT('', (-2., 2.75545529808154E-15, -43.));
#235 = CARTESIAN_POINT('', (-2., 3.03301105423783E-15, -48.));
#236 = CARTESIAN_POINT('', (-2., 2., -43.));
#237 = CARTESIAN_POINT('', (-2., 2., -48.));
#238 = CARTESIAN_POINT('', (2.15420693879721E-15, 2., -43.));
#239 = CARTESIAN_POINT('', (2.15420693879721E-15, 2., -48.));
#240 = CARTESIAN_POINT('', (2., 2., -43.));
#241 = CARTESIAN_POINT('', (2., 2., -48.));
#242 = CARTESIAN_POINT('', (2., -1.95541442593949E-15, -43.));
#243 = CARTESIAN_POINT('', (2., -1.6778586697832E-15, -48.));
#244 = CARTESIAN_POINT('', (2., -2., -43.));
#245 = CARTESIAN_POINT('', (2., -2., -48.));
#246 = CARTESIAN_POINT('', (-2.31173342539436E-15, -2., -43.));
#247 = CARTESIAN_POINT('', (-2.31173342539435E-15, -2., -48.));
#248 = CARTESIAN_POINT('', (-2., -2., -43.));
#249 = CARTESIAN_POINT('', (-2., -2., -48.));
#250 = CARTESIAN_POINT('', (-2., 2.75545529808154E-15, -43.));
#251 = CARTESIAN_POINT('', (-2., 3.03301105423783E-15, -48.));
#252 = ADVANCED_FACE('', (#253), #266, .T.);
#253 = FACE_OUTER_BOUND('', #254, .T.);
#254 = EDGE_LOOP('', (#255, #264, #265));
#255 = ORIENTED_EDGE('', *, *, #256, .F.);
#256 = EDGE_CURVE('', #218, #257, #259, .T.);
#257 = VERTEX_POINT('', #258);
#258 = CARTESIAN_POINT('', (5.89438644669238E-16, 3.06161699786838E-15, -50.));
#259 = CIRCLE('', #260, 1.99999999999997);
#260 = AXIS2_PLACEMENT_3D('', #261, #262, #263);
#261 = CARTESIAN_POINT('', (-3.10862446895044E-14, 2.93915231795364E-15, -48.));
#262 = DIRECTION('', (-6.123233995737E-17, -1., -6.12323399573702E-17));
#263 = DIRECTION('', (-1., 6.12323399573693E-17, 1.06581410364017E-14));
#264 = ORIENTED_EDGE('', *, *, #227, .T.);
#265 = ORIENTED_EDGE('', *, *, #256, .T.);
#266 = (
   BOUNDED_SURFACE ()
   B_SPLINE_SURFACE (2, 2, ((#267, #268, #269), (#270, #271, #272), (#273, #274, #275), (#276, #277, #278), (#279, #280, #281), (#282, #283, #284), (#285, #286, #287), (#288, #289, #290), (#291, #292, #293)), .UNSPECIFIED., .T., .F., .U.)
   B_SPLINE_SURFACE_WITH_KNOTS ((3, 2, 2, 2, 3), (3, 3), (0., 0.25, 0.5, 0.75, 1.), (0., 1.), .UNSPECIFIED.)
   GEOMETRIC_REPRESENTATION_ITEM ()
   RATIONAL_B_SPLINE_SURFACE (((1., 0.707106781186548, 1.), (0.707106781186548, 0.5, 0.707106781186548), (1., 0.707106781186548, 1.), (0.707106781186548, 0.5, 0.707106781186548), (1., 0.707106781186548, 1.), (0.707106781186548, 0.5, 0.707106781186548), (1., 0.707106781186548, 1.), (0.707106781186548, 0.5, 0.707106781186548), (1., 0.707106781186548, 1.)))
   REPRESENTATION_ITEM ('')
   SURFACE ()
);
#267 = CARTESIAN_POINT('', (-2., 3.06161699786838E-15, -48.));
#268 = CARTESIAN_POINT('', (-2., 3.18408167778312E-15, -50.));
#269 = CARTESIAN_POINT('', (5.89438644669238E-16, 3.06161699786838E-15, -50.));
#270 = CARTESIAN_POINT('', (-2., 1.99999999999997, -48.));
#271 = CARTESIAN_POINT('', (-2., 1.99999999999997, -50.));
#272 = CARTESIAN_POINT('', (5.89438644669238E-16, 3.06161699786838E-15, -50.));
#273 = CARTESIAN_POINT('', (-3.10862446895044E-14, 1.99999999999997, -48.));
#274 = CARTESIAN_POINT('', (-3.09637800095896E-14, 1.99999999999997, -50.));
#275 = CARTESIAN_POINT('', (5.89438644669238E-16, 3.06161699786838E-15, -50.));
#276 = CARTESIAN_POINT('', (1.99999999999994, 1.99999999999997, -48.));
#277 = CARTESIAN_POINT('', (1.99999999999994, 1.99999999999997, -50.));
#278 = CARTESIAN_POINT('', (5.89438644669238E-16, 3.06161699786838E-15, -50.));
#279 = CARTESIAN_POINT('', (1.99999999999994, 3.06161699786837E-15, -48.));
#280 = CARTESIAN_POINT('', (1.99999999999994, 2.93915231795363E-15, -50.));
#281 = CARTESIAN_POINT('', (5.89438644669238E-16, 3.06161699786838E-15, -50.));
#282 = CARTESIAN_POINT('', (1.99999999999994, -1.99999999999997, -48.));
#283 = CARTESIAN_POINT('', (1.99999999999994, -1.99999999999997, -50.));
#284 = CARTESIAN_POINT('', (5.89438644669238E-16, 3.06161699786838E-15, -50.));
#285 = CARTESIAN_POINT('', (-3.08413153296749E-14, -1.99999999999997, -48.));
#286 = CARTESIAN_POINT('', (-3.09637800095897E-14, -1.99999999999997, -50.));
#287 = CARTESIAN_POINT('', (5.89438644669238E-16, 3.06161699786838E-15, -50.));
#288 = CARTESIAN_POINT('', (-2., -1.99999999999997, -48.));
#289 = CARTESIAN_POINT('', (-2., -1.99999999999997, -50.));
#290 = CARTESIAN_POINT('', (5.89438644669238E-16, 3.06161699786838E-15, -50.));
#291 = CARTESIAN_POINT('', (-2., 3.06161699786838E-15, -48.));
#292 = CARTESIAN_POINT('', (-2., 3.18408167778312E-15, -50.));
#293 = CARTESIAN_POINT('', (5.89438644669238E-16, 3.06161699786838E-15, -50.));
#294 = PRESENTATION_STYLE_ASSIGNMENT((#295));
#295 = SURFACE_STYLE_USAGE(.POSITIVE., #296);
#296 = SURFACE_SIDE_STYLE('', (#297));
#297 = SURFACE_STYLE_FILL_AREA(#298);
#298 = FILL_AREA_STYLE('', (#299));
#299 = FILL_AREA_STYLE_COLOUR('', #300);
#300 = COLOUR_RGB('', 0.8, 0.8, 0.8);
#301 = STYLED_ITEM('', (#294), #194);
#302 = TRIMMED_CURVE('cutting part line', #303, (#308), (#309), .T., .CARTESIAN.);
#303 = CIRCLE('', #304, 2.00000000000001);
#304 = AXIS2_PLACEMENT_3D('', #305, #306, #307);
#305 = CARTESIAN_POINT('', (-5.72875080706581E-14, 0., -48.));
#306 = DIRECTION('', (0., -1., 0.));
#307 = DIRECTION('', (1.16573417585641E-14, 0., -1.));
#308 = CARTESIAN_POINT('', (-3.39728245535298E-14, 0., -50.));
#309 = CARTESIAN_POINT('', (1.99999999999995, 0., -48.));
#310 = TRIMMED_CURVE('cutting part line', #311, (#315), (#316), .T., .CARTESIAN.);
#311 = LINE('', #312, #313);
#312 = CARTESIAN_POINT('', (2., 2.77513483070255E-16, -48.));
#313 = VECTOR('', #314, 5.);
#314 = DIRECTION('', (0., -2.77513483070255E-16, 5.));
#315 = CARTESIAN_POINT('', (2., 2.77513483070255E-16, -48.));
#316 = CARTESIAN_POINT('', (2., 0., -43.));
#317 = TRIMMED_CURVE('cutting part line', #318, (#322), (#323), .T., .CARTESIAN.);
#318 = LINE('', #319, #320);
#319 = CARTESIAN_POINT('', (2., 0., -43.));
#320 = VECTOR('', #321, 2.);
#321 = DIRECTION('', (-2., 0., 0.));
#322 = CARTESIAN_POINT('', (2., 0., -43.));
#323 = CARTESIAN_POINT('', (6.93889390390723E-18, 0., -43.));
#324 = TRIMMED_CURVE('cutting part line', #325, (#329), (#330), .T., .CARTESIAN.);
#325 = LINE('', #326, #327);
#326 = CARTESIAN_POINT('', (0., 0., -43.));
#327 = VECTOR('', #328, 6.99999999999999);
#328 = DIRECTION('', (0., 0., -6.99999999999999));
#329 = CARTESIAN_POINT('', (0., 0., -43.));
#330 = CARTESIAN_POINT('', (0., 0., -50.));
#331 = COMPOSITE_CURVE('cutting part line', (#332, #333, #334, #335), .U.);
#332 = COMPOSITE_CURVE_SEGMENT(.CONTINUOUS., .T., #302);
#333 = COMPOSITE_CURVE_SEGMENT(.CONTINUOUS., .T., #310);
#334 = COMPOSITE_CURVE_SEGMENT(.CONTINUOUS., .T., #317);
#335 = COMPOSITE_CURVE_SEGMENT(.CONTINUOUS., .T., #324);
#336 = GEOMETRIC_SET('', (#331, #374));
#337 = PRESENTATION_STYLE_ASSIGNMENT((#338));
#338 = CURVE_STYLE('', #340, POSITIVE_LENGTH_MEASURE(1.E-6), #339);
#339 = COLOUR_RGB('', 0., 0., 1.);
#340 = DRAUGHTING_PRE_DEFINED_CURVE_FONT('continuous');
#341 = STYLED_ITEM('', (#337), #331);
#342 = PRESENTATION_STYLE_ASSIGNMENT((#343));
#343 = CURVE_STYLE('', #345, POSITIVE_LENGTH_MEASURE(1.E-6), #344);
#344 = COLOUR_RGB('', 0., 0., 1.);
#345 = DRAUGHTING_PRE_DEFINED_CURVE_FONT('continuous');
#346 = OVER_RIDING_STYLED_ITEM('', (#342), #302, #341);
#347 = PRESENTATION_STYLE_ASSIGNMENT((#348));
#348 = CURVE_STYLE('', #350, POSITIVE_LENGTH_MEASURE(1.E-6), #349);
#349 = COLOUR_RGB('', 0., 0., 1.);
#350 = DRAUGHTING_PRE_DEFINED_CURVE_FONT('continuous');
#351 = OVER_RIDING_STYLED_ITEM('', (#347), #310, #341);
#352 = PRESENTATION_STYLE_ASSIGNMENT((#353));
#353 = CURVE_STYLE('', #355, POSITIVE_LENGTH_MEASURE(1.E-6), #354);
#354 = COLOUR_RGB('', 0., 0., 1.);
#355 = DRAUGHTING_PRE_DEFINED_CURVE_FONT('continuous');
#356 = OVER_RIDING_STYLED_ITEM('', (#352), #317, #341);
#357 = PRESENTATION_STYLE_ASSIGNMENT((#358));
#358 = CURVE_STYLE('', #360, POSITIVE_LENGTH_MEASURE(1.E-6), #359);
#359 = COLOUR_RGB('', 0., 0., 1.);
#360 = DRAUGHTING_PRE_DEFINED_CURVE_FONT('continuous');
#361 = OVER_RIDING_STYLED_ITEM('', (#357), #324, #341);
#362 = AXIS2_PLACEMENT_3D('MCS', #363, #364, #365);
#363 = CARTESIAN_POINT('', (0., 0., -28.));
#364 = DIRECTION('', (0., 0., 1.));
#365 = DIRECTION('', (1., 0., 0.));
#366 = AXIS2_PLACEMENT_3D('PCS', #367, #368, #369);
#367 = CARTESIAN_POINT('', (0., 0., 0.));
#368 = DIRECTION('', (0., 0., 1.));
#369 = DIRECTION('', (1., 0., 0.));
#370 = AXIS2_PLACEMENT_3D('CIP', #371, #372, #373);
#371 = CARTESIAN_POINT('', (0., 0., -50.));
#372 = DIRECTION('', (0., 0., 1.));
#373 = DIRECTION('', (1., 0., 0.));
#374 = CARTESIAN_POINT('CRP', (2., 0., -50.));
#375 = (
   GEOMETRIC_REPRESENTATION_CONTEXT (3)
   GLOBAL_UNCERTAINTY_ASSIGNED_CONTEXT ((#377))
   GLOBAL_UNIT_ASSIGNED_CONTEXT ((#376, #378, #379))
   REPRESENTATION_CONTEXT ('', '3D')
);
#376 = (
   LENGTH_UNIT ()
   NAMED_UNIT (*)
   SI_UNIT (.MILLI., .METRE.)
);
#377 = UNCERTAINTY_MEASURE_WITH_UNIT(LENGTH_MEASURE(1.E-6), #376, 'DISTANCE_ACCURACY_VALUE', '');
#378 = (
   NAMED_UNIT (*)
   SI_UNIT ($, .STERADIAN.)
   SOLID_ANGLE_UNIT ()
);
#379 = (
   NAMED_UNIT (*)
   PLANE_ANGLE_UNIT ()
   SI_UNIT ($, .RADIAN.)
);
#380 = SHAPE_REPRESENTATION('', (), #375);
#381 = PRODUCT_DEFINITION_SHAPE('', '', #382);
#382 = PRODUCT_DEFINITION('', '', #385, #389);
#383 = APPLICATION_CONTEXT('configuration controlled 3D designs of mechanical parts and assemblies');
#384 = APPLICATION_PROTOCOL_DEFINITION('International Standard', 'automotive_design', 2002, #383);
#385 = PRODUCT_DEFINITION_FORMATION_WITH_SPECIFIED_SOURCE('', '', #386, .NOT_KNOWN.);
#386 = PRODUCT('product-name', '2B330-0400-NC       H10F', '', (#387));
#387 = PRODUCT_CONTEXT('', #383, 'mechanical');
#388 = PRODUCT_RELATED_PRODUCT_CATEGORY('detail', '', (#386));
#389 = PRODUCT_DEFINITION_CONTEXT('part definition', #383, 'design');
#390 = SHAPE_DEFINITION_REPRESENTATION(#381, #380);
#391 = CONSTRUCTIVE_GEOMETRY_REPRESENTATION('supplemental geometry', (#362, #366, #370), #375);
#392 = CONSTRUCTIVE_GEOMETRY_REPRESENTATION_RELATIONSHIP('', '', #380, #391);
#393 = SHAPE_REPRESENTATION_RELATIONSHIP('', '', #380, #394);
#394 = SHAPE_REPRESENTATION('', (#336), #375);
#395 = SHAPE_REPRESENTATION_RELATIONSHIP('', '', #380, #396);
#396 = ADVANCED_BREP_SHAPE_REPRESENTATION('', (#1, #194), #375);
ENDSEC;
END-ISO-10303-21;
