ISO-10303-21;
HEADER;
FILE_DESCRIPTION(('STEP'), '1');
FILE_NAME('C:\\Users\\ds2002\\OneDrive - Sandvik\\HomeShare\\Documents\\Batchrepair\\CorSRT2\\NEW_MILBN_SLD\\Output2\\MOD000000000000000020082299400000.stp', '2018-11-23T12:38:53', (''), (''), 'Express v3.0.0.0', 'Express Tool', 'Unknown');
FILE_SCHEMA(('AUTOMOTIVE_DESIGN'));
ENDSEC;

DATA;
#1 = MANIFOLD_SOLID_BREP('NOCUT', #2);
#2 = CLOSED_SHELL('', (#3, #50, #89, #128, #167, #176));
#3 = ADVANCED_FACE('', (#4), #31, .T.);
#4 = FACE_OUTER_BOUND('', #5, .T.);
#5 = EDGE_LOOP('', (#6, #16, #23, #24));
#6 = ORIENTED_EDGE('', *, *, #7, .F.);
#7 = EDGE_CURVE('', #8, #10, #12, .T.);
#8 = VERTEX_POINT('', #9);
#9 = CARTESIAN_POINT('', (-1.35, 1.87677121969332E-15, -29.3));
#10 = VERTEX_POINT('', #11);
#11 = CARTESIAN_POINT('', (-1.35, 2.10333087753558E-15, -33.));
#12 = LINE('', #13, #14);
#13 = CARTESIAN_POINT('', (-1.35, 1.87677121969332E-15, -29.3));
#14 = VECTOR('', #15, 3.7);
#15 = DIRECTION('', (0., 2.2655965784226E-16, -3.7));
#16 = ORIENTED_EDGE('', *, *, #17, .T.);
#17 = EDGE_CURVE('', #8, #8, #18, .T.);
#18 = CIRCLE('', #19, 1.35);
#19 = AXIS2_PLACEMENT_3D('', #20, #21, #22);
#20 = CARTESIAN_POINT('', (2.77555756156289E-16, 3.88578058618805E-16, -29.3));
#21 = DIRECTION('', (2.63163976207444E-15, -8.56155725037253E-15, -1.));
#22 = DIRECTION('', (-1., 1.10236530449964E-15, -2.63163976207444E-15));
#23 = ORIENTED_EDGE('', *, *, #7, .T.);
#24 = ORIENTED_EDGE('', *, *, #25, .F.);
#25 = EDGE_CURVE('', #10, #10, #26, .T.);
#26 = CIRCLE('', #27, 1.35);
#27 = AXIS2_PLACEMENT_3D('', #28, #29, #30);
#28 = CARTESIAN_POINT('', (2.60208521396521E-16, 5.82867087928207E-16, -33.));
#29 = DIRECTION('', (0., 0., -1.));
#30 = DIRECTION('', (-1., 1.12626947378324E-15, 0.));
#31 = (
   BOUNDED_SURFACE ()
   B_SPLINE_SURFACE (2, 1, ((#32, #33), (#34, #35), (#36, #37), (#38, #39), (#40, #41), (#42, #43), (#44, #45), (#46, #47), (#48, #49)), .UNSPECIFIED., .T., .F., .U.)
   B_SPLINE_SURFACE_WITH_KNOTS ((3, 2, 2, 2, 3), (2, 2), (0., 2.12057504117311, 4.24115008234622, 6.36172512351933, 8.48230016469244), (0., 1.), .UNSPECIFIED.)
   GEOMETRIC_REPRESENTATION_ITEM ()
   RATIONAL_B_SPLINE_SURFACE (((1., 1.), (0.707106781186548, 0.707106781186548), (1., 1.), (0.707106781186548, 0.707106781186548), (1., 1.), (0.707106781186548, 0.707106781186548), (1., 1.), (0.707106781186548, 0.707106781186548), (1., 1.)))
   REPRESENTATION_ITEM ('')
   SURFACE ()
);
#32 = CARTESIAN_POINT('', (-1.35, 1.87677121969332E-15, -29.3));
#33 = CARTESIAN_POINT('', (-1.34999999999999, 2.07106024900271E-15, -33.));
#34 = CARTESIAN_POINT('', (-1.35, 1.35, -29.3));
#35 = CARTESIAN_POINT('', (-1.34999999999999, 1.35, -33.));
#36 = CARTESIAN_POINT('', (1.68308525828836E-15, 1.35, -29.3));
#37 = CARTESIAN_POINT('', (1.14201523779638E-14, 1.35, -33.));
#38 = CARTESIAN_POINT('', (1.35, 1.35, -29.3));
#39 = CARTESIAN_POINT('', (1.35000000000001, 1.35, -33.));
#40 = CARTESIAN_POINT('', (1.35, -9.34287784570817E-16, -29.3));
#41 = CARTESIAN_POINT('', (1.35000000000001, -7.39998755261427E-16, -33.));
#42 = CARTESIAN_POINT('', (1.35, -1.35, -29.3));
#43 = CARTESIAN_POINT('', (1.35000000000001, -1.35, -33.));
#44 = CARTESIAN_POINT('', (-9.62646428090886E-16, -1.35, -29.3));
#45 = CARTESIAN_POINT('', (8.77442069158456E-15, -1.35, -33.));
#46 = CARTESIAN_POINT('', (-1.35, -1.35, -29.3));
#47 = CARTESIAN_POINT('', (-1.34999999999999, -1.35, -33.));
#48 = CARTESIAN_POINT('', (-1.35, 1.87677121969332E-15, -29.3));
#49 = CARTESIAN_POINT('', (-1.34999999999999, 2.07106024900271E-15, -33.));
#50 = ADVANCED_FACE('', (#51), #70, .T.);
#51 = FACE_OUTER_BOUND('', #52, .T.);
#52 = EDGE_LOOP('', (#53, #61, #68, #69));
#53 = ORIENTED_EDGE('', *, *, #54, .F.);
#54 = EDGE_CURVE('', #55, #8, #57, .T.);
#55 = VERTEX_POINT('', #56);
#56 = CARTESIAN_POINT('', (-1.5, 1.86758636869971E-15, -29.));
#57 = LINE('', #58, #59);
#58 = CARTESIAN_POINT('', (-1.5, 1.86758636869971E-15, -29.));
#59 = VECTOR('', #60, 0.335410196624969);
#60 = DIRECTION('', (0.15, 9.18485099361034E-18, -0.300000000000001));
#61 = ORIENTED_EDGE('', *, *, #62, .T.);
#62 = EDGE_CURVE('', #55, #55, #63, .T.);
#63 = CIRCLE('', #64, 1.5);
#64 = AXIS2_PLACEMENT_3D('', #65, #66, #67);
#65 = CARTESIAN_POINT('', (1.80411241501588E-16, 1.02695629777827E-15, -29.));
#66 = DIRECTION('', (0., 0., -1.));
#67 = DIRECTION('', (-1., 5.6042004728096E-16, 0.));
#68 = ORIENTED_EDGE('', *, *, #54, .T.);
#69 = ORIENTED_EDGE('', *, *, #17, .F.);
#70 = (
   BOUNDED_SURFACE ()
   B_SPLINE_SURFACE (2, 1, ((#71, #72), (#73, #74), (#75, #76), (#77, #78), (#79, #80), (#81, #82), (#83, #84), (#85, #86), (#87, #88)), .UNSPECIFIED., .T., .F., .U.)
   B_SPLINE_SURFACE_WITH_KNOTS ((3, 2, 2, 2, 3), (2, 2), (0., 0.25, 0.5, 0.75, 1.), (0., 1.), .UNSPECIFIED.)
   GEOMETRIC_REPRESENTATION_ITEM ()
   RATIONAL_B_SPLINE_SURFACE (((1., 1.), (0.707106781186548, 0.707106781186548), (1., 1.), (0.707106781186548, 0.707106781186548), (1., 1.), (0.707106781186548, 0.707106781186548), (1., 1.), (0.707106781186548, 0.707106781186548), (1., 1.)))
   REPRESENTATION_ITEM ('')
   SURFACE ()
);
#71 = CARTESIAN_POINT('', (-1.5, 1.86758636869971E-15, -29.));
#72 = CARTESIAN_POINT('', (-1.35, 1.1451451224481E-15, -29.3));
#73 = CARTESIAN_POINT('', (-1.5, 1.5, -29.));
#74 = CARTESIAN_POINT('', (-1.35, 1.35, -29.3));
#75 = CARTESIAN_POINT('', (9.29192802486976E-16, 1.5, -29.));
#76 = CARTESIAN_POINT('', (8.54314646388437E-16, 1.35, -29.3));
#77 = CARTESIAN_POINT('', (1.5, 1.5, -29.));
#78 = CARTESIAN_POINT('', (1.35, 1.35, -29.3));
#79 = CARTESIAN_POINT('', (1.5, 3.70023246728933E-16, -29.));
#80 = CARTESIAN_POINT('', (1.35, -2.02661687325598E-16, -29.3));
#81 = CARTESIAN_POINT('', (1.5, -1.5, -29.));
#82 = CARTESIAN_POINT('', (1.35, -1.35, -29.3));
#83 = CARTESIAN_POINT('', (-3.84673299611697E-16, -1.5, -29.));
#84 = CARTESIAN_POINT('', (-3.28164845500369E-16, -1.35, -29.3));
#85 = CARTESIAN_POINT('', (-1.5, -1.5, -29.));
#86 = CARTESIAN_POINT('', (-1.35, -1.35, -29.3));
#87 = CARTESIAN_POINT('', (-1.5, 1.86758636869971E-15, -29.));
#88 = CARTESIAN_POINT('', (-1.35, 1.1451451224481E-15, -29.3));
#89 = ADVANCED_FACE('', (#90), #109, .T.);
#90 = FACE_OUTER_BOUND('', #91, .T.);
#91 = EDGE_LOOP('', (#92, #100, #107, #108));
#92 = ORIENTED_EDGE('', *, *, #93, .T.);
#93 = EDGE_CURVE('', #55, #94, #96, .T.);
#94 = VERTEX_POINT('', #95);
#95 = CARTESIAN_POINT('', (-1.5, 1.01033360929657E-16, -0.149999999999999));
#96 = LINE('', #97, #98);
#97 = CARTESIAN_POINT('', (-1.5, 1.86758636869971E-15, -29.));
#98 = VECTOR('', #99, 28.85);
#99 = DIRECTION('', (0., -1.76655300777005E-15, 28.85));
#100 = ORIENTED_EDGE('', *, *, #101, .T.);
#101 = EDGE_CURVE('', #94, #94, #102, .T.);
#102 = CIRCLE('', #103, 1.5);
#103 = AXIS2_PLACEMENT_3D('', #104, #105, #106);
#104 = CARTESIAN_POINT('', (1.52655665885959E-16, -3.60822483003176E-16, -0.149999999999999));
#105 = DIRECTION('', (0., 0., -1.));
#106 = DIRECTION('', (-1., 3.07903895955222E-16, 0.));
#107 = ORIENTED_EDGE('', *, *, #93, .F.);
#108 = ORIENTED_EDGE('', *, *, #62, .F.);
#109 = (
   BOUNDED_SURFACE ()
   B_SPLINE_SURFACE (1, 2, ((#110, #111, #112, #113, #114, #115, #116, #117, #118), (#119, #120, #121, #122, #123, #124, #125, #126, #127)), .UNSPECIFIED., .F., .T., .U.)
   B_SPLINE_SURFACE_WITH_KNOTS ((2, 2), (3, 2, 2, 2, 3), (0., 1.), (0., 2.35619449019235, 4.71238898038469, 7.06858347057704, 9.42477796076938), .UNSPECIFIED.)
   GEOMETRIC_REPRESENTATION_ITEM ()
   RATIONAL_B_SPLINE_SURFACE (((1., 0.707106781186548, 1., 0.707106781186548, 1., 0.707106781186548, 1., 0.707106781186548, 1.), (1., 0.707106781186548, 1., 0.707106781186548, 1., 0.707106781186548, 1., 0.707106781186548, 1.)))
   REPRESENTATION_ITEM ('')
   SURFACE ()
);
#110 = CARTESIAN_POINT('', (-1.5, 1.1002340830923E-15, -29.));
#111 = CARTESIAN_POINT('', (-1.5, 1.5, -29.));
#112 = CARTESIAN_POINT('', (5.22662999882741E-16, 1.5, -29.));
#113 = CARTESIAN_POINT('', (1.5, 1.5, -29.));
#114 = CARTESIAN_POINT('', (1.5, 3.60219415098735E-16, -29.));
#115 = CARTESIAN_POINT('', (1.5, -1.5, -29.));
#116 = CARTESIAN_POINT('', (-3.36546482387189E-17, -1.5, -29.));
#117 = CARTESIAN_POINT('', (-1.5, -1.5, -29.));
#118 = CARTESIAN_POINT('', (-1.5, 1.1002340830923E-15, -29.));
#119 = CARTESIAN_POINT('', (-1.5, 1.01033360929657E-16, -0.149999999999999));
#120 = CARTESIAN_POINT('', (-1.5, 1.5, -0.149999999999999));
#121 = CARTESIAN_POINT('', (5.2266299988274E-16, 1.5, -0.149999999999999));
#122 = CARTESIAN_POINT('', (1.5, 1.5, -0.149999999999999));
#123 = CARTESIAN_POINT('', (1.5, -6.38981307063906E-16, -0.149999999999999));
#124 = CARTESIAN_POINT('', (1.5, -1.5, -0.149999999999999));
#125 = CARTESIAN_POINT('', (-3.36546482387192E-17, -1.5, -0.149999999999999));
#126 = CARTESIAN_POINT('', (-1.5, -1.5, -0.149999999999999));
#127 = CARTESIAN_POINT('', (-1.5, 1.01033360929657E-16, -0.149999999999999));
#128 = ADVANCED_FACE('', (#129), #148, .T.);
#129 = FACE_OUTER_BOUND('', #130, .T.);
#130 = EDGE_LOOP('', (#131, #139, #146, #147));
#131 = ORIENTED_EDGE('', *, *, #132, .T.);
#132 = EDGE_CURVE('', #94, #133, #135, .T.);
#133 = VERTEX_POINT('', #134);
#134 = CARTESIAN_POINT('', (-1.35, 8.26636589424463E-17, 0.));
#135 = LINE('', #136, #137);
#136 = CARTESIAN_POINT('', (-1.5, 1.01033360929657E-16, -0.149999999999999));
#137 = VECTOR('', #138, 0.212132034355963);
#138 = DIRECTION('', (0.15, -1.83697019872107E-17, 0.149999999999999));
#139 = ORIENTED_EDGE('', *, *, #140, .T.);
#140 = EDGE_CURVE('', #133, #133, #141, .T.);
#141 = CIRCLE('', #142, 1.35);
#142 = AXIS2_PLACEMENT_3D('', #143, #144, #145);
#143 = CARTESIAN_POINT('', (4.61436444609831E-16, -6.38378239159465E-16, -7.7875102531819E-16));
#144 = DIRECTION('', (-5.76852611346806E-16, 1.6649441676109E-15, -1.));
#145 = DIRECTION('', (-1., 5.34105109705119E-16, 5.76852611346807E-16));
#146 = ORIENTED_EDGE('', *, *, #132, .F.);
#147 = ORIENTED_EDGE('', *, *, #101, .F.);
#148 = (
   BOUNDED_SURFACE ()
   B_SPLINE_SURFACE (1, 2, ((#149, #150, #151, #152, #153, #154, #155, #156, #157), (#158, #159, #160, #161, #162, #163, #164, #165, #166)), .UNSPECIFIED., .F., .T., .U.)
   B_SPLINE_SURFACE_WITH_KNOTS ((2, 2), (3, 2, 2, 2, 3), (0., 1.), (0., 0.25, 0.5, 0.75, 1.), .UNSPECIFIED.)
   GEOMETRIC_REPRESENTATION_ITEM ()
   RATIONAL_B_SPLINE_SURFACE (((1., 0.707106781186548, 1., 0.707106781186548, 1., 0.707106781186548, 1., 0.707106781186548, 1.), (1., 0.707106781186548, 1., 0.707106781186548, 1., 0.707106781186548, 1., 0.707106781186548, 1.)))
   REPRESENTATION_ITEM ('')
   SURFACE ()
);
#149 = CARTESIAN_POINT('', (-1.5, 7.45646513326421E-16, -0.149999999999998));
#150 = CARTESIAN_POINT('', (-1.5, 1.5, -0.149999999999992));
#151 = CARTESIAN_POINT('', (1.08421770752944E-15, 1.5, -0.149999999999993));
#152 = CARTESIAN_POINT('', (1.5, 1.5, -0.149999999999994));
#153 = CARTESIAN_POINT('', (1.5, -6.72971795916834E-16, -0.15));
#154 = CARTESIAN_POINT('', (1.5, -1.5, -0.150000000000006));
#155 = CARTESIAN_POINT('', (-1.50703581841717E-16, -1.5, -0.150000000000005));
#156 = CARTESIAN_POINT('', (-1.5, -1.5, -0.150000000000004));
#157 = CARTESIAN_POINT('', (-1.5, 7.45646513326421E-16, -0.149999999999998));
#158 = CARTESIAN_POINT('', (-1.35, 8.2663658942446E-17, -2.95822839457879E-31));
#159 = CARTESIAN_POINT('', (-1.35, 1.35, 5.24580379135393E-15));
#160 = CARTESIAN_POINT('', (1.0998146837693E-15, 1.35, 4.46705276603574E-15));
#161 = CARTESIAN_POINT('', (1.35, 1.35, 3.68830174071755E-15));
#162 = CARTESIAN_POINT('', (1.35, -1.19409281937648E-15, -1.55750205063638E-15));
#163 = CARTESIAN_POINT('', (1.35, -1.35, -6.80330584199031E-15));
#164 = CARTESIAN_POINT('', (-1.16144766647444E-17, -1.35, -6.02455481667212E-15));
#165 = CARTESIAN_POINT('', (-1.35, -1.35, -5.24580379135393E-15));
#166 = CARTESIAN_POINT('', (-1.35, 8.2663658942446E-17, -2.95822839457879E-31));
#167 = ADVANCED_FACE('', (#168), #171, .T.);
#168 = FACE_OUTER_BOUND('', #169, .T.);
#169 = EDGE_LOOP('', (#170));
#170 = ORIENTED_EDGE('', *, *, #140, .F.);
#171 = B_SPLINE_SURFACE_WITH_KNOTS('', 1, 1, ((#172, #173), (#174, #175)), .UNSPECIFIED., .F., .F., .U., (2, 2), (2, 2), (0.0454545454545454, 0.954545454545454), (0.0454545454545454, 0.954545454545454), .UNSPECIFIED.);
#172 = CARTESIAN_POINT('', (1.35, -1.35, -8.26636589424464E-17));
#173 = CARTESIAN_POINT('', (-1.35, -1.35, -8.26636589424463E-17));
#174 = CARTESIAN_POINT('', (1.35, 1.35, 8.26636589424463E-17));
#175 = CARTESIAN_POINT('', (-1.35, 1.35, 8.26636589424464E-17));
#176 = ADVANCED_FACE('', (#177), #180, .T.);
#177 = FACE_OUTER_BOUND('', #178, .T.);
#178 = EDGE_LOOP('', (#179));
#179 = ORIENTED_EDGE('', *, *, #25, .T.);
#180 = B_SPLINE_SURFACE_WITH_KNOTS('', 1, 1, ((#181, #182), (#183, #184)), .UNSPECIFIED., .F., .F., .U., (2, 2), (2, 2), (0.496799682261899, 0.532106619144434), (0.467893380855566, 0.503200317738101), .UNSPECIFIED.);
#181 = CARTESIAN_POINT('', (-1.35000000000002, 1.35000000000001, -33.));
#182 = CARTESIAN_POINT('', (-1.35000000000002, -1.34999999999999, -33.));
#183 = CARTESIAN_POINT('', (1.34999999999999, 1.35000000000001, -33.));
#184 = CARTESIAN_POINT('', (1.34999999999999, -1.34999999999999, -33.));
#185 = DRAUGHTING_MODEL('', (#193, #301, #341, #346, #351, #356, #361), #375);
#186 = PRESENTATION_STYLE_ASSIGNMENT((#187));
#187 = SURFACE_STYLE_USAGE(.POSITIVE., #188);
#188 = SURFACE_SIDE_STYLE('', (#189));
#189 = SURFACE_STYLE_FILL_AREA(#190);
#190 = FILL_AREA_STYLE('', (#191));
#191 = FILL_AREA_STYLE_COLOUR('', #192);
#192 = COLOUR_RGB('', 0.50196078431373, 0.50196078431373, 0.50196078431373);
#193 = STYLED_ITEM('', (#186), #1);
#194 = MANIFOLD_SOLID_BREP('CUT', #195);
#195 = CLOSED_SHELL('', (#196, #213, #252));
#196 = ADVANCED_FACE('', (#197), #208, .T.);
#197 = FACE_OUTER_BOUND('', #198, .T.);
#198 = EDGE_LOOP('', (#199));
#199 = ORIENTED_EDGE('', *, *, #200, .F.);
#200 = EDGE_CURVE('', #201, #201, #203, .T.);
#201 = VERTEX_POINT('', #202);
#202 = CARTESIAN_POINT('', (-1.5, 2.11251572852918E-15, -33.));
#203 = CIRCLE('', #204, 1.5);
#204 = AXIS2_PLACEMENT_3D('', #205, #206, #207);
#205 = CARTESIAN_POINT('', (2.77555756156289E-16, 5.55111512312578E-16, -33.));
#206 = DIRECTION('', (0., 0., -1.));
#207 = DIRECTION('', (-1., 1.03826947747773E-15, 0.));
#208 = B_SPLINE_SURFACE_WITH_KNOTS('', 1, 1, ((#209, #210), (#211, #212)), .UNSPECIFIED., .F., .F., .U., (2, 2), (2, 2), (0.0454545454545454, 0.954545454545454), (0.0454545454545455, 0.954545454545454), .UNSPECIFIED.);
#209 = CARTESIAN_POINT('', (1.5, -1.5, -33.));
#210 = CARTESIAN_POINT('', (-1.5, -1.5, -33.));
#211 = CARTESIAN_POINT('', (1.5, 1.5, -33.));
#212 = CARTESIAN_POINT('', (-1.5, 1.5, -33.));
#213 = ADVANCED_FACE('', (#214), #233, .T.);
#214 = FACE_OUTER_BOUND('', #215, .T.);
#215 = EDGE_LOOP('', (#216, #224, #225, #226));
#216 = ORIENTED_EDGE('', *, *, #217, .F.);
#217 = EDGE_CURVE('', #201, #218, #220, .T.);
#218 = VERTEX_POINT('', #219);
#219 = CARTESIAN_POINT('', (-1.5, 2.32682891837997E-15, -36.5));
#220 = LINE('', #221, #222);
#221 = CARTESIAN_POINT('', (-1.5, 2.11251572852918E-15, -33.));
#222 = VECTOR('', #223, 3.5);
#223 = DIRECTION('', (0., 2.1431318985079E-16, -3.5));
#224 = ORIENTED_EDGE('', *, *, #200, .T.);
#225 = ORIENTED_EDGE('', *, *, #217, .T.);
#226 = ORIENTED_EDGE('', *, *, #227, .F.);
#227 = EDGE_CURVE('', #218, #218, #228, .T.);
#228 = CIRCLE('', #229, 1.5);
#229 = AXIS2_PLACEMENT_3D('', #230, #231, #232);
#230 = CARTESIAN_POINT('', (-2.84494650060196E-16, 1.11022302462516E-15, -36.5));
#231 = DIRECTION('', (1.30763990178864E-29, 1.61223931492663E-14, -1.));
#232 = DIRECTION('', (-1., 8.11070595836543E-16, 0.));
#233 = (
   BOUNDED_SURFACE ()
   B_SPLINE_SURFACE (2, 1, ((#234, #235), (#236, #237), (#238, #239), (#240, #241), (#242, #243), (#244, #245), (#246, #247), (#248, #249), (#250, #251)), .UNSPECIFIED., .T., .F., .U.)
   B_SPLINE_SURFACE_WITH_KNOTS ((3, 2, 2, 2, 3), (2, 2), (0., 2.35619449019235, 4.71238898038469, 7.06858347057704, 9.42477796076938), (0., 1.), .UNSPECIFIED.)
   GEOMETRIC_REPRESENTATION_ITEM ()
   RATIONAL_B_SPLINE_SURFACE (((1., 1.), (0.707106781186548, 0.707106781186548), (1., 1.), (0.707106781186548, 0.707106781186548), (1., 1.), (0.707106781186548, 0.707106781186548), (1., 1.), (0.707106781186548, 0.707106781186548), (1., 1.)))
   REPRESENTATION_ITEM ('')
   SURFACE ()
);
#234 = CARTESIAN_POINT('', (-1.5, 2.11251572852918E-15, -33.));
#235 = CARTESIAN_POINT('', (-1.5, 2.30680475783858E-15, -36.5));
#236 = CARTESIAN_POINT('', (-1.5, 1.5, -33.));
#237 = CARTESIAN_POINT('', (-1.5, 1.5, -36.5));
#238 = CARTESIAN_POINT('', (1.05616096595002E-15, 1.5, -33.));
#239 = CARTESIAN_POINT('', (1.05616096595002E-15, 1.5, -36.5));
#240 = CARTESIAN_POINT('', (1.5, 1.5, -33.));
#241 = CARTESIAN_POINT('', (1.5, 1.5, -36.5));
#242 = CARTESIAN_POINT('', (1.5, -9.69507180255689E-17, -33.));
#243 = CARTESIAN_POINT('', (1.5, 9.73383112838335E-17, -36.5));
#244 = CARTESIAN_POINT('', (1.5, -1.5, -33.));
#245 = CARTESIAN_POINT('', (1.5, -1.5, -36.5));
#246 = CARTESIAN_POINT('', (-9.69608460732622E-16, -1.5, -33.));
#247 = CARTESIAN_POINT('', (-9.69608460732622E-16, -1.5, -36.5));
#248 = CARTESIAN_POINT('', (-1.5, -1.5, -33.));
#249 = CARTESIAN_POINT('', (-1.5, -1.5, -36.5));
#250 = CARTESIAN_POINT('', (-1.5, 2.11251572852918E-15, -33.));
#251 = CARTESIAN_POINT('', (-1.5, 2.30680475783858E-15, -36.5));
#252 = ADVANCED_FACE('', (#253), #266, .T.);
#253 = FACE_OUTER_BOUND('', #254, .T.);
#254 = EDGE_LOOP('', (#255, #264, #265));
#255 = ORIENTED_EDGE('', *, *, #256, .F.);
#256 = EDGE_CURVE('', #218, #257, #259, .T.);
#257 = VERTEX_POINT('', #258);
#258 = CARTESIAN_POINT('', (2.75545529808155E-16, 2.32682891837997E-15, -38.));
#259 = CIRCLE('', #260, 1.49999999999999);
#260 = AXIS2_PLACEMENT_3D('', #261, #262, #263);
#261 = CARTESIAN_POINT('', (-9.32587340685131E-15, 2.23498040844392E-15, -36.5));
#262 = DIRECTION('', (-6.12323399573661E-17, -1., -6.12323399573662E-17));
#263 = DIRECTION('', (-1., 6.12323399573658E-17, 4.73695157173403E-15));
#264 = ORIENTED_EDGE('', *, *, #227, .T.);
#265 = ORIENTED_EDGE('', *, *, #256, .T.);
#266 = (
   BOUNDED_SURFACE ()
   B_SPLINE_SURFACE (2, 2, ((#267, #268, #269), (#270, #271, #272), (#273, #274, #275), (#276, #277, #278), (#279, #280, #281), (#282, #283, #284), (#285, #286, #287), (#288, #289, #290), (#291, #292, #293)), .UNSPECIFIED., .T., .F., .U.)
   B_SPLINE_SURFACE_WITH_KNOTS ((3, 2, 2, 2, 3), (3, 3), (0., 0.25, 0.5, 0.75, 1.), (0., 1.), .UNSPECIFIED.)
   GEOMETRIC_REPRESENTATION_ITEM ()
   RATIONAL_B_SPLINE_SURFACE (((1., 0.707106781186548, 1.), (0.707106781186548, 0.5, 0.707106781186548), (1., 0.707106781186548, 1.), (0.707106781186548, 0.5, 0.707106781186548), (1., 0.707106781186548, 1.), (0.707106781186548, 0.5, 0.707106781186548), (1., 0.707106781186548, 1.), (0.707106781186548, 0.5, 0.707106781186548), (1., 0.707106781186548, 1.)))
   REPRESENTATION_ITEM ('')
   SURFACE ()
);
#267 = CARTESIAN_POINT('', (-1.5, 2.32682891837997E-15, -36.5));
#268 = CARTESIAN_POINT('', (-1.5, 2.41867742831602E-15, -38.));
#269 = CARTESIAN_POINT('', (2.75545529808155E-16, 2.32682891837997E-15, -38.));
#270 = CARTESIAN_POINT('', (-1.5, 1.49999999999999, -36.5));
#271 = CARTESIAN_POINT('', (-1.50000000000002, 1.49999999999999, -38.));
#272 = CARTESIAN_POINT('', (2.75545529808155E-16, 2.32682891837997E-15, -38.));
#273 = CARTESIAN_POINT('', (-9.3258734068512E-15, 1.49999999999999, -36.5));
#274 = CARTESIAN_POINT('', (-3.34176146208147E-14, 1.50000000000002, -38.));
#275 = CARTESIAN_POINT('', (2.75545529808155E-16, 2.32682891837997E-15, -38.));
#276 = CARTESIAN_POINT('', (1.49999999999998, 1.49999999999999, -36.5));
#277 = CARTESIAN_POINT('', (1.49999999999996, 1.50000000000004, -38.));
#278 = CARTESIAN_POINT('', (2.75545529808155E-16, 2.32682891837997E-15, -38.));
#279 = CARTESIAN_POINT('', (1.49999999999998, 2.32682891837975E-15, -36.5));
#280 = CARTESIAN_POINT('', (1.49999999999998, 5.06021598562427E-14, -38.));
#281 = CARTESIAN_POINT('', (2.75545529808155E-16, 2.32682891837997E-15, -38.));
#282 = CARTESIAN_POINT('', (1.49999999999998, -1.49999999999999, -36.5));
#283 = CARTESIAN_POINT('', (1.50000000000001, -1.49999999999994, -38.));
#284 = CARTESIAN_POINT('', (2.75545529808155E-16, 2.32682891837997E-15, -38.));
#285 = CARTESIAN_POINT('', (-9.14217638697933E-15, -1.49999999999999, -36.5));
#286 = CARTESIAN_POINT('', (1.49495648269842E-14, -1.49999999999996, -38.));
#287 = CARTESIAN_POINT('', (2.75545529808155E-16, 2.32682891837997E-15, -38.));
#288 = CARTESIAN_POINT('', (-1.5, -1.49999999999999, -36.5));
#289 = CARTESIAN_POINT('', (-1.49999999999998, -1.49999999999999, -38.));
#290 = CARTESIAN_POINT('', (2.75545529808155E-16, 2.32682891837997E-15, -38.));
#291 = CARTESIAN_POINT('', (-1.5, 2.32682891837997E-15, -36.5));
#292 = CARTESIAN_POINT('', (-1.5, 2.41867742831602E-15, -38.));
#293 = CARTESIAN_POINT('', (2.75545529808155E-16, 2.32682891837997E-15, -38.));
#294 = PRESENTATION_STYLE_ASSIGNMENT((#295));
#295 = SURFACE_STYLE_USAGE(.POSITIVE., #296);
#296 = SURFACE_SIDE_STYLE('', (#297));
#297 = SURFACE_STYLE_FILL_AREA(#298);
#298 = FILL_AREA_STYLE('', (#299));
#299 = FILL_AREA_STYLE_COLOUR('', #300);
#300 = COLOUR_RGB('', 0.8, 0.8, 0.8);
#301 = STYLED_ITEM('', (#294), #194);
#302 = TRIMMED_CURVE('cutting part line', #303, (#308), (#309), .T., .CARTESIAN.);
#303 = CIRCLE('', #304, 1.49999999999999);
#304 = AXIS2_PLACEMENT_3D('', #305, #306, #307);
#305 = CARTESIAN_POINT('', (-1.22124532708767E-14, 0., -36.5));
#306 = DIRECTION('', (0., -1., 0.));
#307 = DIRECTION('', (1.31376391247311E-15, 0., -1.));
#308 = CARTESIAN_POINT('', (-1.02418074021671E-14, 0., -38.));
#309 = CARTESIAN_POINT('', (1.49999999999998, 0., -36.5));
#310 = TRIMMED_CURVE('cutting part line', #311, (#315), (#316), .T., .CARTESIAN.);
#311 = LINE('', #312, #313);
#312 = CARTESIAN_POINT('', (1.5, 1.94259438149178E-16, -36.5));
#313 = VECTOR('', #314, 3.5);
#314 = DIRECTION('', (0., -1.94259438149178E-16, 3.5));
#315 = CARTESIAN_POINT('', (1.5, 1.94259438149178E-16, -36.5));
#316 = CARTESIAN_POINT('', (1.5, 0., -33.));
#317 = TRIMMED_CURVE('cutting part line', #318, (#322), (#323), .T., .CARTESIAN.);
#318 = LINE('', #319, #320);
#319 = CARTESIAN_POINT('', (1.5, 0., -33.));
#320 = VECTOR('', #321, 1.5);
#321 = DIRECTION('', (-1.5, 0., 0.));
#322 = CARTESIAN_POINT('', (1.5, 0., -33.));
#323 = CARTESIAN_POINT('', (-3.46944695195361E-18, 0., -33.));
#324 = TRIMMED_CURVE('cutting part line', #325, (#329), (#330), .T., .CARTESIAN.);
#325 = LINE('', #326, #327);
#326 = CARTESIAN_POINT('', (0., 0., -33.));
#327 = VECTOR('', #328, 5.);
#328 = DIRECTION('', (0., 0., -5.));
#329 = CARTESIAN_POINT('', (0., 0., -33.));
#330 = CARTESIAN_POINT('', (0., 0., -38.));
#331 = COMPOSITE_CURVE('cutting part line', (#332, #333, #334, #335), .U.);
#332 = COMPOSITE_CURVE_SEGMENT(.CONTINUOUS., .T., #302);
#333 = COMPOSITE_CURVE_SEGMENT(.CONTINUOUS., .T., #310);
#334 = COMPOSITE_CURVE_SEGMENT(.CONTINUOUS., .T., #317);
#335 = COMPOSITE_CURVE_SEGMENT(.CONTINUOUS., .T., #324);
#336 = GEOMETRIC_SET('', (#331, #374));
#337 = PRESENTATION_STYLE_ASSIGNMENT((#338));
#338 = CURVE_STYLE('', #340, POSITIVE_LENGTH_MEASURE(1.E-6), #339);
#339 = COLOUR_RGB('', 0., 0., 1.);
#340 = DRAUGHTING_PRE_DEFINED_CURVE_FONT('continuous');
#341 = STYLED_ITEM('', (#337), #331);
#342 = PRESENTATION_STYLE_ASSIGNMENT((#343));
#343 = CURVE_STYLE('', #345, POSITIVE_LENGTH_MEASURE(1.E-6), #344);
#344 = COLOUR_RGB('', 0., 0., 1.);
#345 = DRAUGHTING_PRE_DEFINED_CURVE_FONT('continuous');
#346 = OVER_RIDING_STYLED_ITEM('', (#342), #302, #341);
#347 = PRESENTATION_STYLE_ASSIGNMENT((#348));
#348 = CURVE_STYLE('', #350, POSITIVE_LENGTH_MEASURE(1.E-6), #349);
#349 = COLOUR_RGB('', 0., 0., 1.);
#350 = DRAUGHTING_PRE_DEFINED_CURVE_FONT('continuous');
#351 = OVER_RIDING_STYLED_ITEM('', (#347), #310, #341);
#352 = PRESENTATION_STYLE_ASSIGNMENT((#353));
#353 = CURVE_STYLE('', #355, POSITIVE_LENGTH_MEASURE(1.E-6), #354);
#354 = COLOUR_RGB('', 0., 0., 1.);
#355 = DRAUGHTING_PRE_DEFINED_CURVE_FONT('continuous');
#356 = OVER_RIDING_STYLED_ITEM('', (#352), #317, #341);
#357 = PRESENTATION_STYLE_ASSIGNMENT((#358));
#358 = CURVE_STYLE('', #360, POSITIVE_LENGTH_MEASURE(1.E-6), #359);
#359 = COLOUR_RGB('', 0., 0., 1.);
#360 = DRAUGHTING_PRE_DEFINED_CURVE_FONT('continuous');
#361 = OVER_RIDING_STYLED_ITEM('', (#357), #324, #341);
#362 = AXIS2_PLACEMENT_3D('MCS', #363, #364, #365);
#363 = CARTESIAN_POINT('', (0., 0., -28.));
#364 = DIRECTION('', (0., 0., 1.));
#365 = DIRECTION('', (1., 0., 0.));
#366 = AXIS2_PLACEMENT_3D('PCS', #367, #368, #369);
#367 = CARTESIAN_POINT('', (0., 0., 0.));
#368 = DIRECTION('', (0., 0., 1.));
#369 = DIRECTION('', (1., 0., 0.));
#370 = AXIS2_PLACEMENT_3D('CIP', #371, #372, #373);
#371 = CARTESIAN_POINT('', (0., 0., -38.));
#372 = DIRECTION('', (0., 0., 1.));
#373 = DIRECTION('', (1., 0., 0.));
#374 = CARTESIAN_POINT('CRP', (1.5, 0., -38.));
#375 = (
   GEOMETRIC_REPRESENTATION_CONTEXT (3)
   GLOBAL_UNCERTAINTY_ASSIGNED_CONTEXT ((#377))
   GLOBAL_UNIT_ASSIGNED_CONTEXT ((#376, #378, #379))
   REPRESENTATION_CONTEXT ('', '3D')
);
#376 = (
   LENGTH_UNIT ()
   NAMED_UNIT (*)
   SI_UNIT (.MILLI., .METRE.)
);
#377 = UNCERTAINTY_MEASURE_WITH_UNIT(LENGTH_MEASURE(1.E-6), #376, 'DISTANCE_ACCURACY_VALUE', '');
#378 = (
   NAMED_UNIT (*)
   SI_UNIT ($, .STERADIAN.)
   SOLID_ANGLE_UNIT ()
);
#379 = (
   NAMED_UNIT (*)
   PLANE_ANGLE_UNIT ()
   SI_UNIT ($, .RADIAN.)
);
#380 = SHAPE_REPRESENTATION('', (), #375);
#381 = PRODUCT_DEFINITION_SHAPE('', '', #382);
#382 = PRODUCT_DEFINITION('', '', #385, #389);
#383 = APPLICATION_CONTEXT('configuration controlled 3D designs of mechanical parts and assemblies');
#384 = APPLICATION_PROTOCOL_DEFINITION('International Standard', 'automotive_design', 2002, #383);
#385 = PRODUCT_DEFINITION_FORMATION_WITH_SPECIFIED_SOURCE('', '', #386, .NOT_KNOWN.);
#386 = PRODUCT('product-name', '2B330-0300-NC       H10F', '', (#387));
#387 = PRODUCT_CONTEXT('', #383, 'mechanical');
#388 = PRODUCT_RELATED_PRODUCT_CATEGORY('detail', '', (#386));
#389 = PRODUCT_DEFINITION_CONTEXT('part definition', #383, 'design');
#390 = SHAPE_DEFINITION_REPRESENTATION(#381, #380);
#391 = CONSTRUCTIVE_GEOMETRY_REPRESENTATION('supplemental geometry', (#362, #366, #370), #375);
#392 = CONSTRUCTIVE_GEOMETRY_REPRESENTATION_RELATIONSHIP('', '', #380, #391);
#393 = SHAPE_REPRESENTATION_RELATIONSHIP('', '', #380, #394);
#394 = SHAPE_REPRESENTATION('', (#336), #375);
#395 = SHAPE_REPRESENTATION_RELATIONSHIP('', '', #380, #396);
#396 = ADVANCED_BREP_SHAPE_REPRESENTATION('', (#1, #194), #375);
ENDSEC;
END-ISO-10303-21;
