ISO-10303-21;
HEADER;
FILE_DESCRIPTION(('STEP'), '1');
FILE_NAME('C:\\Users\\ds2002\\OneDrive - Sandvik\\HomeShare\\Documents\\Batchrepair\\CorSRT2\\NEW_MILBN_SLD\\Output2\\MOD000000000000000020082299200000.stp', '2018-11-23T12:39:06', (''), (''), 'Express v3.0.0.0', 'Express Tool', 'Unknown');
FILE_SCHEMA(('AUTOMOTIVE_DESIGN'));
ENDSEC;

DATA;
#1 = MANIFOLD_SOLID_BREP('NOCUT', #2);
#2 = CLOSED_SHELL('', (#3, #31, #70, #109, #148, #157, #196));
#3 = ADVANCED_FACE('', (#4, #15), #26, .T.);
#4 = FACE_OUTER_BOUND('', #5, .T.);
#5 = EDGE_LOOP('', (#6));
#6 = ORIENTED_EDGE('', *, *, #7, .F.);
#7 = EDGE_CURVE('', #8, #8, #10, .T.);
#8 = VERTEX_POINT('', #9);
#9 = CARTESIAN_POINT('', (-8., 6.67432505535308E-15, -101.));
#10 = CIRCLE('', #11, 8.);
#11 = AXIS2_PLACEMENT_3D('', #12, #13, #14);
#12 = CARTESIAN_POINT('', (7.7715611723761E-16, 3.77475828372553E-15, -101.));
#13 = DIRECTION('', (0., 0., -1.));
#14 = DIRECTION('', (-1., 3.62445846453443E-16, 0.));
#15 = FACE_BOUND('', #16, .T.);
#16 = EDGE_LOOP('', (#17));
#17 = ORIENTED_EDGE('', *, *, #18, .T.);
#18 = EDGE_CURVE('', #19, #19, #21, .T.);
#19 = VERTEX_POINT('', #20);
#20 = CARTESIAN_POINT('', (-7.85, 6.66514020435947E-15, -101.));
#21 = CIRCLE('', #22, 7.85);
#22 = AXIS2_PLACEMENT_3D('', #23, #24, #25);
#23 = CARTESIAN_POINT('', (2.35922392732846E-15, 4.88498130835069E-15, -101.));
#24 = DIRECTION('', (0., 0., -1.));
#25 = DIRECTION('', (-1., 2.26771833886469E-16, 0.));
#26 = B_SPLINE_SURFACE_WITH_KNOTS('', 1, 1, ((#27, #28), (#29, #30)), .UNSPECIFIED., .F., .F., .U., (2, 2), (2, 2), (0.0454545454545454, 0.954545454545454), (0.0454545454545455, 0.954545454545454), .UNSPECIFIED.);
#27 = CARTESIAN_POINT('', (8., -8., -101.));
#28 = CARTESIAN_POINT('', (-8., -7.99999999999999, -101.));
#29 = CARTESIAN_POINT('', (8., 8.00000000000001, -101.));
#30 = CARTESIAN_POINT('', (-8., 8.00000000000002, -101.));
#31 = ADVANCED_FACE('', (#32), #51, .T.);
#32 = FACE_OUTER_BOUND('', #33, .T.);
#33 = EDGE_LOOP('', (#34, #42, #49, #50));
#34 = ORIENTED_EDGE('', *, *, #35, .F.);
#35 = EDGE_CURVE('', #36, #19, #38, .T.);
#36 = VERTEX_POINT('', #37);
#37 = CARTESIAN_POINT('', (-7.85, 3.41982618661898E-15, -48.));
#38 = LINE('', #39, #40);
#39 = CARTESIAN_POINT('', (-7.85, 3.41982618661898E-15, -48.));
#40 = VECTOR('', #41, 53.);
#41 = DIRECTION('', (0., 3.24531401774049E-15, -53.));
#42 = ORIENTED_EDGE('', *, *, #43, .T.);
#43 = EDGE_CURVE('', #36, #36, #44, .T.);
#44 = CIRCLE('', #45, 7.85);
#45 = AXIS2_PLACEMENT_3D('', #46, #47, #48);
#46 = CARTESIAN_POINT('', (2.4980018054066E-16, 8.88178419700125E-16, -48.));
#47 = DIRECTION('', (0., 0., -1.));
#48 = DIRECTION('', (-1., 3.2250290024444E-16, 0.));
#49 = ORIENTED_EDGE('', *, *, #35, .T.);
#50 = ORIENTED_EDGE('', *, *, #18, .F.);
#51 = (
   BOUNDED_SURFACE ()
   B_SPLINE_SURFACE (2, 1, ((#52, #53), (#54, #55), (#56, #57), (#58, #59), (#60, #61), (#62, #63), (#64, #65), (#66, #67), (#68, #69)), .UNSPECIFIED., .T., .F., .U.)
   B_SPLINE_SURFACE_WITH_KNOTS ((3, 2, 2, 2, 3), (2, 2), (0., 12.3307511653399, 24.6615023306799, 36.9922534960198, 49.3230046613597), (0., 1.), .UNSPECIFIED.)
   GEOMETRIC_REPRESENTATION_ITEM ()
   RATIONAL_B_SPLINE_SURFACE (((1., 1.), (0.707106781186548, 0.707106781186548), (1., 1.), (0.707106781186548, 0.707106781186548), (1., 1.), (0.707106781186548, 0.707106781186548), (1., 1.), (0.707106781186548, 0.707106781186548), (1., 1.)))
   REPRESENTATION_ITEM ('')
   SURFACE ()
);
#52 = CARTESIAN_POINT('', (-7.85, 3.41982618661898E-15, -48.));
#53 = CARTESIAN_POINT('', (-7.85000000000004, 6.52845065556943E-15, -101.));
#54 = CARTESIAN_POINT('', (-7.85, 7.85, -48.));
#55 = CARTESIAN_POINT('', (-7.85000000000004, 7.85, -101.));
#56 = CARTESIAN_POINT('', (3.54977498149748E-15, 7.85, -48.));
#57 = CARTESIAN_POINT('', (-4.44231740570825E-14, 7.85, -101.));
#58 = CARTESIAN_POINT('', (7.85, 7.85, -48.));
#59 = CARTESIAN_POINT('', (7.84999999999996, 7.85, -101.));
#60 = CARTESIAN_POINT('', (7.85, 1.09423522951219E-15, -48.));
#61 = CARTESIAN_POINT('', (7.84999999999995, 4.20285969846264E-15, -101.));
#62 = CARTESIAN_POINT('', (7.85, -7.85, -48.));
#63 = CARTESIAN_POINT('', (7.84999999999995, -7.84999999999999, -101.));
#64 = CARTESIAN_POINT('', (2.18553176172137E-15, -7.85, -48.));
#65 = CARTESIAN_POINT('', (-4.57874172768586E-14, -7.84999999999999, -101.));
#66 = CARTESIAN_POINT('', (-7.85, -7.85, -48.));
#67 = CARTESIAN_POINT('', (-7.85000000000004, -7.84999999999999, -101.));
#68 = CARTESIAN_POINT('', (-7.85, 3.41982618661898E-15, -48.));
#69 = CARTESIAN_POINT('', (-7.85000000000004, 6.52845065556943E-15, -101.));
#70 = ADVANCED_FACE('', (#71), #90, .T.);
#71 = FACE_OUTER_BOUND('', #72, .T.);
#72 = EDGE_LOOP('', (#73, #81, #88, #89));
#73 = ORIENTED_EDGE('', *, *, #74, .T.);
#74 = EDGE_CURVE('', #36, #75, #77, .T.);
#75 = VERTEX_POINT('', #76);
#76 = CARTESIAN_POINT('', (-7.85, 5.28741255531869E-16, -0.784999999999997));
#77 = LINE('', #78, #79);
#78 = CARTESIAN_POINT('', (-7.85, 3.41982618661898E-15, -48.));
#79 = VECTOR('', #80, 47.215);
#80 = DIRECTION('', (0., -2.89108493108711E-15, 47.215));
#81 = ORIENTED_EDGE('', *, *, #82, .T.);
#82 = EDGE_CURVE('', #75, #75, #83, .T.);
#83 = CIRCLE('', #84, 7.85);
#84 = AXIS2_PLACEMENT_3D('', #85, #86, #87);
#85 = CARTESIAN_POINT('', (2.4980018054066E-15, -1.33226762955019E-15, -0.784999999999997));
#86 = DIRECTION('', (2.8285936933125E-17, -4.3886981345764E-17, -1.));
#87 = DIRECTION('', (-1., 2.37071195551854E-16, -2.8285936933125E-17));
#88 = ORIENTED_EDGE('', *, *, #74, .F.);
#89 = ORIENTED_EDGE('', *, *, #43, .F.);
#90 = (
   BOUNDED_SURFACE ()
   B_SPLINE_SURFACE (1, 2, ((#91, #92, #93, #94, #95, #96, #97, #98, #99), (#100, #101, #102, #103, #104, #105, #106, #107, #108)), .UNSPECIFIED., .F., .T., .U.)
   B_SPLINE_SURFACE_WITH_KNOTS ((2, 2), (3, 2, 2, 2, 3), (0., 1.), (0., 12.3307511653399, 24.6615023306799, 36.9922534960198, 49.3230046613597), .UNSPECIFIED.)
   GEOMETRIC_REPRESENTATION_ITEM ()
   RATIONAL_B_SPLINE_SURFACE (((1., 0.707106781186548, 1., 0.707106781186548, 1., 0.707106781186548, 1., 0.707106781186548, 1.), (1., 0.707106781186548, 1., 0.707106781186548, 1., 0.707106781186548, 1., 0.707106781186548, 1.)))
   REPRESENTATION_ITEM ('')
   SURFACE ()
);
#91 = CARTESIAN_POINT('', (-7.85, 3.63736572448231E-15, -48.));
#92 = CARTESIAN_POINT('', (-7.84999999999999, 7.85, -48.));
#93 = CARTESIAN_POINT('', (5.21385733412082E-15, 7.85, -48.));
#94 = CARTESIAN_POINT('', (7.85, 7.85, -48.));
#95 = CARTESIAN_POINT('', (7.85, 8.76695691648865E-16, -48.));
#96 = CARTESIAN_POINT('', (7.85, -7.85, -48.));
#97 = CARTESIAN_POINT('', (3.41453503861805E-15, -7.85, -48.));
#98 = CARTESIAN_POINT('', (-7.84999999999999, -7.85, -48.));
#99 = CARTESIAN_POINT('', (-7.85, 3.63736572448231E-15, -48.));
#100 = CARTESIAN_POINT('', (-7.85, 5.28741255531869E-16, -0.784999999999997));
#101 = CARTESIAN_POINT('', (-7.84999999999999, 7.85, -0.784999999999996));
#102 = CARTESIAN_POINT('', (3.87833682182332E-15, 7.85, -0.784999999999996));
#103 = CARTESIAN_POINT('', (7.85, 7.85, -0.784999999999996));
#104 = CARTESIAN_POINT('', (7.85, -2.23192877730157E-15, -0.784999999999997));
#105 = CARTESIAN_POINT('', (7.85, -7.85, -0.784999999999997));
#106 = CARTESIAN_POINT('', (2.07901452632055E-15, -7.85, -0.784999999999997));
#107 = CARTESIAN_POINT('', (-7.85, -7.85, -0.784999999999997));
#108 = CARTESIAN_POINT('', (-7.85, 5.28741255531869E-16, -0.784999999999997));
#109 = ADVANCED_FACE('', (#110), #129, .T.);
#110 = FACE_OUTER_BOUND('', #111, .T.);
#111 = EDGE_LOOP('', (#112, #120, #127, #128));
#112 = ORIENTED_EDGE('', *, *, #113, .T.);
#113 = EDGE_CURVE('', #75, #114, #116, .T.);
#114 = VERTEX_POINT('', #115);
#115 = CARTESIAN_POINT('', (-7.065, 4.32606481798802E-16, 0.));
#116 = LINE('', #117, #118);
#117 = CARTESIAN_POINT('', (-7.85, 5.2874125553187E-16, -0.784999999999997));
#118 = VECTOR('', #119, 1.11015764646288);
#119 = DIRECTION('', (0.784999999999999, -9.61347737330681E-17, 0.784999999999997));
#120 = ORIENTED_EDGE('', *, *, #121, .T.);
#121 = EDGE_CURVE('', #114, #114, #122, .T.);
#122 = CIRCLE('', #123, 7.065);
#123 = AXIS2_PLACEMENT_3D('', #124, #125, #126);
#124 = CARTESIAN_POINT('', (-9.99200722162641E-16, -3.10862446895044E-15, -2.83496887813801E-31));
#125 = DIRECTION('', (-9.43510691719339E-33, 6.12323399573677E-17, -1.));
#126 = DIRECTION('', (-1., 5.01235803361534E-16, 4.01269480274312E-32));
#127 = ORIENTED_EDGE('', *, *, #113, .F.);
#128 = ORIENTED_EDGE('', *, *, #82, .F.);
#129 = (
   BOUNDED_SURFACE ()
   B_SPLINE_SURFACE (1, 2, ((#130, #131, #132, #133, #134, #135, #136, #137, #138), (#139, #140, #141, #142, #143, #144, #145, #146, #147)), .UNSPECIFIED., .F., .T., .U.)
   B_SPLINE_SURFACE_WITH_KNOTS ((2, 2), (3, 2, 2, 2, 3), (0., 1.), (0., 0.25, 0.5, 0.75, 1.), .UNSPECIFIED.)
   GEOMETRIC_REPRESENTATION_ITEM ()
   RATIONAL_B_SPLINE_SURFACE (((1., 0.707106781186548, 1., 0.707106781186548, 1., 0.707106781186548, 1., 0.707106781186548, 1.), (1., 0.707106781186548, 1., 0.707106781186548, 1., 0.707106781186548, 1., 0.707106781186548, 1.)))
   REPRESENTATION_ITEM ('')
   SURFACE ()
);
#130 = CARTESIAN_POINT('', (-7.85, 5.93310250071333E-15, -0.784999999999997));
#131 = CARTESIAN_POINT('', (-7.85, 7.85, -0.784999999999946));
#132 = CARTESIAN_POINT('', (2.45482646556007E-15, 7.85, -0.784999999999946));
#133 = CARTESIAN_POINT('', (7.85, 7.85, -0.784999999999946));
#134 = CARTESIAN_POINT('', (7.85, -9.74951874732088E-16, -0.784999999999997));
#135 = CARTESIAN_POINT('', (7.85, -7.85, -0.785000000000048));
#136 = CARTESIAN_POINT('', (-3.49188017255467E-15, -7.85, -0.785000000000048));
#137 = CARTESIAN_POINT('', (-7.85, -7.85, -0.785000000000048));
#138 = CARTESIAN_POINT('', (-7.85, 5.93310250071333E-15, -0.784999999999997));
#139 = CARTESIAN_POINT('', (-7.065, 4.32606481798802E-16, 0.));
#140 = CARTESIAN_POINT('', (-7.065, 7.065, 4.59632332194817E-14));
#141 = CARTESIAN_POINT('', (2.1094237467878E-15, 7.065, 4.59632332194817E-14));
#142 = CARTESIAN_POINT('', (7.065, 7.065, 4.59632332194817E-14));
#143 = CARTESIAN_POINT('', (7.065, -5.78464245610207E-15, 5.06187886844256E-30));
#144 = CARTESIAN_POINT('', (7.065, -7.06500000000001, -4.59632332194817E-14));
#145 = CARTESIAN_POINT('', (-3.24261222751547E-15, -7.065, -4.59632332194817E-14));
#146 = CARTESIAN_POINT('', (-7.065, -7.065, -4.59632332194817E-14));
#147 = CARTESIAN_POINT('', (-7.065, 4.32606481798802E-16, 0.));
#148 = ADVANCED_FACE('', (#149), #152, .T.);
#149 = FACE_OUTER_BOUND('', #150, .T.);
#150 = EDGE_LOOP('', (#151));
#151 = ORIENTED_EDGE('', *, *, #121, .F.);
#152 = B_SPLINE_SURFACE_WITH_KNOTS('', 1, 1, ((#153, #154), (#155, #156)), .UNSPECIFIED., .F., .F., .U., (2, 2), (2, 2), (0.0454545454545454, 0.954545454545455), (0.0454545454545454, 0.954545454545455), .UNSPECIFIED.);
#153 = CARTESIAN_POINT('', (7.065, -7.065, -4.32606481798803E-16));
#154 = CARTESIAN_POINT('', (-7.065, -7.065, -4.32606481798803E-16));
#155 = CARTESIAN_POINT('', (7.065, 7.065, 4.32606481798802E-16));
#156 = CARTESIAN_POINT('', (-7.065, 7.065, 4.32606481798802E-16));
#157 = ADVANCED_FACE('', (#158), #177, .T.);
#158 = FACE_OUTER_BOUND('', #159, .T.);
#159 = EDGE_LOOP('', (#160, #169, #175, #176));
#160 = ORIENTED_EDGE('', *, *, #161, .F.);
#161 = EDGE_CURVE('', #162, #162, #164, .T.);
#162 = VERTEX_POINT('', #163);
#163 = CARTESIAN_POINT('', (-8., 6.73555739531044E-15, -102.));
#164 = CIRCLE('', #165, 8.);
#165 = AXIS2_PLACEMENT_3D('', #166, #167, #168);
#166 = CARTESIAN_POINT('', (8.32667268468867E-17, 1.15463194561016E-14, -102.));
#167 = DIRECTION('', (0., 0., -1.));
#168 = DIRECTION('', (-1., -6.01345257598898E-16, 0.));
#169 = ORIENTED_EDGE('', *, *, #170, .F.);
#170 = EDGE_CURVE('', #8, #162, #171, .T.);
#171 = LINE('', #172, #173);
#172 = CARTESIAN_POINT('', (-8., 6.67432505535308E-15, -101.));
#173 = VECTOR('', #174, 1.);
#174 = DIRECTION('', (0., 6.12323399573605E-17, -1.));
#175 = ORIENTED_EDGE('', *, *, #7, .T.);
#176 = ORIENTED_EDGE('', *, *, #170, .T.);
#177 = (
   BOUNDED_SURFACE ()
   B_SPLINE_SURFACE (2, 1, ((#178, #179), (#180, #181), (#182, #183), (#184, #185), (#186, #187), (#188, #189), (#190, #191), (#192, #193), (#194, #195)), .UNSPECIFIED., .T., .F., .U.)
   B_SPLINE_SURFACE_WITH_KNOTS ((3, 2, 2, 2, 3), (2, 2), (0., 12.5663706143592, 25.1327412287184, 37.6991118430775, 50.2654824574367), (0., 0.0625000000000004), .UNSPECIFIED.)
   GEOMETRIC_REPRESENTATION_ITEM ()
   RATIONAL_B_SPLINE_SURFACE (((1., 1.), (0.707106781186548, 0.707106781186548), (1., 1.), (0.707106781186548, 0.707106781186548), (1., 1.), (0.707106781186548, 0.707106781186548), (1., 1.), (0.707106781186548, 0.707106781186548), (1., 1.)))
   REPRESENTATION_ITEM ('')
   SURFACE ()
);
#178 = CARTESIAN_POINT('', (-8., 6.67432505535308E-15, -101.));
#179 = CARTESIAN_POINT('', (-8., 6.67432505535308E-15, -102.));
#180 = CARTESIAN_POINT('', (-8., 8.00000000000001, -101.));
#181 = CARTESIAN_POINT('', (-8., 8.00000000000001, -102.));
#182 = CARTESIAN_POINT('', (3.76973125713442E-15, 8.00000000000001, -101.));
#183 = CARTESIAN_POINT('', (1.9933744177342E-15, 8.00000000000001, -102.));
#184 = CARTESIAN_POINT('', (8.00000000000001, 8., -101.));
#185 = CARTESIAN_POINT('', (8., 8., -102.));
#186 = CARTESIAN_POINT('', (8., 1.4108197415658E-15, -101.));
#187 = CARTESIAN_POINT('', (8., 1.41081974156581E-15, -102.));
#188 = CARTESIAN_POINT('', (8., -8., -101.));
#189 = CARTESIAN_POINT('', (8., -8., -102.));
#190 = CARTESIAN_POINT('', (-5.14056617334969E-16, -8., -101.));
#191 = CARTESIAN_POINT('', (-2.29041345673519E-15, -8., -102.));
#192 = CARTESIAN_POINT('', (-8., -8., -101.));
#193 = CARTESIAN_POINT('', (-8., -8., -102.));
#194 = CARTESIAN_POINT('', (-8., 6.67432505535308E-15, -101.));
#195 = CARTESIAN_POINT('', (-8., 6.67432505535308E-15, -102.));
#196 = ADVANCED_FACE('', (#197), #200, .T.);
#197 = FACE_OUTER_BOUND('', #198, .T.);
#198 = EDGE_LOOP('', (#199));
#199 = ORIENTED_EDGE('', *, *, #161, .T.);
#200 = B_SPLINE_SURFACE_WITH_KNOTS('', 1, 1, ((#201, #202), (#203, #204)), .UNSPECIFIED., .F., .F., .U., (2, 2), (2, 2), (0.48841232732311, 0.551388835074882), (0.448611164925118, 0.51158767267689), .UNSPECIFIED.);
#201 = CARTESIAN_POINT('', (-8.00000000000003, 8.00000000000001, -102.));
#202 = CARTESIAN_POINT('', (-8.00000000000003, -7.99999999999999, -102.));
#203 = CARTESIAN_POINT('', (7.99999999999997, 8.00000000000001, -102.));
#204 = CARTESIAN_POINT('', (7.99999999999997, -7.99999999999999, -102.));
#205 = DRAUGHTING_MODEL('', (#213, #321, #361, #366, #371, #376, #381), #395);
#206 = PRESENTATION_STYLE_ASSIGNMENT((#207));
#207 = SURFACE_STYLE_USAGE(.POSITIVE., #208);
#208 = SURFACE_SIDE_STYLE('', (#209));
#209 = SURFACE_STYLE_FILL_AREA(#210);
#210 = FILL_AREA_STYLE('', (#211));
#211 = FILL_AREA_STYLE_COLOUR('', #212);
#212 = COLOUR_RGB('', 0.50196078431373, 0.50196078431373, 0.50196078431373);
#213 = STYLED_ITEM('', (#206), #1);
#214 = MANIFOLD_SOLID_BREP('CUT', #215);
#215 = CLOSED_SHELL('', (#216, #233, #272));
#216 = ADVANCED_FACE('', (#217), #228, .T.);
#217 = FACE_OUTER_BOUND('', #218, .T.);
#218 = EDGE_LOOP('', (#219));
#219 = ORIENTED_EDGE('', *, *, #220, .F.);
#220 = EDGE_CURVE('', #221, #221, #223, .T.);
#221 = VERTEX_POINT('', #222);
#222 = CARTESIAN_POINT('', (-8., 6.73555739531044E-15, -102.));
#223 = CIRCLE('', #224, 8.);
#224 = AXIS2_PLACEMENT_3D('', #225, #226, #227);
#225 = CARTESIAN_POINT('', (8.32667268468867E-17, 1.15463194561016E-14, -102.));
#226 = DIRECTION('', (0., 0., -1.));
#227 = DIRECTION('', (-1., -6.01345257598898E-16, 0.));
#228 = B_SPLINE_SURFACE_WITH_KNOTS('', 1, 1, ((#229, #230), (#231, #232)), .UNSPECIFIED., .F., .F., .U., (2, 2), (2, 2), (0.448611164925118, 0.51158767267689), (0.48841232732311, 0.551388835074882), .UNSPECIFIED.);
#229 = CARTESIAN_POINT('', (-8., 8.00000000000001, -102.));
#230 = CARTESIAN_POINT('', (8., 8.00000000000001, -102.));
#231 = CARTESIAN_POINT('', (-8., -8., -102.));
#232 = CARTESIAN_POINT('', (8., -8., -102.));
#233 = ADVANCED_FACE('', (#234), #253, .T.);
#234 = FACE_OUTER_BOUND('', #235, .T.);
#235 = EDGE_LOOP('', (#236, #237, #245, #252));
#236 = ORIENTED_EDGE('', *, *, #220, .T.);
#237 = ORIENTED_EDGE('', *, *, #238, .T.);
#238 = EDGE_CURVE('', #221, #239, #241, .T.);
#239 = VERTEX_POINT('', #240);
#240 = CARTESIAN_POINT('', (-8., 7.65404249467096E-15, -117.));
#241 = LINE('', #242, #243);
#242 = CARTESIAN_POINT('', (-8., 6.73555739531044E-15, -102.));
#243 = VECTOR('', #244, 15.);
#244 = DIRECTION('', (0., 9.18485099360519E-16, -15.));
#245 = ORIENTED_EDGE('', *, *, #246, .F.);
#246 = EDGE_CURVE('', #239, #239, #247, .T.);
#247 = CIRCLE('', #248, 8.);
#248 = AXIS2_PLACEMENT_3D('', #249, #250, #251);
#249 = CARTESIAN_POINT('', (1.11022302462516E-15, 4.21884749357559E-15, -117.));
#250 = DIRECTION('', (2.59610457900257E-30, 6.04589743097498E-15, -1.));
#251 = DIRECTION('', (-1., 4.2939937513692E-16, 0.));
#252 = ORIENTED_EDGE('', *, *, #238, .F.);
#253 = (
   BOUNDED_SURFACE ()
   B_SPLINE_SURFACE (2, 1, ((#254, #255), (#256, #257), (#258, #259), (#260, #261), (#262, #263), (#264, #265), (#266, #267), (#268, #269), (#270, #271)), .UNSPECIFIED., .T., .F., .U.)
   B_SPLINE_SURFACE_WITH_KNOTS ((3, 2, 2, 2, 3), (2, 2), (0., 12.5663706143592, 25.1327412287183, 37.6991118430775, 50.2654824574367), (0.0625000000000004, 1.), .UNSPECIFIED.)
   GEOMETRIC_REPRESENTATION_ITEM ()
   RATIONAL_B_SPLINE_SURFACE (((1., 1.), (0.707106781186548, 0.707106781186548), (1., 1.), (0.707106781186548, 0.707106781186548), (1., 1.), (0.707106781186548, 0.707106781186548), (1., 1.), (0.707106781186548, 0.707106781186548), (1., 1.)))
   REPRESENTATION_ITEM ('')
   SURFACE ()
);
#254 = CARTESIAN_POINT('', (-8., 6.73555739531044E-15, -102.));
#255 = CARTESIAN_POINT('', (-8., 3.18284371650994E-15, -117.));
#256 = CARTESIAN_POINT('', (-8., 8.00000000000001, -102.));
#257 = CARTESIAN_POINT('', (-8., 8., -117.));
#258 = CARTESIAN_POINT('', (-1.35932904303082E-15, 8.00000000000001, -102.));
#259 = CARTESIAN_POINT('', (-1.35932904303082E-15, 8.00000000000001, -117.));
#260 = CARTESIAN_POINT('', (8., 8.00000000000001, -102.));
#261 = CARTESIAN_POINT('', (8., 8.00000000000001, -117.));
#262 = CARTESIAN_POINT('', (8., 9.78728238875963E-15, -102.));
#263 = CARTESIAN_POINT('', (8., 6.23456870995913E-15, -117.));
#264 = CARTESIAN_POINT('', (8., -7.99999999999999, -102.));
#265 = CARTESIAN_POINT('', (8., -7.99999999999999, -117.));
#266 = CARTESIAN_POINT('', (2.67211338973625E-15, -7.99999999999999, -102.));
#267 = CARTESIAN_POINT('', (2.67211338973625E-15, -8., -117.));
#268 = CARTESIAN_POINT('', (-8., -8., -102.));
#269 = CARTESIAN_POINT('', (-8., -8., -117.));
#270 = CARTESIAN_POINT('', (-8., 6.73555739531044E-15, -102.));
#271 = CARTESIAN_POINT('', (-8., 3.18284371650994E-15, -117.));
#272 = ADVANCED_FACE('', (#273), #286, .T.);
#273 = FACE_OUTER_BOUND('', #274, .T.);
#274 = EDGE_LOOP('', (#275, #284, #285));
#275 = ORIENTED_EDGE('', *, *, #276, .F.);
#276 = EDGE_CURVE('', #239, #277, #279, .T.);
#277 = VERTEX_POINT('', #278);
#278 = CARTESIAN_POINT('', (2.35775457867695E-15, 7.65404249467096E-15, -125.));
#279 = CIRCLE('', #280, 7.99999999999996);
#280 = AXIS2_PLACEMENT_3D('', #281, #282, #283);
#281 = CARTESIAN_POINT('', (-3.5527136788005E-14, 7.16418377501202E-15, -117.));
#282 = DIRECTION('', (-6.12323399573677E-17, -1., -6.12323399573677E-17));
#283 = DIRECTION('', (-1., 6.12323399573675E-17, 3.55271367880052E-15));
#284 = ORIENTED_EDGE('', *, *, #246, .T.);
#285 = ORIENTED_EDGE('', *, *, #276, .T.);
#286 = (
   BOUNDED_SURFACE ()
   B_SPLINE_SURFACE (2, 2, ((#287, #288, #289), (#290, #291, #292), (#293, #294, #295), (#296, #297, #298), (#299, #300, #301), (#302, #303, #304), (#305, #306, #307), (#308, #309, #310), (#311, #312, #313)), .UNSPECIFIED., .T., .F., .U.)
   B_SPLINE_SURFACE_WITH_KNOTS ((3, 2, 2, 2, 3), (3, 3), (0., 0.25, 0.5, 0.75, 1.), (0., 1.), .UNSPECIFIED.)
   GEOMETRIC_REPRESENTATION_ITEM ()
   RATIONAL_B_SPLINE_SURFACE (((1., 0.707106781186548, 1.), (0.707106781186548, 0.5, 0.707106781186548), (1., 0.707106781186548, 1.), (0.707106781186548, 0.5, 0.707106781186548), (1., 0.707106781186548, 1.), (0.707106781186548, 0.5, 0.707106781186548), (1., 0.707106781186548, 1.), (0.707106781186548, 0.5, 0.707106781186548), (1., 0.707106781186548, 1.)))
   REPRESENTATION_ITEM ('')
   SURFACE ()
);
#287 = CARTESIAN_POINT('', (-8., 7.65404249467096E-15, -117.));
#288 = CARTESIAN_POINT('', (-8., 8.1439012143299E-15, -125.));
#289 = CARTESIAN_POINT('', (2.35775457867695E-15, 7.65404249467096E-15, -125.));
#290 = CARTESIAN_POINT('', (-8., 7.99999999999997, -117.));
#291 = CARTESIAN_POINT('', (-8., 7.99999999999997, -125.));
#292 = CARTESIAN_POINT('', (2.35775457867695E-15, 7.65404249467096E-15, -125.));
#293 = CARTESIAN_POINT('', (-3.5527136788005E-14, 7.99999999999997, -117.));
#294 = CARTESIAN_POINT('', (-3.50372780683461E-14, 7.99999999999997, -125.));
#295 = CARTESIAN_POINT('', (2.35775457867695E-15, 7.65404249467096E-15, -125.));
#296 = CARTESIAN_POINT('', (7.99999999999993, 7.99999999999997, -117.));
#297 = CARTESIAN_POINT('', (7.99999999999993, 7.99999999999997, -125.));
#298 = CARTESIAN_POINT('', (2.35775457867695E-15, 7.65404249467096E-15, -125.));
#299 = CARTESIAN_POINT('', (7.99999999999993, 7.65404249467096E-15, -117.));
#300 = CARTESIAN_POINT('', (7.99999999999993, 7.16418377501202E-15, -125.));
#301 = CARTESIAN_POINT('', (2.35775457867695E-15, 7.65404249467096E-15, -125.));
#302 = CARTESIAN_POINT('', (7.99999999999993, -7.99999999999996, -117.));
#303 = CARTESIAN_POINT('', (7.99999999999993, -7.99999999999996, -125.));
#304 = CARTESIAN_POINT('', (2.35775457867695E-15, 7.65404249467096E-15, -125.));
#305 = CARTESIAN_POINT('', (-3.45474193486871E-14, -7.99999999999996, -117.));
#306 = CARTESIAN_POINT('', (-3.50372780683461E-14, -7.99999999999996, -125.));
#307 = CARTESIAN_POINT('', (2.35775457867695E-15, 7.65404249467096E-15, -125.));
#308 = CARTESIAN_POINT('', (-8., -7.99999999999996, -117.));
#309 = CARTESIAN_POINT('', (-8., -7.99999999999996, -125.));
#310 = CARTESIAN_POINT('', (2.35775457867695E-15, 7.65404249467096E-15, -125.));
#311 = CARTESIAN_POINT('', (-8., 7.65404249467096E-15, -117.));
#312 = CARTESIAN_POINT('', (-8., 8.1439012143299E-15, -125.));
#313 = CARTESIAN_POINT('', (2.35775457867695E-15, 7.65404249467096E-15, -125.));
#314 = PRESENTATION_STYLE_ASSIGNMENT((#315));
#315 = SURFACE_STYLE_USAGE(.POSITIVE., #316);
#316 = SURFACE_SIDE_STYLE('', (#317));
#317 = SURFACE_STYLE_FILL_AREA(#318);
#318 = FILL_AREA_STYLE('', (#319));
#319 = FILL_AREA_STYLE_COLOUR('', #320);
#320 = COLOUR_RGB('', 0.8, 0.8, 0.8);
#321 = STYLED_ITEM('', (#314), #214);
#322 = TRIMMED_CURVE('cutting part line', #323, (#328), (#329), .T., .CARTESIAN.);
#323 = CIRCLE('', #324, 7.99999999999995);
#324 = AXIS2_PLACEMENT_3D('', #325, #326, #327);
#325 = CARTESIAN_POINT('', (-2.39808173319034E-14, 0., -117.));
#326 = DIRECTION('', (0., -1., 0.));
#327 = DIRECTION('', (-1.35308431126192E-15, 0., -1.));
#328 = CARTESIAN_POINT('', (-3.48054918219987E-14, 0., -125.));
#329 = CARTESIAN_POINT('', (7.99999999999993, 0., -117.));
#330 = TRIMMED_CURVE('cutting part line', #331, (#335), (#336), .T., .CARTESIAN.);
#331 = LINE('', #332, #333);
#332 = CARTESIAN_POINT('', (8., -3.55217258329927E-15, -117.));
#333 = VECTOR('', #334, 15.);
#334 = DIRECTION('', (0., 3.55217258329927E-15, 15.));
#335 = CARTESIAN_POINT('', (8., -3.55217258329927E-15, -117.));
#336 = CARTESIAN_POINT('', (8., 0., -102.));
#337 = TRIMMED_CURVE('cutting part line', #338, (#342), (#343), .T., .CARTESIAN.);
#338 = LINE('', #339, #340);
#339 = CARTESIAN_POINT('', (8., 0., -102.));
#340 = VECTOR('', #341, 8.);
#341 = DIRECTION('', (-8., 0., 0.));
#342 = CARTESIAN_POINT('', (8., 0., -102.));
#343 = CARTESIAN_POINT('', (0., 0., -102.));
#344 = TRIMMED_CURVE('cutting part line', #345, (#349), (#350), .T., .CARTESIAN.);
#345 = LINE('', #346, #347);
#346 = CARTESIAN_POINT('', (0., 0., -102.));
#347 = VECTOR('', #348, 23.);
#348 = DIRECTION('', (0., 0., -23.));
#349 = CARTESIAN_POINT('', (0., 0., -102.));
#350 = CARTESIAN_POINT('', (0., 0., -125.));
#351 = COMPOSITE_CURVE('cutting part line', (#352, #353, #354, #355), .U.);
#352 = COMPOSITE_CURVE_SEGMENT(.CONTINUOUS., .T., #322);
#353 = COMPOSITE_CURVE_SEGMENT(.CONTINUOUS., .T., #330);
#354 = COMPOSITE_CURVE_SEGMENT(.CONTINUOUS., .T., #337);
#355 = COMPOSITE_CURVE_SEGMENT(.CONTINUOUS., .T., #344);
#356 = GEOMETRIC_SET('', (#351, #394));
#357 = PRESENTATION_STYLE_ASSIGNMENT((#358));
#358 = CURVE_STYLE('', #360, POSITIVE_LENGTH_MEASURE(1.E-6), #359);
#359 = COLOUR_RGB('', 0., 0., 1.);
#360 = DRAUGHTING_PRE_DEFINED_CURVE_FONT('continuous');
#361 = STYLED_ITEM('', (#357), #351);
#362 = PRESENTATION_STYLE_ASSIGNMENT((#363));
#363 = CURVE_STYLE('', #365, POSITIVE_LENGTH_MEASURE(1.E-6), #364);
#364 = COLOUR_RGB('', 0., 0., 1.);
#365 = DRAUGHTING_PRE_DEFINED_CURVE_FONT('continuous');
#366 = OVER_RIDING_STYLED_ITEM('', (#362), #322, #361);
#367 = PRESENTATION_STYLE_ASSIGNMENT((#368));
#368 = CURVE_STYLE('', #370, POSITIVE_LENGTH_MEASURE(1.E-6), #369);
#369 = COLOUR_RGB('', 0., 0., 1.);
#370 = DRAUGHTING_PRE_DEFINED_CURVE_FONT('continuous');
#371 = OVER_RIDING_STYLED_ITEM('', (#367), #330, #361);
#372 = PRESENTATION_STYLE_ASSIGNMENT((#373));
#373 = CURVE_STYLE('', #375, POSITIVE_LENGTH_MEASURE(1.E-6), #374);
#374 = COLOUR_RGB('', 0., 0., 1.);
#375 = DRAUGHTING_PRE_DEFINED_CURVE_FONT('continuous');
#376 = OVER_RIDING_STYLED_ITEM('', (#372), #337, #361);
#377 = PRESENTATION_STYLE_ASSIGNMENT((#378));
#378 = CURVE_STYLE('', #380, POSITIVE_LENGTH_MEASURE(1.E-6), #379);
#379 = COLOUR_RGB('', 0., 0., 1.);
#380 = DRAUGHTING_PRE_DEFINED_CURVE_FONT('continuous');
#381 = OVER_RIDING_STYLED_ITEM('', (#377), #344, #361);
#382 = AXIS2_PLACEMENT_3D('MCS', #383, #384, #385);
#383 = CARTESIAN_POINT('', (0., 0., -48.));
#384 = DIRECTION('', (0., 0., 1.));
#385 = DIRECTION('', (1., 0., 0.));
#386 = AXIS2_PLACEMENT_3D('PCS', #387, #388, #389);
#387 = CARTESIAN_POINT('', (0., 0., 0.));
#388 = DIRECTION('', (0., 0., 1.));
#389 = DIRECTION('', (1., 0., 0.));
#390 = AXIS2_PLACEMENT_3D('CIP', #391, #392, #393);
#391 = CARTESIAN_POINT('', (0., 0., -125.));
#392 = DIRECTION('', (0., 0., 1.));
#393 = DIRECTION('', (1., 0., 0.));
#394 = CARTESIAN_POINT('CRP', (8., 0., -125.));
#395 = (
   GEOMETRIC_REPRESENTATION_CONTEXT (3)
   GLOBAL_UNCERTAINTY_ASSIGNED_CONTEXT ((#397))
   GLOBAL_UNIT_ASSIGNED_CONTEXT ((#396, #398, #399))
   REPRESENTATION_CONTEXT ('', '3D')
);
#396 = (
   LENGTH_UNIT ()
   NAMED_UNIT (*)
   SI_UNIT (.MILLI., .METRE.)
);
#397 = UNCERTAINTY_MEASURE_WITH_UNIT(LENGTH_MEASURE(1.E-6), #396, 'DISTANCE_ACCURACY_VALUE', '');
#398 = (
   NAMED_UNIT (*)
   SI_UNIT ($, .STERADIAN.)
   SOLID_ANGLE_UNIT ()
);
#399 = (
   NAMED_UNIT (*)
   PLANE_ANGLE_UNIT ()
   SI_UNIT ($, .RADIAN.)
);
#400 = SHAPE_REPRESENTATION('', (), #395);
#401 = PRODUCT_DEFINITION_SHAPE('', '', #402);
#402 = PRODUCT_DEFINITION('', '', #405, #409);
#403 = APPLICATION_CONTEXT('configuration controlled 3D designs of mechanical parts and assemblies');
#404 = APPLICATION_PROTOCOL_DEFINITION('International Standard', 'automotive_design', 2002, #403);
#405 = PRODUCT_DEFINITION_FORMATION_WITH_SPECIFIED_SOURCE('', '', #406, .NOT_KNOWN.);
#406 = PRODUCT('product-name', '2B320-1600-NG       H10F', '', (#407));
#407 = PRODUCT_CONTEXT('', #403, 'mechanical');
#408 = PRODUCT_RELATED_PRODUCT_CATEGORY('detail', '', (#406));
#409 = PRODUCT_DEFINITION_CONTEXT('part definition', #403, 'design');
#410 = SHAPE_DEFINITION_REPRESENTATION(#401, #400);
#411 = CONSTRUCTIVE_GEOMETRY_REPRESENTATION('supplemental geometry', (#382, #386, #390), #395);
#412 = CONSTRUCTIVE_GEOMETRY_REPRESENTATION_RELATIONSHIP('', '', #400, #411);
#413 = SHAPE_REPRESENTATION_RELATIONSHIP('', '', #400, #414);
#414 = SHAPE_REPRESENTATION('', (#356), #395);
#415 = SHAPE_REPRESENTATION_RELATIONSHIP('', '', #400, #416);
#416 = ADVANCED_BREP_SHAPE_REPRESENTATION('', (#1, #214), #395);
ENDSEC;
END-ISO-10303-21;
