ISO-10303-21;
HEADER;
FILE_DESCRIPTION(('STEP'), '1');
FILE_NAME('C:\\Users\\ds2002\\OneDrive - Sandvik\\HomeShare\\Documents\\Batchrepair\\CorSRT2\\NEW_MILBN_SLD\\Output2\\MOD000000000000000020082299000000.stp', '2018-11-23T12:39:03', (''), (''), 'Express v3.0.0.0', 'Express Tool', 'Unknown');
FILE_SCHEMA(('AUTOMOTIVE_DESIGN'));
ENDSEC;

DATA;
#1 = MANIFOLD_SOLID_BREP('NOCUT', #2);
#2 = CLOSED_SHELL('', (#3, #31, #70, #109, #148, #157, #196));
#3 = ADVANCED_FACE('', (#4, #15), #26, .T.);
#4 = FACE_OUTER_BOUND('', #5, .T.);
#5 = EDGE_LOOP('', (#6));
#6 = ORIENTED_EDGE('', *, *, #7, .F.);
#7 = EDGE_CURVE('', #8, #8, #10, .T.);
#8 = VERTEX_POINT('', #9);
#9 = CARTESIAN_POINT('', (-5., 5.44967825620572E-15, -84.));
#10 = CIRCLE('', #11, 5.);
#11 = AXIS2_PLACEMENT_3D('', #12, #13, #14);
#12 = CARTESIAN_POINT('', (-4.71844785465692E-16, 3.21964677141295E-15, -84.));
#13 = DIRECTION('', (-4.31441331996854E-30, -9.67343588955982E-15, -1.));
#14 = DIRECTION('', (-1., 4.46006296958553E-16, 0.));
#15 = FACE_BOUND('', #16, .T.);
#16 = EDGE_LOOP('', (#17));
#17 = ORIENTED_EDGE('', *, *, #18, .T.);
#18 = EDGE_CURVE('', #19, #19, #21, .T.);
#19 = VERTEX_POINT('', #20);
#20 = CARTESIAN_POINT('', (-4.85, 5.44049340521212E-15, -84.));
#21 = CIRCLE('', #22, 4.85);
#22 = AXIS2_PLACEMENT_3D('', #23, #24, #25);
#23 = CARTESIAN_POINT('', (7.7715611723761E-16, 5.77315972805081E-15, -84.));
#24 = DIRECTION('', (0., 0., -1.));
#25 = DIRECTION('', (-1., -6.85909943997307E-17, 0.));
#26 = B_SPLINE_SURFACE_WITH_KNOTS('', 1, 1, ((#27, #28), (#29, #30)), .UNSPECIFIED., .F., .F., .U., (2, 2), (2, 2), (0.0454545454545454, 0.954545454545455), (0.0454545454545454, 0.954545454545455), .UNSPECIFIED.);
#27 = CARTESIAN_POINT('', (5., -5., -84.));
#28 = CARTESIAN_POINT('', (-5., -5., -84.));
#29 = CARTESIAN_POINT('', (5., 5.00000000000001, -84.));
#30 = CARTESIAN_POINT('', (-5., 5.00000000000001, -84.));
#31 = ADVANCED_FACE('', (#32), #51, .T.);
#32 = FACE_OUTER_BOUND('', #33, .T.);
#33 = EDGE_LOOP('', (#34, #42, #49, #50));
#34 = ORIENTED_EDGE('', *, *, #35, .F.);
#35 = EDGE_CURVE('', #36, #19, #38, .T.);
#36 = VERTEX_POINT('', #37);
#37 = CARTESIAN_POINT('', (-4.85, 2.74627044708794E-15, -40.));
#38 = LINE('', #39, #40);
#39 = CARTESIAN_POINT('', (-4.85, 2.74627044708794E-15, -40.));
#40 = VECTOR('', #41, 44.);
#41 = DIRECTION('', (0., 2.69422295812418E-15, -44.));
#42 = ORIENTED_EDGE('', *, *, #43, .T.);
#43 = EDGE_CURVE('', #36, #36, #44, .T.);
#44 = CIRCLE('', #45, 4.85);
#45 = AXIS2_PLACEMENT_3D('', #46, #47, #48);
#46 = CARTESIAN_POINT('', (1.29063426612674E-15, -1.66533453693773E-15, -40.));
#47 = DIRECTION('', (-4.53559124062439E-30, -4.98630715956691E-15, -1.));
#48 = DIRECTION('', (-1., 9.0960927505684E-16, 0.));
#49 = ORIENTED_EDGE('', *, *, #35, .T.);
#50 = ORIENTED_EDGE('', *, *, #18, .F.);
#51 = (
   BOUNDED_SURFACE ()
   B_SPLINE_SURFACE (2, 1, ((#52, #53), (#54, #55), (#56, #57), (#58, #59), (#60, #61), (#62, #63), (#64, #65), (#66, #67), (#68, #69)), .UNSPECIFIED., .T., .F., .U.)
   B_SPLINE_SURFACE_WITH_KNOTS ((3, 2, 2, 2, 3), (2, 2), (0., 7.61836218495525, 15.2367243699105, 22.8550865548658, 30.473448739821), (0., 1.), .UNSPECIFIED.)
   GEOMETRIC_REPRESENTATION_ITEM ()
   RATIONAL_B_SPLINE_SURFACE (((1., 1.), (0.707106781186548, 0.707106781186548), (1., 1.), (0.707106781186548, 0.707106781186548), (1., 1.), (0.707106781186548, 0.707106781186548), (1., 1.), (0.707106781186548, 0.707106781186548), (1., 1.)))
   REPRESENTATION_ITEM ('')
   SURFACE ()
);
#52 = CARTESIAN_POINT('', (-4.85, 2.74627044708794E-15, -40.));
#53 = CARTESIAN_POINT('', (-4.85, 6.63205103327599E-15, -84.));
#54 = CARTESIAN_POINT('', (-4.85, 4.85, -40.));
#55 = CARTESIAN_POINT('', (-4.85, 4.85000000000001, -84.));
#56 = CARTESIAN_POINT('', (1.17253711997578E-15, 4.85, -40.));
#57 = CARTESIAN_POINT('', (1.17253711997578E-15, 4.85, -84.));
#58 = CARTESIAN_POINT('', (4.85, 4.85, -40.));
#59 = CARTESIAN_POINT('', (4.85, 4.85, -84.));
#60 = CARTESIAN_POINT('', (4.85, 1.62244153422406E-15, -40.));
#61 = CARTESIAN_POINT('', (4.85, 5.50822212041211E-15, -84.));
#62 = CARTESIAN_POINT('', (4.85, -4.85, -40.));
#63 = CARTESIAN_POINT('', (4.85, -4.84999999999999, -84.));
#64 = CARTESIAN_POINT('', (6.42661904698362E-16, -4.85, -40.));
#65 = CARTESIAN_POINT('', (6.42661904698362E-16, -4.84999999999999, -84.));
#66 = CARTESIAN_POINT('', (-4.85, -4.85, -40.));
#67 = CARTESIAN_POINT('', (-4.85, -4.84999999999999, -84.));
#68 = CARTESIAN_POINT('', (-4.85, 2.74627044708794E-15, -40.));
#69 = CARTESIAN_POINT('', (-4.85, 6.63205103327599E-15, -84.));
#70 = ADVANCED_FACE('', (#71), #90, .T.);
#71 = FACE_OUTER_BOUND('', #72, .T.);
#72 = EDGE_LOOP('', (#73, #81, #88, #89));
#73 = ORIENTED_EDGE('', *, *, #74, .T.);
#74 = EDGE_CURVE('', #36, #75, #77, .T.);
#75 = VERTEX_POINT('', #76);
#76 = CARTESIAN_POINT('', (-4.85, 3.26674533672556E-16, -0.484999999999999));
#77 = LINE('', #78, #79);
#78 = CARTESIAN_POINT('', (-4.85, 2.74627044708794E-15, -40.));
#79 = VECTOR('', #80, 39.515);
#80 = DIRECTION('', (0., -2.41959591341538E-15, 39.515));
#81 = ORIENTED_EDGE('', *, *, #82, .T.);
#82 = EDGE_CURVE('', #75, #75, #83, .T.);
#83 = CIRCLE('', #84, 4.85);
#84 = AXIS2_PLACEMENT_3D('', #85, #86, #87);
#85 = CARTESIAN_POINT('', (-1.80411241501588E-16, -3.33066907387547E-16, -0.484999999999999));
#86 = DIRECTION('', (-2.28911963840238E-17, 1.52383357924954E-16, -1.));
#87 = DIRECTION('', (-1., 1.36029163105176E-16, 2.28911963840238E-17));
#88 = ORIENTED_EDGE('', *, *, #74, .F.);
#89 = ORIENTED_EDGE('', *, *, #43, .F.);
#90 = (
   BOUNDED_SURFACE ()
   B_SPLINE_SURFACE (1, 2, ((#91, #92, #93, #94, #95, #96, #97, #98, #99), (#100, #101, #102, #103, #104, #105, #106, #107, #108)), .UNSPECIFIED., .F., .T., .U.)
   B_SPLINE_SURFACE_WITH_KNOTS ((2, 2), (3, 2, 2, 2, 3), (0., 1.), (0., 7.61836218495525, 15.2367243699105, 22.8550865548657, 30.473448739821), .UNSPECIFIED.)
   GEOMETRIC_REPRESENTATION_ITEM ()
   RATIONAL_B_SPLINE_SURFACE (((1., 0.707106781186548, 1., 0.707106781186548, 1., 0.707106781186548, 1., 0.707106781186548, 1.), (1., 0.707106781186548, 1., 0.707106781186548, 1., 0.707106781186548, 1., 0.707106781186548, 1.)))
   REPRESENTATION_ITEM ('')
   SURFACE ()
);
#91 = CARTESIAN_POINT('', (-4.85, 2.54712058292287E-15, -40.));
#92 = CARTESIAN_POINT('', (-4.85, 4.85, -40.));
#93 = CARTESIAN_POINT('', (-7.2219227434942E-16, 4.85, -40.));
#94 = CARTESIAN_POINT('', (4.85, 4.85, -40.));
#95 = CARTESIAN_POINT('', (4.85, 1.82159139838913E-15, -40.));
#96 = CARTESIAN_POINT('', (4.85, -4.85, -40.));
#97 = CARTESIAN_POINT('', (-8.53767761296694E-16, -4.85, -40.));
#98 = CARTESIAN_POINT('', (-4.85, -4.85, -40.));
#99 = CARTESIAN_POINT('', (-4.85, 2.54712058292287E-15, -40.));
#100 = CARTESIAN_POINT('', (-4.85, 3.26674533672556E-16, -0.484999999999999));
#101 = CARTESIAN_POINT('', (-4.85, 4.85, -0.484999999999999));
#102 = CARTESIAN_POINT('', (1.82353350765282E-16, 4.85, -0.484999999999999));
#103 = CARTESIAN_POINT('', (4.85, 4.85, -0.484999999999999));
#104 = CARTESIAN_POINT('', (4.85, -3.98854650861184E-16, -0.484999999999999));
#105 = CARTESIAN_POINT('', (4.85, -4.85, -0.484999999999999));
#106 = CARTESIAN_POINT('', (5.07778638180085E-17, -4.85, -0.484999999999999));
#107 = CARTESIAN_POINT('', (-4.85, -4.85, -0.484999999999999));
#108 = CARTESIAN_POINT('', (-4.85, 3.26674533672556E-16, -0.484999999999999));
#109 = ADVANCED_FACE('', (#110), #129, .T.);
#110 = FACE_OUTER_BOUND('', #111, .T.);
#111 = EDGE_LOOP('', (#112, #120, #127, #128));
#112 = ORIENTED_EDGE('', *, *, #113, .T.);
#113 = EDGE_CURVE('', #75, #114, #116, .T.);
#114 = VERTEX_POINT('', #115);
#115 = CARTESIAN_POINT('', (-4.365, 2.6727916391391E-16, 0.));
#116 = LINE('', #117, #118);
#117 = CARTESIAN_POINT('', (-4.85, 3.26674533672556E-16, -0.484999999999999));
#118 = VECTOR('', #119, 0.68589357775095);
#119 = DIRECTION('', (0.484999999999999, -5.9395369758646E-17, 0.484999999999999));
#120 = ORIENTED_EDGE('', *, *, #121, .T.);
#121 = EDGE_CURVE('', #114, #114, #122, .T.);
#122 = CIRCLE('', #123, 4.365);
#123 = AXIS2_PLACEMENT_3D('', #124, #125, #126);
#124 = CARTESIAN_POINT('', (1.23512311489549E-15, -9.99200722162641E-16, -6.16297582203915E-32));
#125 = DIRECTION('', (3.64714059862913E-33, 6.12323399573677E-17, -1.));
#126 = DIRECTION('', (-1., 2.90144303797606E-16, 1.41190740481997E-32));
#127 = ORIENTED_EDGE('', *, *, #113, .F.);
#128 = ORIENTED_EDGE('', *, *, #82, .F.);
#129 = (
   BOUNDED_SURFACE ()
   B_SPLINE_SURFACE (1, 2, ((#130, #131, #132, #133, #134, #135, #136, #137, #138), (#139, #140, #141, #142, #143, #144, #145, #146, #147)), .UNSPECIFIED., .F., .T., .U.)
   B_SPLINE_SURFACE_WITH_KNOTS ((2, 2), (3, 2, 2, 2, 3), (0., 1.), (0., 0.25, 0.5, 0.75, 1.), .UNSPECIFIED.)
   GEOMETRIC_REPRESENTATION_ITEM ()
   RATIONAL_B_SPLINE_SURFACE (((1., 0.707106781186548, 1., 0.707106781186548, 1., 0.707106781186548, 1., 0.707106781186548, 1.), (1., 0.707106781186548, 1., 0.707106781186548, 1., 0.707106781186548, 1., 0.707106781186548, 1.)))
   REPRESENTATION_ITEM ('')
   SURFACE ()
);
#130 = CARTESIAN_POINT('', (-4.85, 1.29617757095587E-15, -0.484999999999999));
#131 = CARTESIAN_POINT('', (-4.85, 4.85, -0.48499999999999));
#132 = CARTESIAN_POINT('', (2.34534613952064E-15, 4.85, -0.48499999999999));
#133 = CARTESIAN_POINT('', (4.85, 4.85, -0.48499999999999));
#134 = CARTESIAN_POINT('', (4.85, -9.24268478294438E-16, -0.484999999999999));
#135 = CARTESIAN_POINT('', (4.85, -4.85, -0.485000000000008));
#136 = CARTESIAN_POINT('', (7.18853787856797E-16, -4.85, -0.485000000000008));
#137 = CARTESIAN_POINT('', (-4.85, -4.85, -0.485000000000008));
#138 = CARTESIAN_POINT('', (-4.85, 1.29617757095587E-15, -0.484999999999999));
#139 = CARTESIAN_POINT('', (-4.365, 2.6727916391391E-16, -1.09476442525376E-47));
#140 = CARTESIAN_POINT('', (-4.365, 4.365, 7.99360577730114E-15));
#141 = CARTESIAN_POINT('', (2.23432383705813E-15, 4.365, 7.99360577730114E-15));
#142 = CARTESIAN_POINT('', (4.365, 4.365, 7.99360577730115E-15));
#143 = CARTESIAN_POINT('', (4.365, -1.73112228041137E-15, 8.5567485644098E-31));
#144 = CARTESIAN_POINT('', (4.365, -4.365, -7.99360577730114E-15));
#145 = CARTESIAN_POINT('', (7.70480720560666E-16, -4.365, -7.99360577730114E-15));
#146 = CARTESIAN_POINT('', (-4.365, -4.365, -7.99360577730115E-15));
#147 = CARTESIAN_POINT('', (-4.365, 2.6727916391391E-16, -1.09476442525376E-47));
#148 = ADVANCED_FACE('', (#149), #152, .T.);
#149 = FACE_OUTER_BOUND('', #150, .T.);
#150 = EDGE_LOOP('', (#151));
#151 = ORIENTED_EDGE('', *, *, #121, .F.);
#152 = B_SPLINE_SURFACE_WITH_KNOTS('', 1, 1, ((#153, #154), (#155, #156)), .UNSPECIFIED., .F., .F., .U., (2, 2), (2, 2), (0.0454545454545454, 0.954545454545454), (0.0454545454545454, 0.954545454545454), .UNSPECIFIED.);
#153 = CARTESIAN_POINT('', (4.365, -4.365, -2.6727916391391E-16));
#154 = CARTESIAN_POINT('', (-4.365, -4.365, -2.6727916391391E-16));
#155 = CARTESIAN_POINT('', (4.365, 4.365, 2.6727916391391E-16));
#156 = CARTESIAN_POINT('', (-4.365, 4.365, 2.6727916391391E-16));
#157 = ADVANCED_FACE('', (#158), #177, .T.);
#158 = FACE_OUTER_BOUND('', #159, .T.);
#159 = EDGE_LOOP('', (#160, #169, #175, #176));
#160 = ORIENTED_EDGE('', *, *, #161, .F.);
#161 = EDGE_CURVE('', #162, #162, #164, .T.);
#162 = VERTEX_POINT('', #163);
#163 = CARTESIAN_POINT('', (-5., 5.51091059616309E-15, -85.));
#164 = CIRCLE('', #165, 5.);
#165 = AXIS2_PLACEMENT_3D('', #166, #167, #168);
#166 = CARTESIAN_POINT('', (1.38777878078145E-17, 1.66533453693773E-15, -85.));
#167 = DIRECTION('', (-7.43998669346852E-30, -9.67343588955983E-15, -1.));
#168 = DIRECTION('', (-1., 7.69115211845071E-16, 0.));
#169 = ORIENTED_EDGE('', *, *, #170, .F.);
#170 = EDGE_CURVE('', #8, #162, #171, .T.);
#171 = LINE('', #172, #173);
#172 = CARTESIAN_POINT('', (-5., 5.44967825620572E-15, -84.));
#173 = VECTOR('', #174, 1.);
#174 = DIRECTION('', (0., 6.12323399573707E-17, -1.));
#175 = ORIENTED_EDGE('', *, *, #7, .T.);
#176 = ORIENTED_EDGE('', *, *, #170, .T.);
#177 = (
   BOUNDED_SURFACE ()
   B_SPLINE_SURFACE (2, 1, ((#178, #179), (#180, #181), (#182, #183), (#184, #185), (#186, #187), (#188, #189), (#190, #191), (#192, #193), (#194, #195)), .UNSPECIFIED., .T., .F., .U.)
   B_SPLINE_SURFACE_WITH_KNOTS ((3, 2, 2, 2, 3), (2, 2), (0., 7.85398163397448, 15.707963267949, 23.5619449019234, 31.4159265358979), (0., 0.0909090909090909), .UNSPECIFIED.)
   GEOMETRIC_REPRESENTATION_ITEM ()
   RATIONAL_B_SPLINE_SURFACE (((1., 1.), (0.707106781186548, 0.707106781186548), (1., 1.), (0.707106781186548, 0.707106781186548), (1., 1.), (0.707106781186548, 0.707106781186548), (1., 1.), (0.707106781186548, 0.707106781186548), (1., 1.)))
   REPRESENTATION_ITEM ('')
   SURFACE ()
);
#178 = CARTESIAN_POINT('', (-5., 5.44967825620572E-15, -84.));
#179 = CARTESIAN_POINT('', (-5., 5.56070055866823E-15, -85.));
#180 = CARTESIAN_POINT('', (-4.99999999999999, 5.00000000000001, -84.));
#181 = CARTESIAN_POINT('', (-4.99999999999999, 5.00000000000001, -85.));
#182 = CARTESIAN_POINT('', (6.42027303473781E-15, 5., -84.));
#183 = CARTESIAN_POINT('', (6.42027303473781E-15, 5., -85.));
#184 = CARTESIAN_POINT('', (5.00000000000001, 4.99999999999999, -84.));
#185 = CARTESIAN_POINT('', (5.00000000000001, 4.99999999999999, -85.));
#186 = CARTESIAN_POINT('', (5., -4.39326564678198E-15, -84.));
#187 = CARTESIAN_POINT('', (5., -4.28224334431946E-15, -85.));
#188 = CARTESIAN_POINT('', (5., -5., -84.));
#189 = CARTESIAN_POINT('', (5., -5., -85.));
#190 = CARTESIAN_POINT('', (-2.81034746867621E-15, -5., -84.));
#191 = CARTESIAN_POINT('', (-2.81034746867621E-15, -5., -85.));
#192 = CARTESIAN_POINT('', (-5., -5., -84.));
#193 = CARTESIAN_POINT('', (-5., -5., -85.));
#194 = CARTESIAN_POINT('', (-5., 5.44967825620572E-15, -84.));
#195 = CARTESIAN_POINT('', (-5., 5.56070055866823E-15, -85.));
#196 = ADVANCED_FACE('', (#197), #200, .T.);
#197 = FACE_OUTER_BOUND('', #198, .T.);
#198 = EDGE_LOOP('', (#199));
#199 = ORIENTED_EDGE('', *, *, #161, .T.);
#200 = B_SPLINE_SURFACE_WITH_KNOTS('', 1, 1, ((#201, #202), (#203, #204)), .UNSPECIFIED., .F., .F., .U., (2, 2), (2, 2), (0.492573900363076, 0.542081275667517), (0.457918724332483, 0.507426099636924), .UNSPECIFIED.);
#201 = CARTESIAN_POINT('', (-5.00000000000001, 5.00000000000001, -85.));
#202 = CARTESIAN_POINT('', (-5.00000000000001, -4.99999999999999, -85.));
#203 = CARTESIAN_POINT('', (4.99999999999996, 5.00000000000001, -85.));
#204 = CARTESIAN_POINT('', (4.99999999999996, -4.99999999999999, -85.));
#205 = DRAUGHTING_MODEL('', (#213, #321, #361, #366, #371, #376, #381), #395);
#206 = PRESENTATION_STYLE_ASSIGNMENT((#207));
#207 = SURFACE_STYLE_USAGE(.POSITIVE., #208);
#208 = SURFACE_SIDE_STYLE('', (#209));
#209 = SURFACE_STYLE_FILL_AREA(#210);
#210 = FILL_AREA_STYLE('', (#211));
#211 = FILL_AREA_STYLE_COLOUR('', #212);
#212 = COLOUR_RGB('', 0.50196078431373, 0.50196078431373, 0.50196078431373);
#213 = STYLED_ITEM('', (#206), #1);
#214 = MANIFOLD_SOLID_BREP('CUT', #215);
#215 = CLOSED_SHELL('', (#216, #233, #272));
#216 = ADVANCED_FACE('', (#217), #228, .T.);
#217 = FACE_OUTER_BOUND('', #218, .T.);
#218 = EDGE_LOOP('', (#219));
#219 = ORIENTED_EDGE('', *, *, #220, .F.);
#220 = EDGE_CURVE('', #221, #221, #223, .T.);
#221 = VERTEX_POINT('', #222);
#222 = CARTESIAN_POINT('', (-5., 5.51091059616309E-15, -85.));
#223 = CIRCLE('', #224, 5.);
#224 = AXIS2_PLACEMENT_3D('', #225, #226, #227);
#225 = CARTESIAN_POINT('', (1.38777878078145E-17, 1.66533453693773E-15, -85.));
#226 = DIRECTION('', (-7.43998669346852E-30, -9.67343588955983E-15, -1.));
#227 = DIRECTION('', (-1., 7.69115211845071E-16, 0.));
#228 = B_SPLINE_SURFACE_WITH_KNOTS('', 1, 1, ((#229, #230), (#231, #232)), .UNSPECIFIED., .F., .F., .U., (2, 2), (2, 2), (0.457918724332483, 0.507426099636924), (0.492573900363076, 0.542081275667517), .UNSPECIFIED.);
#229 = CARTESIAN_POINT('', (-5., 5.00000000000001, -85.));
#230 = CARTESIAN_POINT('', (5., 5.00000000000001, -85.));
#231 = CARTESIAN_POINT('', (-5., -5.00000000000001, -85.));
#232 = CARTESIAN_POINT('', (5., -5.00000000000001, -85.));
#233 = ADVANCED_FACE('', (#234), #253, .T.);
#234 = FACE_OUTER_BOUND('', #235, .T.);
#235 = EDGE_LOOP('', (#236, #237, #245, #252));
#236 = ORIENTED_EDGE('', *, *, #220, .T.);
#237 = ORIENTED_EDGE('', *, *, #238, .T.);
#238 = EDGE_CURVE('', #221, #239, #241, .T.);
#239 = VERTEX_POINT('', #240);
#240 = CARTESIAN_POINT('', (-5., 6.12323399573677E-15, -95.));
#241 = LINE('', #242, #243);
#242 = CARTESIAN_POINT('', (-5., 5.51091059616309E-15, -85.));
#243 = VECTOR('', #244, 10.);
#244 = DIRECTION('', (0., 6.1232339957368E-16, -10.));
#245 = ORIENTED_EDGE('', *, *, #246, .F.);
#246 = EDGE_CURVE('', #239, #239, #247, .T.);
#247 = CIRCLE('', #248, 5.);
#248 = AXIS2_PLACEMENT_3D('', #249, #250, #251);
#249 = CARTESIAN_POINT('', (7.7715611723761E-16, 5.6621374255883E-15, -95.));
#250 = DIRECTION('', (0., 0., -1.));
#251 = DIRECTION('', (-1., 9.22193140296943E-17, 0.));
#252 = ORIENTED_EDGE('', *, *, #238, .F.);
#253 = (
   BOUNDED_SURFACE ()
   B_SPLINE_SURFACE (2, 1, ((#254, #255), (#256, #257), (#258, #259), (#260, #261), (#262, #263), (#264, #265), (#266, #267), (#268, #269), (#270, #271)), .UNSPECIFIED., .T., .F., .U.)
   B_SPLINE_SURFACE_WITH_KNOTS ((3, 2, 2, 2, 3), (2, 2), (0., 7.85398163397448, 15.707963267949, 23.5619449019234, 31.4159265358979), (0.0909090909090909, 1.), .UNSPECIFIED.)
   GEOMETRIC_REPRESENTATION_ITEM ()
   RATIONAL_B_SPLINE_SURFACE (((1., 1.), (0.707106781186548, 0.707106781186548), (1., 1.), (0.707106781186548, 0.707106781186548), (1., 1.), (0.707106781186548, 0.707106781186548), (1., 1.), (0.707106781186548, 0.707106781186548), (1., 1.)))
   REPRESENTATION_ITEM ('')
   SURFACE ()
);
#254 = CARTESIAN_POINT('', (-5., 5.51091059616309E-15, -85.));
#255 = CARTESIAN_POINT('', (-5., 1.08399811143638E-14, -95.));
#256 = CARTESIAN_POINT('', (-4.99999999999999, 5.00000000000001, -85.));
#257 = CARTESIAN_POINT('', (-4.99999999999999, 5.00000000000001, -95.));
#258 = CARTESIAN_POINT('', (6.37048307223266E-15, 5., -85.));
#259 = CARTESIAN_POINT('', (6.37048307223267E-15, 5.00000000000001, -95.));
#260 = CARTESIAN_POINT('', (5.00000000000001, 5., -85.));
#261 = CARTESIAN_POINT('', (5.00000000000001, 5., -95.));
#262 = CARTESIAN_POINT('', (5., -4.23245338181432E-15, -85.));
#263 = CARTESIAN_POINT('', (5., 1.09661713638643E-15, -95.));
#264 = CARTESIAN_POINT('', (5., -5., -85.));
#265 = CARTESIAN_POINT('', (5., -5., -95.));
#266 = CARTESIAN_POINT('', (-2.76055750617107E-15, -5., -85.));
#267 = CARTESIAN_POINT('', (-2.76055750617106E-15, -4.99999999999999, -95.));
#268 = CARTESIAN_POINT('', (-5., -5., -85.));
#269 = CARTESIAN_POINT('', (-5., -4.99999999999999, -95.));
#270 = CARTESIAN_POINT('', (-5., 5.51091059616309E-15, -85.));
#271 = CARTESIAN_POINT('', (-5., 1.08399811143638E-14, -95.));
#272 = ADVANCED_FACE('', (#273), #286, .T.);
#273 = FACE_OUTER_BOUND('', #274, .T.);
#274 = EDGE_LOOP('', (#275, #284, #285));
#275 = ORIENTED_EDGE('', *, *, #276, .F.);
#276 = EDGE_CURVE('', #239, #277, #279, .T.);
#277 = VERTEX_POINT('', #278);
#278 = CARTESIAN_POINT('', (1.80666351906064E-15, 6.12323399573677E-15, -100.));
#279 = CIRCLE('', #280, 4.99999999999995);
#280 = AXIS2_PLACEMENT_3D('', #281, #282, #283);
#281 = CARTESIAN_POINT('', (-4.9737991503207E-14, 5.81707229594995E-15, -95.));
#282 = DIRECTION('', (-6.12323399573655E-17, -1., -6.12323399573658E-17));
#283 = DIRECTION('', (-1., 6.12323399573652E-17, 5.68434188608086E-15));
#284 = ORIENTED_EDGE('', *, *, #246, .T.);
#285 = ORIENTED_EDGE('', *, *, #276, .T.);
#286 = (
   BOUNDED_SURFACE ()
   B_SPLINE_SURFACE (2, 2, ((#287, #288, #289), (#290, #291, #292), (#293, #294, #295), (#296, #297, #298), (#299, #300, #301), (#302, #303, #304), (#305, #306, #307), (#308, #309, #310), (#311, #312, #313)), .UNSPECIFIED., .T., .F., .U.)
   B_SPLINE_SURFACE_WITH_KNOTS ((3, 2, 2, 2, 3), (3, 3), (0., 0.25, 0.5, 0.75, 1.), (0., 1.), .UNSPECIFIED.)
   GEOMETRIC_REPRESENTATION_ITEM ()
   RATIONAL_B_SPLINE_SURFACE (((1., 0.707106781186548, 1.), (0.707106781186548, 0.5, 0.707106781186548), (1., 0.707106781186548, 1.), (0.707106781186548, 0.5, 0.707106781186548), (1., 0.707106781186548, 1.), (0.707106781186548, 0.5, 0.707106781186548), (1., 0.707106781186548, 1.), (0.707106781186548, 0.5, 0.707106781186548), (1., 0.707106781186548, 1.)))
   REPRESENTATION_ITEM ('')
   SURFACE ()
);
#287 = CARTESIAN_POINT('', (-5., 6.12323399573677E-15, -95.));
#288 = CARTESIAN_POINT('', (-5., 6.4293956955236E-15, -100.));
#289 = CARTESIAN_POINT('', (1.80666351906064E-15, 6.12323399573677E-15, -100.));
#290 = CARTESIAN_POINT('', (-5., 4.99999999999996, -95.));
#291 = CARTESIAN_POINT('', (-5., 4.99999999999996, -100.));
#292 = CARTESIAN_POINT('', (1.80666351906064E-15, 6.12323399573677E-15, -100.));
#293 = CARTESIAN_POINT('', (-4.9737991503207E-14, 4.99999999999996, -95.));
#294 = CARTESIAN_POINT('', (-4.94318298034202E-14, 4.99999999999996, -100.));
#295 = CARTESIAN_POINT('', (1.80666351906064E-15, 6.12323399573677E-15, -100.));
#296 = CARTESIAN_POINT('', (4.9999999999999, 4.99999999999996, -95.));
#297 = CARTESIAN_POINT('', (4.9999999999999, 4.99999999999996, -100.));
#298 = CARTESIAN_POINT('', (1.80666351906064E-15, 6.12323399573677E-15, -100.));
#299 = CARTESIAN_POINT('', (4.9999999999999, 6.12323399573679E-15, -95.));
#300 = CARTESIAN_POINT('', (4.9999999999999, 5.81707229594997E-15, -100.));
#301 = CARTESIAN_POINT('', (1.80666351906064E-15, 6.12323399573677E-15, -100.));
#302 = CARTESIAN_POINT('', (4.9999999999999, -4.99999999999994, -95.));
#303 = CARTESIAN_POINT('', (4.9999999999999, -4.99999999999994, -100.));
#304 = CARTESIAN_POINT('', (1.80666351906064E-15, 6.12323399573677E-15, -100.));
#305 = CARTESIAN_POINT('', (-4.91256681036333E-14, -4.99999999999994, -95.));
#306 = CARTESIAN_POINT('', (-4.94318298034202E-14, -4.99999999999994, -100.));
#307 = CARTESIAN_POINT('', (1.80666351906064E-15, 6.12323399573677E-15, -100.));
#308 = CARTESIAN_POINT('', (-5., -4.99999999999994, -95.));
#309 = CARTESIAN_POINT('', (-5., -4.99999999999994, -100.));
#310 = CARTESIAN_POINT('', (1.80666351906064E-15, 6.12323399573677E-15, -100.));
#311 = CARTESIAN_POINT('', (-5., 6.12323399573677E-15, -95.));
#312 = CARTESIAN_POINT('', (-5., 6.4293956955236E-15, -100.));
#313 = CARTESIAN_POINT('', (1.80666351906064E-15, 6.12323399573677E-15, -100.));
#314 = PRESENTATION_STYLE_ASSIGNMENT((#315));
#315 = SURFACE_STYLE_USAGE(.POSITIVE., #316);
#316 = SURFACE_SIDE_STYLE('', (#317));
#317 = SURFACE_STYLE_FILL_AREA(#318);
#318 = FILL_AREA_STYLE('', (#319));
#319 = FILL_AREA_STYLE_COLOUR('', #320);
#320 = COLOUR_RGB('', 0.8, 0.8, 0.8);
#321 = STYLED_ITEM('', (#314), #214);
#322 = TRIMMED_CURVE('cutting part line', #323, (#328), (#329), .T., .CARTESIAN.);
#323 = CIRCLE('', #324, 4.99999999999993);
#324 = AXIS2_PLACEMENT_3D('', #325, #326, #327);
#325 = CARTESIAN_POINT('', (-3.48610029732299E-14, 0., -95.0000000000001));
#326 = DIRECTION('', (0., -1., 0.));
#327 = DIRECTION('', (-2.67008637422354E-15, 0., -1.));
#328 = CARTESIAN_POINT('', (-4.82114348443474E-14, 0., -100.));
#329 = CARTESIAN_POINT('', (4.99999999999989, 0., -95.));
#330 = TRIMMED_CURVE('cutting part line', #331, (#335), (#336), .T., .CARTESIAN.);
#331 = LINE('', #332, #333);
#332 = CARTESIAN_POINT('', (5., 5.32825887494889E-15, -95.));
#333 = VECTOR('', #334, 10.);
#334 = DIRECTION('', (0., -5.32825887494889E-15, 10.));
#335 = CARTESIAN_POINT('', (5., 5.32825887494889E-15, -95.));
#336 = CARTESIAN_POINT('', (5., 0., -85.));
#337 = TRIMMED_CURVE('cutting part line', #338, (#342), (#343), .T., .CARTESIAN.);
#338 = LINE('', #339, #340);
#339 = CARTESIAN_POINT('', (5., 0., -85.));
#340 = VECTOR('', #341, 5.);
#341 = DIRECTION('', (-5., 0., 0.));
#342 = CARTESIAN_POINT('', (5., 0., -85.));
#343 = CARTESIAN_POINT('', (0., 0., -85.));
#344 = TRIMMED_CURVE('cutting part line', #345, (#349), (#350), .T., .CARTESIAN.);
#345 = LINE('', #346, #347);
#346 = CARTESIAN_POINT('', (0., 0., -85.));
#347 = VECTOR('', #348, 15.);
#348 = DIRECTION('', (0., 0., -15.));
#349 = CARTESIAN_POINT('', (0., 0., -85.));
#350 = CARTESIAN_POINT('', (0., 0., -100.));
#351 = COMPOSITE_CURVE('cutting part line', (#352, #353, #354, #355), .U.);
#352 = COMPOSITE_CURVE_SEGMENT(.CONTINUOUS., .T., #322);
#353 = COMPOSITE_CURVE_SEGMENT(.CONTINUOUS., .T., #330);
#354 = COMPOSITE_CURVE_SEGMENT(.CONTINUOUS., .T., #337);
#355 = COMPOSITE_CURVE_SEGMENT(.CONTINUOUS., .T., #344);
#356 = GEOMETRIC_SET('', (#351, #394));
#357 = PRESENTATION_STYLE_ASSIGNMENT((#358));
#358 = CURVE_STYLE('', #360, POSITIVE_LENGTH_MEASURE(1.E-6), #359);
#359 = COLOUR_RGB('', 0., 0., 1.);
#360 = DRAUGHTING_PRE_DEFINED_CURVE_FONT('continuous');
#361 = STYLED_ITEM('', (#357), #351);
#362 = PRESENTATION_STYLE_ASSIGNMENT((#363));
#363 = CURVE_STYLE('', #365, POSITIVE_LENGTH_MEASURE(1.E-6), #364);
#364 = COLOUR_RGB('', 0., 0., 1.);
#365 = DRAUGHTING_PRE_DEFINED_CURVE_FONT('continuous');
#366 = OVER_RIDING_STYLED_ITEM('', (#362), #322, #361);
#367 = PRESENTATION_STYLE_ASSIGNMENT((#368));
#368 = CURVE_STYLE('', #370, POSITIVE_LENGTH_MEASURE(1.E-6), #369);
#369 = COLOUR_RGB('', 0., 0., 1.);
#370 = DRAUGHTING_PRE_DEFINED_CURVE_FONT('continuous');
#371 = OVER_RIDING_STYLED_ITEM('', (#367), #330, #361);
#372 = PRESENTATION_STYLE_ASSIGNMENT((#373));
#373 = CURVE_STYLE('', #375, POSITIVE_LENGTH_MEASURE(1.E-6), #374);
#374 = COLOUR_RGB('', 0., 0., 1.);
#375 = DRAUGHTING_PRE_DEFINED_CURVE_FONT('continuous');
#376 = OVER_RIDING_STYLED_ITEM('', (#372), #337, #361);
#377 = PRESENTATION_STYLE_ASSIGNMENT((#378));
#378 = CURVE_STYLE('', #380, POSITIVE_LENGTH_MEASURE(1.E-6), #379);
#379 = COLOUR_RGB('', 0., 0., 1.);
#380 = DRAUGHTING_PRE_DEFINED_CURVE_FONT('continuous');
#381 = OVER_RIDING_STYLED_ITEM('', (#377), #344, #361);
#382 = AXIS2_PLACEMENT_3D('MCS', #383, #384, #385);
#383 = CARTESIAN_POINT('', (0., 0., -40.));
#384 = DIRECTION('', (0., 0., 1.));
#385 = DIRECTION('', (1., 0., 0.));
#386 = AXIS2_PLACEMENT_3D('PCS', #387, #388, #389);
#387 = CARTESIAN_POINT('', (0., 0., 0.));
#388 = DIRECTION('', (0., 0., 1.));
#389 = DIRECTION('', (1., 0., 0.));
#390 = AXIS2_PLACEMENT_3D('CIP', #391, #392, #393);
#391 = CARTESIAN_POINT('', (0., 0., -100.));
#392 = DIRECTION('', (0., 0., 1.));
#393 = DIRECTION('', (1., 0., 0.));
#394 = CARTESIAN_POINT('CRP', (5., 0., -100.));
#395 = (
   GEOMETRIC_REPRESENTATION_CONTEXT (3)
   GLOBAL_UNCERTAINTY_ASSIGNED_CONTEXT ((#397))
   GLOBAL_UNIT_ASSIGNED_CONTEXT ((#396, #398, #399))
   REPRESENTATION_CONTEXT ('', '3D')
);
#396 = (
   LENGTH_UNIT ()
   NAMED_UNIT (*)
   SI_UNIT (.MILLI., .METRE.)
);
#397 = UNCERTAINTY_MEASURE_WITH_UNIT(LENGTH_MEASURE(1.E-6), #396, 'DISTANCE_ACCURACY_VALUE', '');
#398 = (
   NAMED_UNIT (*)
   SI_UNIT ($, .STERADIAN.)
   SOLID_ANGLE_UNIT ()
);
#399 = (
   NAMED_UNIT (*)
   PLANE_ANGLE_UNIT ()
   SI_UNIT ($, .RADIAN.)
);
#400 = SHAPE_REPRESENTATION('', (), #395);
#401 = PRODUCT_DEFINITION_SHAPE('', '', #402);
#402 = PRODUCT_DEFINITION('', '', #405, #409);
#403 = APPLICATION_CONTEXT('configuration controlled 3D designs of mechanical parts and assemblies');
#404 = APPLICATION_PROTOCOL_DEFINITION('International Standard', 'automotive_design', 2002, #403);
#405 = PRODUCT_DEFINITION_FORMATION_WITH_SPECIFIED_SOURCE('', '', #406, .NOT_KNOWN.);
#406 = PRODUCT('product-name', '2B320-1000-NG       H10F', '', (#407));
#407 = PRODUCT_CONTEXT('', #403, 'mechanical');
#408 = PRODUCT_RELATED_PRODUCT_CATEGORY('detail', '', (#406));
#409 = PRODUCT_DEFINITION_CONTEXT('part definition', #403, 'design');
#410 = SHAPE_DEFINITION_REPRESENTATION(#401, #400);
#411 = CONSTRUCTIVE_GEOMETRY_REPRESENTATION('supplemental geometry', (#382, #386, #390), #395);
#412 = CONSTRUCTIVE_GEOMETRY_REPRESENTATION_RELATIONSHIP('', '', #400, #411);
#413 = SHAPE_REPRESENTATION_RELATIONSHIP('', '', #400, #414);
#414 = SHAPE_REPRESENTATION('', (#356), #395);
#415 = SHAPE_REPRESENTATION_RELATIONSHIP('', '', #400, #416);
#416 = ADVANCED_BREP_SHAPE_REPRESENTATION('', (#1, #214), #395);
ENDSEC;
END-ISO-10303-21;
