ISO-10303-21;
HEADER;
FILE_DESCRIPTION(('STEP'), '1');
FILE_NAME('C:\\Users\\ds2002\\OneDrive - Sandvik\\HomeShare\\Documents\\Batchrepair\\CorSRT2\\NEW_MILBN_SLD\\Output2\\MOD000000000000000020082298900000.stp', '2018-11-23T12:39:02', (''), (''), 'Express v3.0.0.0', 'Express Tool', 'Unknown');
FILE_SCHEMA(('AUTOMOTIVE_DESIGN'));
ENDSEC;

DATA;
#1 = MANIFOLD_SOLID_BREP('NOCUT', #2);
#2 = CLOSED_SHELL('', (#3, #31, #70, #109, #148, #157, #196));
#3 = ADVANCED_FACE('', (#4, #15), #26, .T.);
#4 = FACE_OUTER_BOUND('', #5, .T.);
#5 = EDGE_LOOP('', (#6));
#6 = ORIENTED_EDGE('', *, *, #7, .F.);
#7 = EDGE_CURVE('', #8, #8, #10, .T.);
#8 = VERTEX_POINT('', #9);
#9 = CARTESIAN_POINT('', (-4., 5.51091059616309E-15, -86.));
#10 = CIRCLE('', #11, 4.);
#11 = AXIS2_PLACEMENT_3D('', #12, #13, #14);
#12 = CARTESIAN_POINT('', (-5.55111512312578E-17, 4.88498130835069E-15, -86.));
#13 = DIRECTION('', (0., 0., -1.));
#14 = DIRECTION('', (-1., 1.564823219531E-16, 0.));
#15 = FACE_BOUND('', #16, .T.);
#16 = EDGE_LOOP('', (#17));
#17 = ORIENTED_EDGE('', *, *, #18, .T.);
#18 = EDGE_CURVE('', #19, #19, #21, .T.);
#19 = VERTEX_POINT('', #20);
#20 = CARTESIAN_POINT('', (-3.9, 5.50478736216735E-15, -86.));
#21 = CIRCLE('', #22, 3.9);
#22 = AXIS2_PLACEMENT_3D('', #23, #24, #25);
#23 = CARTESIAN_POINT('', (-6.93889390390723E-17, 6.66133814775094E-15, -86.));
#24 = DIRECTION('', (0., 0., -1.));
#25 = DIRECTION('', (-1., -2.96551483482972E-16, 0.));
#26 = B_SPLINE_SURFACE_WITH_KNOTS('', 1, 1, ((#27, #28), (#29, #30)), .UNSPECIFIED., .F., .F., .U., (2, 2), (2, 2), (0.0454545454545454, 0.954545454545454), (0.0454545454545455, 0.954545454545454), .UNSPECIFIED.);
#27 = CARTESIAN_POINT('', (4., -4., -86.));
#28 = CARTESIAN_POINT('', (-4., -4., -86.));
#29 = CARTESIAN_POINT('', (4., 4., -86.));
#30 = CARTESIAN_POINT('', (-4., 4., -86.));
#31 = ADVANCED_FACE('', (#32), #51, .T.);
#32 = FACE_OUTER_BOUND('', #33, .T.);
#33 = EDGE_LOOP('', (#34, #42, #49, #50));
#34 = ORIENTED_EDGE('', *, *, #35, .F.);
#35 = EDGE_CURVE('', #36, #19, #38, .T.);
#36 = VERTEX_POINT('', #37);
#37 = CARTESIAN_POINT('', (-3.9, 2.44317036429897E-15, -36.));
#38 = LINE('', #39, #40);
#39 = CARTESIAN_POINT('', (-3.9, 2.44317036429897E-15, -36.));
#40 = VECTOR('', #41, 50.);
#41 = DIRECTION('', (0., 3.06161699786838E-15, -50.));
#42 = ORIENTED_EDGE('', *, *, #43, .T.);
#43 = EDGE_CURVE('', #36, #36, #44, .T.);
#44 = CIRCLE('', #45, 3.9);
#45 = AXIS2_PLACEMENT_3D('', #46, #47, #48);
#46 = CARTESIAN_POINT('', (5.27355936696949E-16, 4.44089209850063E-16, -36.));
#47 = DIRECTION('', (0., 0., -1.));
#48 = DIRECTION('', (-1., 5.12584911397156E-16, 0.));
#49 = ORIENTED_EDGE('', *, *, #35, .T.);
#50 = ORIENTED_EDGE('', *, *, #18, .F.);
#51 = (
   BOUNDED_SURFACE ()
   B_SPLINE_SURFACE (2, 1, ((#52, #53), (#54, #55), (#56, #57), (#58, #59), (#60, #61), (#62, #63), (#64, #65), (#66, #67), (#68, #69)), .UNSPECIFIED., .T., .F., .U.)
   B_SPLINE_SURFACE_WITH_KNOTS ((3, 2, 2, 2, 3), (2, 2), (0., 6.1261056745001, 12.2522113490002, 18.3783170235003, 24.5044226980004), (0., 1.), .UNSPECIFIED.)
   GEOMETRIC_REPRESENTATION_ITEM ()
   RATIONAL_B_SPLINE_SURFACE (((1., 1.), (0.707106781186548, 0.707106781186548), (1., 1.), (0.707106781186548, 0.707106781186548), (1., 1.), (0.707106781186548, 0.707106781186548), (1., 1.), (0.707106781186548, 0.707106781186548), (1., 1.)))
   REPRESENTATION_ITEM ('')
   SURFACE ()
);
#52 = CARTESIAN_POINT('', (-3.9, 2.44317036429897E-15, -36.));
#53 = CARTESIAN_POINT('', (-3.9, 7.43917397511218E-15, -86.));
#54 = CARTESIAN_POINT('', (-3.9, 3.9, -36.));
#55 = CARTESIAN_POINT('', (-3.9, 3.90000000000001, -86.));
#56 = CARTESIAN_POINT('', (8.1658545768379E-16, 3.9, -36.));
#57 = CARTESIAN_POINT('', (8.16585457683792E-16, 3.90000000000001, -86.));
#58 = CARTESIAN_POINT('', (3.9, 3.9, -36.));
#59 = CARTESIAN_POINT('', (3.9, 3.90000000000001, -86.));
#60 = CARTESIAN_POINT('', (3.9, 1.36511096124397E-15, -36.));
#61 = CARTESIAN_POINT('', (3.9, 6.36111457205717E-15, -86.));
#62 = CARTESIAN_POINT('', (3.9, -3.9, -36.));
#63 = CARTESIAN_POINT('', (3.9, -3.89999999999999, -86.));
#64 = CARTESIAN_POINT('', (2.16138306296256E-16, -3.9, -36.));
#65 = CARTESIAN_POINT('', (2.16138306296256E-16, -3.89999999999999, -86.));
#66 = CARTESIAN_POINT('', (-3.9, -3.9, -36.));
#67 = CARTESIAN_POINT('', (-3.9, -3.89999999999999, -86.));
#68 = CARTESIAN_POINT('', (-3.9, 2.44317036429897E-15, -36.));
#69 = CARTESIAN_POINT('', (-3.9, 7.43917397511218E-15, -86.));
#70 = ADVANCED_FACE('', (#71), #90, .T.);
#71 = FACE_OUTER_BOUND('', #72, .T.);
#72 = EDGE_LOOP('', (#73, #81, #88, #89));
#73 = ORIENTED_EDGE('', *, *, #74, .T.);
#74 = EDGE_CURVE('', #36, #75, #77, .T.);
#75 = VERTEX_POINT('', #76);
#76 = CARTESIAN_POINT('', (-3.9, 2.62686738417107E-16, -0.390000000000001));
#77 = LINE('', #78, #79);
#78 = CARTESIAN_POINT('', (-3.9, 2.44317036429897E-15, -36.));
#79 = VECTOR('', #80, 35.61);
#80 = DIRECTION('', (0., -2.18048362588186E-15, 35.61));
#81 = ORIENTED_EDGE('', *, *, #82, .T.);
#82 = EDGE_CURVE('', #75, #75, #83, .T.);
#83 = CIRCLE('', #84, 3.9);
#84 = AXIS2_PLACEMENT_3D('', #85, #86, #87);
#85 = CARTESIAN_POINT('', (3.60822483003176E-16, -2.22044604925031E-16, -0.390000000000001));
#86 = DIRECTION('', (4.2700885562506E-17, -4.20301167472328E-17, -1.));
#87 = DIRECTION('', (-1., 1.24290088036446E-16, -4.2700885562506E-17));
#88 = ORIENTED_EDGE('', *, *, #74, .F.);
#89 = ORIENTED_EDGE('', *, *, #43, .F.);
#90 = (
   BOUNDED_SURFACE ()
   B_SPLINE_SURFACE (1, 2, ((#91, #92, #93, #94, #95, #96, #97, #98, #99), (#100, #101, #102, #103, #104, #105, #106, #107, #108)), .UNSPECIFIED., .F., .T., .U.)
   B_SPLINE_SURFACE_WITH_KNOTS ((2, 2), (3, 2, 2, 2, 3), (0., 1.), (0., 6.1261056745001, 12.2522113490002, 18.3783170235003, 24.5044226980004), .UNSPECIFIED.)
   GEOMETRIC_REPRESENTATION_ITEM ()
   RATIONAL_B_SPLINE_SURFACE (((1., 0.707106781186548, 1., 0.707106781186548, 1., 0.707106781186548, 1., 0.707106781186548, 1.), (1., 0.707106781186548, 1., 0.707106781186548, 1., 0.707106781186548, 1., 0.707106781186548, 1.)))
   REPRESENTATION_ITEM ('')
   SURFACE ()
);
#91 = CARTESIAN_POINT('', (-3.9, 2.15006588027987E-15, -36.));
#92 = CARTESIAN_POINT('', (-3.9, 3.9, -36.));
#93 = CARTESIAN_POINT('', (2.12732623539242E-15, 3.9, -36.));
#94 = CARTESIAN_POINT('', (3.9, 3.9, -36.));
#95 = CARTESIAN_POINT('', (3.9, 1.65821544526306E-15, -36.));
#96 = CARTESIAN_POINT('', (3.9, -3.9, -36.));
#97 = CARTESIAN_POINT('', (2.11308805204308E-15, -3.9, -36.));
#98 = CARTESIAN_POINT('', (-3.9, -3.9, -36.));
#99 = CARTESIAN_POINT('', (-3.9, 2.15006588027987E-15, -36.));
#100 = CARTESIAN_POINT('', (-3.9, 2.62686738417107E-16, -0.390000000000001));
#101 = CARTESIAN_POINT('', (-3.9, 3.9, -0.390000000000001));
#102 = CARTESIAN_POINT('', (6.0674770051158E-16, 3.9, -0.390000000000001));
#103 = CARTESIAN_POINT('', (3.9, 3.9, -0.39));
#104 = CARTESIAN_POINT('', (3.9, -2.29163696599702E-16, -0.390000000000001));
#105 = CARTESIAN_POINT('', (3.9, -3.9, -0.390000000000001));
#106 = CARTESIAN_POINT('', (5.92509517162239E-16, -3.9, -0.390000000000001));
#107 = CARTESIAN_POINT('', (-3.9, -3.9, -0.390000000000001));
#108 = CARTESIAN_POINT('', (-3.9, 2.62686738417107E-16, -0.390000000000001));
#109 = ADVANCED_FACE('', (#110), #129, .T.);
#110 = FACE_OUTER_BOUND('', #111, .T.);
#111 = EDGE_LOOP('', (#112, #120, #127, #128));
#112 = ORIENTED_EDGE('', *, *, #113, .T.);
#113 = EDGE_CURVE('', #75, #114, #116, .T.);
#114 = VERTEX_POINT('', #115);
#115 = CARTESIAN_POINT('', (-3.51, 2.1492551325036E-16, 0.));
#116 = LINE('', #117, #118);
#117 = CARTESIAN_POINT('', (-3.9, 2.62686738417107E-16, -0.390000000000001));
#118 = VECTOR('', #119, 0.551543289325508);
#119 = DIRECTION('', (0.39, -4.7761225166747E-17, 0.390000000000001));
#120 = ORIENTED_EDGE('', *, *, #121, .T.);
#121 = EDGE_CURVE('', #114, #114, #122, .T.);
#122 = CIRCLE('', #123, 3.51);
#123 = AXIS2_PLACEMENT_3D('', #124, #125, #126);
#124 = CARTESIAN_POINT('', (1.08246744900953E-15, -2.22044604925031E-16, -2.46519032881566E-32));
#125 = DIRECTION('', (5.99657988367525E-34, 6.12323399573675E-17, -1.));
#126 = DIRECTION('', (-1., 1.2449291116108E-16, 7.02333427013009E-33));
#127 = ORIENTED_EDGE('', *, *, #113, .F.);
#128 = ORIENTED_EDGE('', *, *, #82, .F.);
#129 = (
   BOUNDED_SURFACE ()
   B_SPLINE_SURFACE (1, 2, ((#130, #131, #132, #133, #134, #135, #136, #137, #138), (#139, #140, #141, #142, #143, #144, #145, #146, #147)), .UNSPECIFIED., .F., .T., .U.)
   B_SPLINE_SURFACE_WITH_KNOTS ((2, 2), (3, 2, 2, 2, 3), (0., 1.), (0., 0.25, 0.5, 0.75, 1.), .UNSPECIFIED.)
   GEOMETRIC_REPRESENTATION_ITEM ()
   RATIONAL_B_SPLINE_SURFACE (((1., 0.707106781186548, 1., 0.707106781186548, 1., 0.707106781186548, 1., 0.707106781186548, 1.), (1., 0.707106781186548, 1., 0.707106781186548, 1., 0.707106781186548, 1., 0.707106781186548, 1.)))
   REPRESENTATION_ITEM ('')
   SURFACE ()
);
#130 = CARTESIAN_POINT('', (-3.9, 3.74500051065697E-16, -0.390000000000001));
#131 = CARTESIAN_POINT('', (-3.9, 3.9, -0.39));
#132 = CARTESIAN_POINT('', (1.32918367670401E-15, 3.9, -0.39));
#133 = CARTESIAN_POINT('', (3.9, 3.9, -0.39));
#134 = CARTESIAN_POINT('', (3.9, -1.1893240432326E-16, -0.390000000000001));
#135 = CARTESIAN_POINT('', (3.9, -3.9, -0.390000000000002));
#136 = CARTESIAN_POINT('', (1.31336347298252E-15, -3.9, -0.390000000000002));
#137 = CARTESIAN_POINT('', (-3.9, -3.9, -0.390000000000002));
#138 = CARTESIAN_POINT('', (-3.9, 3.74500051065697E-16, -0.390000000000001));
#139 = CARTESIAN_POINT('', (-3.51, 2.1492551325036E-16, -1.09476442525376E-47));
#140 = CARTESIAN_POINT('', (-3.51, 3.51, 9.99200722162638E-16));
#141 = CARTESIAN_POINT('', (1.30451205393456E-15, 3.51, 9.99200722162638E-16));
#142 = CARTESIAN_POINT('', (3.51, 3.51, 9.99200722162638E-16));
#143 = CARTESIAN_POINT('', (3.51, -2.29163696599702E-16, 7.30629900339066E-32));
#144 = CARTESIAN_POINT('', (3.51, -3.51, -9.99200722162638E-16));
#145 = CARTESIAN_POINT('', (1.29027387058522E-15, -3.51, -9.99200722162638E-16));
#146 = CARTESIAN_POINT('', (-3.51, -3.51, -9.99200722162638E-16));
#147 = CARTESIAN_POINT('', (-3.51, 2.1492551325036E-16, -1.09476442525376E-47));
#148 = ADVANCED_FACE('', (#149), #152, .T.);
#149 = FACE_OUTER_BOUND('', #150, .T.);
#150 = EDGE_LOOP('', (#151));
#151 = ORIENTED_EDGE('', *, *, #121, .F.);
#152 = B_SPLINE_SURFACE_WITH_KNOTS('', 1, 1, ((#153, #154), (#155, #156)), .UNSPECIFIED., .F., .F., .U., (2, 2), (2, 2), (0.0454545454545454, 0.954545454545455), (0.0454545454545454, 0.954545454545455), .UNSPECIFIED.);
#153 = CARTESIAN_POINT('', (3.51, -3.51, -2.14925513250361E-16));
#154 = CARTESIAN_POINT('', (-3.51, -3.51, -2.1492551325036E-16));
#155 = CARTESIAN_POINT('', (3.51, 3.51, 2.1492551325036E-16));
#156 = CARTESIAN_POINT('', (-3.51, 3.51, 2.14925513250361E-16));
#157 = ADVANCED_FACE('', (#158), #177, .T.);
#158 = FACE_OUTER_BOUND('', #159, .T.);
#159 = EDGE_LOOP('', (#160, #169, #175, #176));
#160 = ORIENTED_EDGE('', *, *, #161, .F.);
#161 = EDGE_CURVE('', #162, #162, #164, .T.);
#162 = VERTEX_POINT('', #163);
#163 = CARTESIAN_POINT('', (-4., 5.57214293612046E-15, -87.));
#164 = CIRCLE('', #165, 4.);
#165 = AXIS2_PLACEMENT_3D('', #166, #167, #168);
#166 = CARTESIAN_POINT('', (1.58206781009085E-15, 4.66293670342566E-15, -87.));
#167 = DIRECTION('', (0., 0., -1.));
#168 = DIRECTION('', (-1., 2.27301558173701E-16, 0.));
#169 = ORIENTED_EDGE('', *, *, #170, .F.);
#170 = EDGE_CURVE('', #8, #162, #171, .T.);
#171 = LINE('', #172, #173);
#172 = CARTESIAN_POINT('', (-4., 5.51091059616309E-15, -86.));
#173 = VECTOR('', #174, 1.);
#174 = DIRECTION('', (0., 6.12323399573699E-17, -1.));
#175 = ORIENTED_EDGE('', *, *, #7, .T.);
#176 = ORIENTED_EDGE('', *, *, #170, .T.);
#177 = (
   BOUNDED_SURFACE ()
   B_SPLINE_SURFACE (2, 1, ((#178, #179), (#180, #181), (#182, #183), (#184, #185), (#186, #187), (#188, #189), (#190, #191), (#192, #193), (#194, #195)), .UNSPECIFIED., .T., .F., .U.)
   B_SPLINE_SURFACE_WITH_KNOTS ((3, 2, 2, 2, 3), (2, 2), (0., 6.28318530717957, 12.5663706143591, 18.8495559215387, 25.1327412287183), (0., 0.1), .UNSPECIFIED.)
   GEOMETRIC_REPRESENTATION_ITEM ()
   RATIONAL_B_SPLINE_SURFACE (((1., 1.), (0.707106781186548, 0.707106781186548), (1., 1.), (0.707106781186548, 0.707106781186548), (1., 1.), (0.707106781186548, 0.707106781186548), (1., 1.), (0.707106781186548, 0.707106781186548), (1., 1.)))
   REPRESENTATION_ITEM ('')
   SURFACE ()
);
#178 = CARTESIAN_POINT('', (-4., 5.51091059616309E-15, -86.));
#179 = CARTESIAN_POINT('', (-4., 6.06602210847567E-15, -87.));
#180 = CARTESIAN_POINT('', (-4., 4., -86.));
#181 = CARTESIAN_POINT('', (-4., 4., -87.));
#182 = CARTESIAN_POINT('', (1.67163419410967E-15, 4., -86.));
#183 = CARTESIAN_POINT('', (1.67163419410967E-15, 4., -87.));
#184 = CARTESIAN_POINT('', (4., 4., -86.));
#185 = CARTESIAN_POINT('', (4., 4., -87.));
#186 = CARTESIAN_POINT('', (4., 1.41824166632176E-15, -86.));
#187 = CARTESIAN_POINT('', (4., 1.97335317863434E-15, -87.));
#188 = CARTESIAN_POINT('', (4., -4., -86.));
#189 = CARTESIAN_POINT('', (4., -4., -87.));
#190 = CARTESIAN_POINT('', (-1.93117601607271E-15, -3.99999999999999, -86.));
#191 = CARTESIAN_POINT('', (-1.93117601607271E-15, -3.99999999999999, -87.));
#192 = CARTESIAN_POINT('', (-4., -3.99999999999999, -86.));
#193 = CARTESIAN_POINT('', (-4., -3.99999999999999, -87.));
#194 = CARTESIAN_POINT('', (-4., 5.51091059616309E-15, -86.));
#195 = CARTESIAN_POINT('', (-4., 6.06602210847567E-15, -87.));
#196 = ADVANCED_FACE('', (#197), #200, .T.);
#197 = FACE_OUTER_BOUND('', #198, .T.);
#198 = EDGE_LOOP('', (#199));
#199 = ORIENTED_EDGE('', *, *, #161, .T.);
#200 = B_SPLINE_SURFACE_WITH_KNOTS('', 1, 1, ((#201, #202), (#203, #204)), .UNSPECIFIED., .F., .F., .U., (2, 2), (2, 2), (0.494832971178478, 0.53457940142585), (0.465420598574149, 0.505167028821522), .UNSPECIFIED.);
#201 = CARTESIAN_POINT('', (-4.00000000000001, 4.00000000000001, -87.));
#202 = CARTESIAN_POINT('', (-4.00000000000001, -3.99999999999999, -87.));
#203 = CARTESIAN_POINT('', (3.99999999999999, 4.00000000000001, -87.));
#204 = CARTESIAN_POINT('', (3.99999999999999, -3.99999999999999, -87.));
#205 = DRAUGHTING_MODEL('', (#213, #321, #361, #366, #371, #376, #381), #395);
#206 = PRESENTATION_STYLE_ASSIGNMENT((#207));
#207 = SURFACE_STYLE_USAGE(.POSITIVE., #208);
#208 = SURFACE_SIDE_STYLE('', (#209));
#209 = SURFACE_STYLE_FILL_AREA(#210);
#210 = FILL_AREA_STYLE('', (#211));
#211 = FILL_AREA_STYLE_COLOUR('', #212);
#212 = COLOUR_RGB('', 0.50196078431373, 0.50196078431373, 0.50196078431373);
#213 = STYLED_ITEM('', (#206), #1);
#214 = MANIFOLD_SOLID_BREP('CUT', #215);
#215 = CLOSED_SHELL('', (#216, #233, #272));
#216 = ADVANCED_FACE('', (#217), #228, .T.);
#217 = FACE_OUTER_BOUND('', #218, .T.);
#218 = EDGE_LOOP('', (#219));
#219 = ORIENTED_EDGE('', *, *, #220, .F.);
#220 = EDGE_CURVE('', #221, #221, #223, .T.);
#221 = VERTEX_POINT('', #222);
#222 = CARTESIAN_POINT('', (-4., 5.57214293612046E-15, -87.));
#223 = CIRCLE('', #224, 4.);
#224 = AXIS2_PLACEMENT_3D('', #225, #226, #227);
#225 = CARTESIAN_POINT('', (1.58206781009085E-15, 4.66293670342566E-15, -87.));
#226 = DIRECTION('', (0., 0., -1.));
#227 = DIRECTION('', (-1., 2.27301558173701E-16, 0.));
#228 = B_SPLINE_SURFACE_WITH_KNOTS('', 1, 1, ((#229, #230), (#231, #232)), .UNSPECIFIED., .F., .F., .U., (2, 2), (2, 2), (0.465420598574149, 0.505167028821522), (0.494832971178478, 0.534579401425851), .UNSPECIFIED.);
#229 = CARTESIAN_POINT('', (-4., 4.00000000000001, -87.));
#230 = CARTESIAN_POINT('', (4., 4.00000000000001, -87.));
#231 = CARTESIAN_POINT('', (-4., -4., -87.));
#232 = CARTESIAN_POINT('', (4., -4., -87.));
#233 = ADVANCED_FACE('', (#234), #253, .T.);
#234 = FACE_OUTER_BOUND('', #235, .T.);
#235 = EDGE_LOOP('', (#236, #237, #245, #252));
#236 = ORIENTED_EDGE('', *, *, #220, .T.);
#237 = ORIENTED_EDGE('', *, *, #238, .T.);
#238 = EDGE_CURVE('', #221, #239, #241, .T.);
#239 = VERTEX_POINT('', #240);
#240 = CARTESIAN_POINT('', (-4., 6.12323399573677E-15, -96.));
#241 = LINE('', #242, #243);
#242 = CARTESIAN_POINT('', (-4., 5.57214293612046E-15, -87.));
#243 = VECTOR('', #244, 9.);
#244 = DIRECTION('', (0., 5.5109105961631E-16, -9.));
#245 = ORIENTED_EDGE('', *, *, #246, .F.);
#246 = EDGE_CURVE('', #239, #239, #247, .T.);
#247 = CIRCLE('', #248, 4.);
#248 = AXIS2_PLACEMENT_3D('', #249, #250, #251);
#249 = CARTESIAN_POINT('', (-4.16333634234434E-16, 3.5527136788005E-15, -96.));
#250 = DIRECTION('', (0., 0., -1.));
#251 = DIRECTION('', (-1., 6.42630079234067E-16, 0.));
#252 = ORIENTED_EDGE('', *, *, #238, .F.);
#253 = (
   BOUNDED_SURFACE ()
   B_SPLINE_SURFACE (2, 1, ((#254, #255), (#256, #257), (#258, #259), (#260, #261), (#262, #263), (#264, #265), (#266, #267), (#268, #269), (#270, #271)), .UNSPECIFIED., .T., .F., .U.)
   B_SPLINE_SURFACE_WITH_KNOTS ((3, 2, 2, 2, 3), (2, 2), (0., 6.28318530717957, 12.5663706143591, 18.8495559215387, 25.1327412287183), (0.1, 1.), .UNSPECIFIED.)
   GEOMETRIC_REPRESENTATION_ITEM ()
   RATIONAL_B_SPLINE_SURFACE (((1., 1.), (0.707106781186548, 0.707106781186548), (1., 1.), (0.707106781186548, 0.707106781186548), (1., 1.), (0.707106781186548, 0.707106781186548), (1., 1.), (0.707106781186548, 0.707106781186548), (1., 1.)))
   REPRESENTATION_ITEM ('')
   SURFACE ()
);
#254 = CARTESIAN_POINT('', (-4., 5.57214293612046E-15, -87.));
#255 = CARTESIAN_POINT('', (-4., 6.01623214597052E-15, -96.));
#256 = CARTESIAN_POINT('', (-4., 4., -87.));
#257 = CARTESIAN_POINT('', (-4., 4.00000000000001, -96.));
#258 = CARTESIAN_POINT('', (1.81613326091393E-15, 4., -87.));
#259 = CARTESIAN_POINT('', (1.81613326091393E-15, 4., -96.));
#260 = CARTESIAN_POINT('', (4., 4., -87.));
#261 = CARTESIAN_POINT('', (4., 4., -96.));
#262 = CARTESIAN_POINT('', (4., 1.13496472143936E-15, -87.));
#263 = CARTESIAN_POINT('', (4., 1.57905393128942E-15, -96.));
#264 = CARTESIAN_POINT('', (4., -4., -87.));
#265 = CARTESIAN_POINT('', (4., -4., -96.));
#266 = CARTESIAN_POINT('', (-2.13118623410823E-15, -4., -87.));
#267 = CARTESIAN_POINT('', (-2.13118623410823E-15, -4., -96.));
#268 = CARTESIAN_POINT('', (-4., -4., -87.));
#269 = CARTESIAN_POINT('', (-4., -3.99999999999999, -96.));
#270 = CARTESIAN_POINT('', (-4., 5.57214293612046E-15, -87.));
#271 = CARTESIAN_POINT('', (-4., 6.01623214597052E-15, -96.));
#272 = ADVANCED_FACE('', (#273), #286, .T.);
#273 = FACE_OUTER_BOUND('', #274, .T.);
#274 = EDGE_LOOP('', (#275, #284, #285));
#275 = ORIENTED_EDGE('', *, *, #276, .F.);
#276 = EDGE_CURVE('', #239, #277, #279, .T.);
#277 = VERTEX_POINT('', #278);
#278 = CARTESIAN_POINT('', (1.17887728933848E-15, 6.12323399573677E-15, -100.));
#279 = CIRCLE('', #280, 3.99999999999993);
#280 = AXIS2_PLACEMENT_3D('', #281, #282, #283);
#281 = CARTESIAN_POINT('', (-6.21724893790088E-14, 5.87830463590731E-15, -96.));
#282 = DIRECTION('', (-6.12323399573662E-17, -1., -6.12323399573664E-17));
#283 = DIRECTION('', (-1., 6.12323399573656E-17, 1.06581410364017E-14));
#284 = ORIENTED_EDGE('', *, *, #246, .T.);
#285 = ORIENTED_EDGE('', *, *, #276, .T.);
#286 = (
   BOUNDED_SURFACE ()
   B_SPLINE_SURFACE (2, 2, ((#287, #288, #289), (#290, #291, #292), (#293, #294, #295), (#296, #297, #298), (#299, #300, #301), (#302, #303, #304), (#305, #306, #307), (#308, #309, #310), (#311, #312, #313)), .UNSPECIFIED., .T., .F., .U.)
   B_SPLINE_SURFACE_WITH_KNOTS ((3, 2, 2, 2, 3), (3, 3), (0., 0.25, 0.5, 0.75, 1.), (0., 1.), .UNSPECIFIED.)
   GEOMETRIC_REPRESENTATION_ITEM ()
   RATIONAL_B_SPLINE_SURFACE (((1., 0.707106781186548, 1.), (0.707106781186548, 0.5, 0.707106781186548), (1., 0.707106781186548, 1.), (0.707106781186548, 0.5, 0.707106781186548), (1., 0.707106781186548, 1.), (0.707106781186548, 0.5, 0.707106781186548), (1., 0.707106781186548, 1.), (0.707106781186548, 0.5, 0.707106781186548), (1., 0.707106781186548, 1.)))
   REPRESENTATION_ITEM ('')
   SURFACE ()
);
#287 = CARTESIAN_POINT('', (-4., 6.12323399573677E-15, -96.));
#288 = CARTESIAN_POINT('', (-4., 6.36816335556624E-15, -100.));
#289 = CARTESIAN_POINT('', (1.17887728933848E-15, 6.12323399573677E-15, -100.));
#290 = CARTESIAN_POINT('', (-4., 3.99999999999994, -96.));
#291 = CARTESIAN_POINT('', (-4., 3.99999999999994, -100.));
#292 = CARTESIAN_POINT('', (1.17887728933848E-15, 6.12323399573677E-15, -100.));
#293 = CARTESIAN_POINT('', (-6.21724893790088E-14, 3.99999999999994, -96.));
#294 = CARTESIAN_POINT('', (-6.19275600191793E-14, 3.99999999999994, -100.));
#295 = CARTESIAN_POINT('', (1.17887728933848E-15, 6.12323399573677E-15, -100.));
#296 = CARTESIAN_POINT('', (3.99999999999988, 3.99999999999994, -96.));
#297 = CARTESIAN_POINT('', (3.99999999999988, 3.99999999999994, -100.));
#298 = CARTESIAN_POINT('', (1.17887728933848E-15, 6.12323399573677E-15, -100.));
#299 = CARTESIAN_POINT('', (3.99999999999988, 6.12323399573679E-15, -96.));
#300 = CARTESIAN_POINT('', (3.99999999999988, 5.87830463590732E-15, -100.));
#301 = CARTESIAN_POINT('', (1.17887728933848E-15, 6.12323399573677E-15, -100.));
#302 = CARTESIAN_POINT('', (3.99999999999988, -3.99999999999993, -96.));
#303 = CARTESIAN_POINT('', (3.99999999999988, -3.99999999999993, -100.));
#304 = CARTESIAN_POINT('', (1.17887728933848E-15, 6.12323399573677E-15, -100.));
#305 = CARTESIAN_POINT('', (-6.16826306593498E-14, -3.99999999999993, -96.));
#306 = CARTESIAN_POINT('', (-6.19275600191793E-14, -3.99999999999993, -100.));
#307 = CARTESIAN_POINT('', (1.17887728933848E-15, 6.12323399573677E-15, -100.));
#308 = CARTESIAN_POINT('', (-4., -3.99999999999993, -96.));
#309 = CARTESIAN_POINT('', (-4., -3.99999999999993, -100.));
#310 = CARTESIAN_POINT('', (1.17887728933848E-15, 6.12323399573677E-15, -100.));
#311 = CARTESIAN_POINT('', (-4., 6.12323399573677E-15, -96.));
#312 = CARTESIAN_POINT('', (-4., 6.36816335556624E-15, -100.));
#313 = CARTESIAN_POINT('', (1.17887728933848E-15, 6.12323399573677E-15, -100.));
#314 = PRESENTATION_STYLE_ASSIGNMENT((#315));
#315 = SURFACE_STYLE_USAGE(.POSITIVE., #316);
#316 = SURFACE_SIDE_STYLE('', (#317));
#317 = SURFACE_STYLE_FILL_AREA(#318);
#318 = FILL_AREA_STYLE('', (#319));
#319 = FILL_AREA_STYLE_COLOUR('', #320);
#320 = COLOUR_RGB('', 0.8, 0.8, 0.8);
#321 = STYLED_ITEM('', (#314), #214);
#322 = TRIMMED_CURVE('cutting part line', #323, (#328), (#329), .T., .CARTESIAN.);
#323 = CIRCLE('', #324, 4.00000000000002);
#324 = AXIS2_PLACEMENT_3D('', #325, #326, #327);
#325 = CARTESIAN_POINT('', (-1.15241149956091E-13, 0., -96.));
#326 = DIRECTION('', (0., -1., 0.));
#327 = DIRECTION('', (1.16434639707563E-14, 0., -1.));
#328 = CARTESIAN_POINT('', (-6.86672940730659E-14, 0., -100.));
#329 = CARTESIAN_POINT('', (3.9999999999999, 0., -96.));
#330 = TRIMMED_CURVE('cutting part line', #331, (#335), (#336), .T., .CARTESIAN.);
#331 = LINE('', #332, #333);
#332 = CARTESIAN_POINT('', (4., 4.44021572912408E-16, -96.));
#333 = VECTOR('', #334, 9.);
#334 = DIRECTION('', (0., -4.44021572912408E-16, 9.));
#335 = CARTESIAN_POINT('', (4., 4.44021572912408E-16, -96.));
#336 = CARTESIAN_POINT('', (4., 0., -87.));
#337 = TRIMMED_CURVE('cutting part line', #338, (#342), (#343), .T., .CARTESIAN.);
#338 = LINE('', #339, #340);
#339 = CARTESIAN_POINT('', (4., 0., -87.));
#340 = VECTOR('', #341, 4.);
#341 = DIRECTION('', (-4., 0., 0.));
#342 = CARTESIAN_POINT('', (4., 0., -87.));
#343 = CARTESIAN_POINT('', (0., 0., -87.));
#344 = TRIMMED_CURVE('cutting part line', #345, (#349), (#350), .T., .CARTESIAN.);
#345 = LINE('', #346, #347);
#346 = CARTESIAN_POINT('', (0., 0., -87.));
#347 = VECTOR('', #348, 13.);
#348 = DIRECTION('', (0., 0., -13.));
#349 = CARTESIAN_POINT('', (0., 0., -87.));
#350 = CARTESIAN_POINT('', (0., 0., -100.));
#351 = COMPOSITE_CURVE('cutting part line', (#352, #353, #354, #355), .U.);
#352 = COMPOSITE_CURVE_SEGMENT(.CONTINUOUS., .T., #322);
#353 = COMPOSITE_CURVE_SEGMENT(.CONTINUOUS., .T., #330);
#354 = COMPOSITE_CURVE_SEGMENT(.CONTINUOUS., .T., #337);
#355 = COMPOSITE_CURVE_SEGMENT(.CONTINUOUS., .T., #344);
#356 = GEOMETRIC_SET('', (#351, #394));
#357 = PRESENTATION_STYLE_ASSIGNMENT((#358));
#358 = CURVE_STYLE('', #360, POSITIVE_LENGTH_MEASURE(1.E-6), #359);
#359 = COLOUR_RGB('', 0., 0., 1.);
#360 = DRAUGHTING_PRE_DEFINED_CURVE_FONT('continuous');
#361 = STYLED_ITEM('', (#357), #351);
#362 = PRESENTATION_STYLE_ASSIGNMENT((#363));
#363 = CURVE_STYLE('', #365, POSITIVE_LENGTH_MEASURE(1.E-6), #364);
#364 = COLOUR_RGB('', 0., 0., 1.);
#365 = DRAUGHTING_PRE_DEFINED_CURVE_FONT('continuous');
#366 = OVER_RIDING_STYLED_ITEM('', (#362), #322, #361);
#367 = PRESENTATION_STYLE_ASSIGNMENT((#368));
#368 = CURVE_STYLE('', #370, POSITIVE_LENGTH_MEASURE(1.E-6), #369);
#369 = COLOUR_RGB('', 0., 0., 1.);
#370 = DRAUGHTING_PRE_DEFINED_CURVE_FONT('continuous');
#371 = OVER_RIDING_STYLED_ITEM('', (#367), #330, #361);
#372 = PRESENTATION_STYLE_ASSIGNMENT((#373));
#373 = CURVE_STYLE('', #375, POSITIVE_LENGTH_MEASURE(1.E-6), #374);
#374 = COLOUR_RGB('', 0., 0., 1.);
#375 = DRAUGHTING_PRE_DEFINED_CURVE_FONT('continuous');
#376 = OVER_RIDING_STYLED_ITEM('', (#372), #337, #361);
#377 = PRESENTATION_STYLE_ASSIGNMENT((#378));
#378 = CURVE_STYLE('', #380, POSITIVE_LENGTH_MEASURE(1.E-6), #379);
#379 = COLOUR_RGB('', 0., 0., 1.);
#380 = DRAUGHTING_PRE_DEFINED_CURVE_FONT('continuous');
#381 = OVER_RIDING_STYLED_ITEM('', (#377), #344, #361);
#382 = AXIS2_PLACEMENT_3D('MCS', #383, #384, #385);
#383 = CARTESIAN_POINT('', (0., 0., -36.));
#384 = DIRECTION('', (0., 0., 1.));
#385 = DIRECTION('', (1., 0., 0.));
#386 = AXIS2_PLACEMENT_3D('PCS', #387, #388, #389);
#387 = CARTESIAN_POINT('', (0., 0., 0.));
#388 = DIRECTION('', (0., 0., 1.));
#389 = DIRECTION('', (1., 0., 0.));
#390 = AXIS2_PLACEMENT_3D('CIP', #391, #392, #393);
#391 = CARTESIAN_POINT('', (0., 0., -100.));
#392 = DIRECTION('', (0., 0., 1.));
#393 = DIRECTION('', (1., 0., 0.));
#394 = CARTESIAN_POINT('CRP', (4., 0., -100.));
#395 = (
   GEOMETRIC_REPRESENTATION_CONTEXT (3)
   GLOBAL_UNCERTAINTY_ASSIGNED_CONTEXT ((#397))
   GLOBAL_UNIT_ASSIGNED_CONTEXT ((#396, #398, #399))
   REPRESENTATION_CONTEXT ('', '3D')
);
#396 = (
   LENGTH_UNIT ()
   NAMED_UNIT (*)
   SI_UNIT (.MILLI., .METRE.)
);
#397 = UNCERTAINTY_MEASURE_WITH_UNIT(LENGTH_MEASURE(1.E-6), #396, 'DISTANCE_ACCURACY_VALUE', '');
#398 = (
   NAMED_UNIT (*)
   SI_UNIT ($, .STERADIAN.)
   SOLID_ANGLE_UNIT ()
);
#399 = (
   NAMED_UNIT (*)
   PLANE_ANGLE_UNIT ()
   SI_UNIT ($, .RADIAN.)
);
#400 = SHAPE_REPRESENTATION('', (), #395);
#401 = PRODUCT_DEFINITION_SHAPE('', '', #402);
#402 = PRODUCT_DEFINITION('', '', #405, #409);
#403 = APPLICATION_CONTEXT('configuration controlled 3D designs of mechanical parts and assemblies');
#404 = APPLICATION_PROTOCOL_DEFINITION('International Standard', 'automotive_design', 2002, #403);
#405 = PRODUCT_DEFINITION_FORMATION_WITH_SPECIFIED_SOURCE('', '', #406, .NOT_KNOWN.);
#406 = PRODUCT('product-name', '2B320-0800-NG       H10F', '', (#407));
#407 = PRODUCT_CONTEXT('', #403, 'mechanical');
#408 = PRODUCT_RELATED_PRODUCT_CATEGORY('detail', '', (#406));
#409 = PRODUCT_DEFINITION_CONTEXT('part definition', #403, 'design');
#410 = SHAPE_DEFINITION_REPRESENTATION(#401, #400);
#411 = CONSTRUCTIVE_GEOMETRY_REPRESENTATION('supplemental geometry', (#382, #386, #390), #395);
#412 = CONSTRUCTIVE_GEOMETRY_REPRESENTATION_RELATIONSHIP('', '', #400, #411);
#413 = SHAPE_REPRESENTATION_RELATIONSHIP('', '', #400, #414);
#414 = SHAPE_REPRESENTATION('', (#356), #395);
#415 = SHAPE_REPRESENTATION_RELATIONSHIP('', '', #400, #416);
#416 = ADVANCED_BREP_SHAPE_REPRESENTATION('', (#1, #214), #395);
ENDSEC;
END-ISO-10303-21;
