ISO-10303-21;
HEADER;
FILE_DESCRIPTION(('STEP'), '1');
FILE_NAME('C:\\Users\\ds2002\\OneDrive - Sandvik\\HomeShare\\Documents\\Batchrepair\\CorSRT2\\NEW_MILBN_SLD\\Output2\\MOD000000000000000020082298600000.stp', '2018-11-23T12:38:57', (''), (''), 'Express v3.0.0.0', 'Express Tool', 'Unknown');
FILE_SCHEMA(('AUTOMOTIVE_DESIGN'));
ENDSEC;

DATA;
#1 = MANIFOLD_SOLID_BREP('NOCUT', #2);
#2 = CLOSED_SHELL('', (#3, #31, #70, #109, #148, #157, #196));
#3 = ADVANCED_FACE('', (#4, #15), #26, .T.);
#4 = FACE_OUTER_BOUND('', #5, .T.);
#5 = EDGE_LOOP('', (#6));
#6 = ORIENTED_EDGE('', *, *, #7, .F.);
#7 = EDGE_CURVE('', #8, #8, #10, .T.);
#8 = VERTEX_POINT('', #9);
#9 = CARTESIAN_POINT('', (-2., 3.42901103761259E-15, -54.));
#10 = CIRCLE('', #11, 2.);
#11 = AXIS2_PLACEMENT_3D('', #12, #13, #14);
#12 = CARTESIAN_POINT('', (1.31838984174237E-16, 1.83186799063151E-15, -54.));
#13 = DIRECTION('', (0., 0., -1.));
#14 = DIRECTION('', (-1., 7.98571523490541E-16, 0.));
#15 = FACE_BOUND('', #16, .T.);
#16 = EDGE_LOOP('', (#17));
#17 = ORIENTED_EDGE('', *, *, #18, .T.);
#18 = EDGE_CURVE('', #19, #19, #21, .T.);
#19 = VERTEX_POINT('', #20);
#20 = CARTESIAN_POINT('', (-1.9, 3.42288780361685E-15, -54.));
#21 = CIRCLE('', #22, 1.9);
#22 = AXIS2_PLACEMENT_3D('', #23, #24, #25);
#23 = CARTESIAN_POINT('', (3.19189119579733E-16, 1.33226762955019E-15, -54.));
#24 = DIRECTION('', (0., 0., -1.));
#25 = DIRECTION('', (-1., 1.10032640740351E-15, 0.));
#26 = B_SPLINE_SURFACE_WITH_KNOTS('', 1, 1, ((#27, #28), (#29, #30)), .UNSPECIFIED., .F., .F., .U., (2, 2), (2, 2), (0.0454545454545454, 0.954545454545454), (0.0454545454545455, 0.954545454545454), .UNSPECIFIED.);
#27 = CARTESIAN_POINT('', (2., -2., -54.));
#28 = CARTESIAN_POINT('', (-2., -2., -54.));
#29 = CARTESIAN_POINT('', (2., 2., -54.));
#30 = CARTESIAN_POINT('', (-2., 2., -54.));
#31 = ADVANCED_FACE('', (#32), #51, .T.);
#32 = FACE_OUTER_BOUND('', #33, .T.);
#33 = EDGE_LOOP('', (#34, #42, #49, #50));
#34 = ORIENTED_EDGE('', *, *, #35, .F.);
#35 = EDGE_CURVE('', #36, #19, #38, .T.);
#36 = VERTEX_POINT('', #37);
#37 = CARTESIAN_POINT('', (-1.9, 1.83084696472529E-15, -28.));
#38 = LINE('', #39, #40);
#39 = CARTESIAN_POINT('', (-1.9, 1.83084696472529E-15, -28.));
#40 = VECTOR('', #41, 26.);
#41 = DIRECTION('', (0., 1.59204083889156E-15, -26.));
#42 = ORIENTED_EDGE('', *, *, #43, .T.);
#43 = EDGE_CURVE('', #36, #36, #44, .T.);
#44 = CIRCLE('', #45, 1.9);
#45 = AXIS2_PLACEMENT_3D('', #46, #47, #48);
#46 = CARTESIAN_POINT('', (4.37150315946155E-16, 6.10622663543836E-16, -28.));
#47 = DIRECTION('', (1.86984930463184E-15, -6.08321173052787E-15, -1.));
#48 = DIRECTION('', (-1., 6.42223316411291E-16, -1.86984930463184E-15));
#49 = ORIENTED_EDGE('', *, *, #35, .T.);
#50 = ORIENTED_EDGE('', *, *, #18, .F.);
#51 = (
   BOUNDED_SURFACE ()
   B_SPLINE_SURFACE (2, 1, ((#52, #53), (#54, #55), (#56, #57), (#58, #59), (#60, #61), (#62, #63), (#64, #65), (#66, #67), (#68, #69)), .UNSPECIFIED., .T., .F., .U.)
   B_SPLINE_SURFACE_WITH_KNOTS ((3, 2, 2, 2, 3), (2, 2), (0., 2.9845130209103, 5.9690260418206, 8.9535390627309, 11.9380520836412), (0., 1.), .UNSPECIFIED.)
   GEOMETRIC_REPRESENTATION_ITEM ()
   RATIONAL_B_SPLINE_SURFACE (((1., 1.), (0.707106781186548, 0.707106781186548), (1., 1.), (0.707106781186548, 0.707106781186548), (1., 1.), (0.707106781186548, 0.707106781186548), (1., 1.), (0.707106781186548, 0.707106781186548), (1., 1.)))
   REPRESENTATION_ITEM ('')
   SURFACE ()
);
#52 = CARTESIAN_POINT('', (-1.9, 1.83084696472529E-15, -28.));
#53 = CARTESIAN_POINT('', (-1.89999999999995, 2.60800308196287E-15, -54.));
#54 = CARTESIAN_POINT('', (-1.9, 1.9, -28.));
#55 = CARTESIAN_POINT('', (-1.89999999999995, 1.9, -54.));
#56 = CARTESIAN_POINT('', (1.65899436757503E-15, 1.9, -28.));
#57 = CARTESIAN_POINT('', (5.02750762880029E-14, 1.9, -54.));
#58 = CARTESIAN_POINT('', (1.9, 1.9, -28.));
#59 = CARTESIAN_POINT('', (1.90000000000005, 1.9, -54.));
#60 = CARTESIAN_POINT('', (1.9, -4.87941048262136E-16, -28.));
#61 = CARTESIAN_POINT('', (1.90000000000005, 2.8921506897544E-16, -54.));
#62 = CARTESIAN_POINT('', (1.9, -1.9, -28.));
#63 = CARTESIAN_POINT('', (1.90000000000005, -1.9, -54.));
#64 = CARTESIAN_POINT('', (-4.27110753574395E-16, -1.9, -28.));
#65 = CARTESIAN_POINT('', (4.81889711668535E-14, -1.9, -54.));
#66 = CARTESIAN_POINT('', (-1.9, -1.9, -28.));
#67 = CARTESIAN_POINT('', (-1.89999999999995, -1.9, -54.));
#68 = CARTESIAN_POINT('', (-1.9, 1.83084696472529E-15, -28.));
#69 = CARTESIAN_POINT('', (-1.89999999999995, 2.60800308196287E-15, -54.));
#70 = ADVANCED_FACE('', (#71), #90, .T.);
#71 = FACE_OUTER_BOUND('', #72, .T.);
#72 = EDGE_LOOP('', (#73, #81, #88, #89));
#73 = ORIENTED_EDGE('', *, *, #74, .T.);
#74 = EDGE_CURVE('', #36, #75, #77, .T.);
#75 = VERTEX_POINT('', #76);
#76 = CARTESIAN_POINT('', (-1.9, 1.27975590510899E-16, -0.190000000000001));
#77 = LINE('', #78, #79);
#78 = CARTESIAN_POINT('', (-1.9, 1.83084696472529E-15, -28.));
#79 = VECTOR('', #80, 27.81);
#80 = DIRECTION('', (0., -1.70287137421439E-15, 27.81));
#81 = ORIENTED_EDGE('', *, *, #82, .T.);
#82 = EDGE_CURVE('', #75, #75, #83, .T.);
#83 = CIRCLE('', #84, 1.9);
#84 = AXIS2_PLACEMENT_3D('', #85, #86, #87);
#85 = CARTESIAN_POINT('', (4.37150315946155E-16, -2.77555756156289E-16, -0.190000000000001));
#86 = DIRECTION('', (0., 0., -1.));
#87 = DIRECTION('', (-1., 2.13437550877467E-16, 0.));
#88 = ORIENTED_EDGE('', *, *, #74, .F.);
#89 = ORIENTED_EDGE('', *, *, #43, .F.);
#90 = (
   BOUNDED_SURFACE ()
   B_SPLINE_SURFACE (1, 2, ((#91, #92, #93, #94, #95, #96, #97, #98, #99), (#100, #101, #102, #103, #104, #105, #106, #107, #108)), .UNSPECIFIED., .F., .T., .U.)
   B_SPLINE_SURFACE_WITH_KNOTS ((2, 2), (3, 2, 2, 2, 3), (0., 1.), (0., 2.9845130209103, 5.9690260418206, 8.9535390627309, 11.9380520836412), .UNSPECIFIED.)
   GEOMETRIC_REPRESENTATION_ITEM ()
   RATIONAL_B_SPLINE_SURFACE (((1., 0.707106781186548, 1., 0.707106781186548, 1., 0.707106781186548, 1., 0.707106781186548, 1.), (1., 0.707106781186548, 1., 0.707106781186548, 1., 0.707106781186548, 1., 0.707106781186548, 1.)))
   REPRESENTATION_ITEM ('')
   SURFACE ()
);
#91 = CARTESIAN_POINT('', (-1.9, 9.60642858979765E-16, -28.));
#92 = CARTESIAN_POINT('', (-1.9, 1.9, -28.));
#93 = CARTESIAN_POINT('', (7.26340216694344E-16, 1.9, -28.));
#94 = CARTESIAN_POINT('', (1.9, 1.9, -28.));
#95 = CARTESIAN_POINT('', (1.9, 3.82263057483388E-16, -28.));
#96 = CARTESIAN_POINT('', (1.9, -1.9, -28.));
#97 = CARTESIAN_POINT('', (3.80643307035964E-16, -1.9, -28.));
#98 = CARTESIAN_POINT('', (-1.9, -1.9, -28.));
#99 = CARTESIAN_POINT('', (-1.9, 9.60642858979765E-16, -28.));
#100 = CARTESIAN_POINT('', (-1.9, 1.27975590510898E-16, -0.190000000000001));
#101 = CARTESIAN_POINT('', (-1.9, 1.9, -0.190000000000001));
#102 = CARTESIAN_POINT('', (7.26340216694344E-16, 1.9, -0.190000000000001));
#103 = CARTESIAN_POINT('', (1.9, 1.9, -0.190000000000001));
#104 = CARTESIAN_POINT('', (1.9, -4.50404210985479E-16, -0.190000000000001));
#105 = CARTESIAN_POINT('', (1.9, -1.9, -0.190000000000001));
#106 = CARTESIAN_POINT('', (3.80643307035964E-16, -1.9, -0.190000000000001));
#107 = CARTESIAN_POINT('', (-1.9, -1.9, -0.190000000000001));
#108 = CARTESIAN_POINT('', (-1.9, 1.27975590510898E-16, -0.190000000000001));
#109 = ADVANCED_FACE('', (#110), #129, .T.);
#110 = FACE_OUTER_BOUND('', #111, .T.);
#111 = EDGE_LOOP('', (#112, #120, #127, #128));
#112 = ORIENTED_EDGE('', *, *, #113, .T.);
#113 = EDGE_CURVE('', #75, #114, #116, .T.);
#114 = VERTEX_POINT('', #115);
#115 = CARTESIAN_POINT('', (-1.71, 1.04707301327099E-16, 0.));
#116 = LINE('', #117, #118);
#117 = CARTESIAN_POINT('', (-1.9, 1.27975590510898E-16, -0.190000000000001));
#118 = VECTOR('', #119, 0.268700576850889);
#119 = DIRECTION('', (0.19, -2.3268289183799E-17, 0.190000000000001));
#120 = ORIENTED_EDGE('', *, *, #121, .T.);
#121 = EDGE_CURVE('', #114, #114, #122, .T.);
#122 = CIRCLE('', #123, 1.71);
#123 = AXIS2_PLACEMENT_3D('', #124, #125, #126);
#124 = CARTESIAN_POINT('', (1.17961196366423E-16, -8.88178419700125E-16, -7.7875102531819E-16));
#125 = DIRECTION('', (-4.55409956326426E-16, 1.327320624947E-15, -1.));
#126 = DIRECTION('', (-1., 5.80634924577324E-16, 4.55409956326427E-16));
#127 = ORIENTED_EDGE('', *, *, #113, .F.);
#128 = ORIENTED_EDGE('', *, *, #82, .F.);
#129 = (
   BOUNDED_SURFACE ()
   B_SPLINE_SURFACE (1, 2, ((#130, #131, #132, #133, #134, #135, #136, #137, #138), (#139, #140, #141, #142, #143, #144, #145, #146, #147)), .UNSPECIFIED., .F., .T., .U.)
   B_SPLINE_SURFACE_WITH_KNOTS ((2, 2), (3, 2, 2, 2, 3), (0., 1.), (0., 0.25, 0.5, 0.75, 1.), .UNSPECIFIED.)
   GEOMETRIC_REPRESENTATION_ITEM ()
   RATIONAL_B_SPLINE_SURFACE (((1., 0.707106781186548, 1., 0.707106781186548, 1., 0.707106781186548, 1., 0.707106781186548, 1.), (1., 0.707106781186548, 1., 0.707106781186548, 1., 0.707106781186548, 1., 0.707106781186548, 1.)))
   REPRESENTATION_ITEM ('')
   SURFACE ()
);
#130 = CARTESIAN_POINT('', (-1.9, 8.25650600540626E-16, -0.19));
#131 = CARTESIAN_POINT('', (-1.9, 1.9, -0.189999999999994));
#132 = CARTESIAN_POINT('', (1.01829821544232E-15, 1.9, -0.189999999999995));
#133 = CARTESIAN_POINT('', (1.9, 1.9, -0.189999999999996));
#134 = CARTESIAN_POINT('', (1.9, -1.14807922101521E-15, -0.190000000000002));
#135 = CARTESIAN_POINT('', (1.9, -1.9, -0.190000000000008));
#136 = CARTESIAN_POINT('', (-7.22748714275521E-16, -1.9, -0.190000000000007));
#137 = CARTESIAN_POINT('', (-1.9, -1.9, -0.190000000000006));
#138 = CARTESIAN_POINT('', (-1.9, 8.25650600540626E-16, -0.19));
#139 = CARTESIAN_POINT('', (-1.71, 1.04707301327099E-16, -9.86076131526265E-32));
#140 = CARTESIAN_POINT('', (-1.71, 1.71, 5.49560397189452E-15));
#141 = CARTESIAN_POINT('', (1.00613961606655E-15, 1.71, 4.71685294657633E-15));
#142 = CARTESIAN_POINT('', (1.71, 1.71, 3.93810192125814E-15));
#143 = CARTESIAN_POINT('', (1.71, -1.67164953807315E-15, -1.55750205063638E-15));
#144 = CARTESIAN_POINT('', (1.71, -1.71, -7.0531060225309E-15));
#145 = CARTESIAN_POINT('', (-5.60802620679508E-16, -1.71, -6.27435499721271E-15));
#146 = CARTESIAN_POINT('', (-1.71, -1.71, -5.49560397189452E-15));
#147 = CARTESIAN_POINT('', (-1.71, 1.04707301327099E-16, -9.86076131526265E-32));
#148 = ADVANCED_FACE('', (#149), #152, .T.);
#149 = FACE_OUTER_BOUND('', #150, .T.);
#150 = EDGE_LOOP('', (#151));
#151 = ORIENTED_EDGE('', *, *, #121, .F.);
#152 = B_SPLINE_SURFACE_WITH_KNOTS('', 1, 1, ((#153, #154), (#155, #156)), .UNSPECIFIED., .F., .F., .U., (2, 2), (2, 2), (0.0454545454545453, 0.954545454545455), (0.0454545454545453, 0.954545454545455), .UNSPECIFIED.);
#153 = CARTESIAN_POINT('', (1.71, -1.71, -1.04707301327099E-16));
#154 = CARTESIAN_POINT('', (-1.71, -1.71, -1.04707301327099E-16));
#155 = CARTESIAN_POINT('', (1.71, 1.71, 1.04707301327099E-16));
#156 = CARTESIAN_POINT('', (-1.71, 1.71, 1.04707301327099E-16));
#157 = ADVANCED_FACE('', (#158), #177, .T.);
#158 = FACE_OUTER_BOUND('', #159, .T.);
#159 = EDGE_LOOP('', (#160, #169, #175, #176));
#160 = ORIENTED_EDGE('', *, *, #161, .F.);
#161 = EDGE_CURVE('', #162, #162, #164, .T.);
#162 = VERTEX_POINT('', #163);
#163 = CARTESIAN_POINT('', (-2., 3.49024337756996E-15, -55.));
#164 = CIRCLE('', #165, 2.);
#165 = AXIS2_PLACEMENT_3D('', #166, #167, #168);
#166 = CARTESIAN_POINT('', (4.09394740330526E-16, 8.88178419700125E-16, -55.));
#167 = DIRECTION('', (0., 0., -1.));
#168 = DIRECTION('', (-1., 1.30103247893492E-15, 0.));
#169 = ORIENTED_EDGE('', *, *, #170, .F.);
#170 = EDGE_CURVE('', #8, #162, #171, .T.);
#171 = LINE('', #172, #173);
#172 = CARTESIAN_POINT('', (-2., 3.42901103761259E-15, -54.));
#173 = VECTOR('', #174, 1.);
#174 = DIRECTION('', (0., 6.12323399573699E-17, -1.));
#175 = ORIENTED_EDGE('', *, *, #7, .T.);
#176 = ORIENTED_EDGE('', *, *, #170, .T.);
#177 = (
   BOUNDED_SURFACE ()
   B_SPLINE_SURFACE (2, 1, ((#178, #179), (#180, #181), (#182, #183), (#184, #185), (#186, #187), (#188, #189), (#190, #191), (#192, #193), (#194, #195)), .UNSPECIFIED., .T., .F., .U.)
   B_SPLINE_SURFACE_WITH_KNOTS ((3, 2, 2, 2, 3), (2, 2), (0., 3.1415926535898, 6.2831853071796, 9.4247779607694, 12.5663706143592), (0., 0.249999999999999), .UNSPECIFIED.)
   GEOMETRIC_REPRESENTATION_ITEM ()
   RATIONAL_B_SPLINE_SURFACE (((1., 1.), (0.707106781186548, 0.707106781186548), (1., 1.), (0.707106781186548, 0.707106781186548), (1., 1.), (0.707106781186548, 0.707106781186548), (1., 1.), (0.707106781186548, 0.707106781186548), (1., 1.)))
   REPRESENTATION_ITEM ('')
   SURFACE ()
);
#178 = CARTESIAN_POINT('', (-2., 3.42901103761259E-15, -54.));
#179 = CARTESIAN_POINT('', (-2., 3.54003334007511E-15, -55.));
#180 = CARTESIAN_POINT('', (-2., 2., -54.));
#181 = CARTESIAN_POINT('', (-2., 2., -55.));
#182 = CARTESIAN_POINT('', (2.12693439403363E-15, 2., -54.));
#183 = CARTESIAN_POINT('', (2.12693439403363E-15, 2., -55.));
#184 = CARTESIAN_POINT('', (2., 2., -54.));
#185 = CARTESIAN_POINT('', (2., 2., -55.));
#186 = CARTESIAN_POINT('', (2., -1.29670253592035E-15, -54.));
#187 = CARTESIAN_POINT('', (2., -1.18568023345784E-15, -55.));
#188 = CARTESIAN_POINT('', (2., -2., -54.));
#189 = CARTESIAN_POINT('', (2., -2., -55.));
#190 = CARTESIAN_POINT('', (-2.35384981966985E-15, -2., -54.));
#191 = CARTESIAN_POINT('', (-2.35384981966985E-15, -2., -55.));
#192 = CARTESIAN_POINT('', (-2., -2., -54.));
#193 = CARTESIAN_POINT('', (-2., -2., -55.));
#194 = CARTESIAN_POINT('', (-2., 3.42901103761259E-15, -54.));
#195 = CARTESIAN_POINT('', (-2., 3.54003334007511E-15, -55.));
#196 = ADVANCED_FACE('', (#197), #200, .T.);
#197 = FACE_OUTER_BOUND('', #198, .T.);
#198 = EDGE_LOOP('', (#199));
#199 = ORIENTED_EDGE('', *, *, #161, .T.);
#200 = B_SPLINE_SURFACE_WITH_KNOTS('', 1, 1, ((#201, #202), (#203, #204)), .UNSPECIFIED., .F., .F., .U., (2, 2), (2, 2), (0.497234499775831, 0.530420663418751), (0.469579336581249, 0.502765500224169), .UNSPECIFIED.);
#201 = CARTESIAN_POINT('', (-2.00000000000001, 2.00000000000002, -55.));
#202 = CARTESIAN_POINT('', (-2.00000000000001, -1.99999999999999, -55.));
#203 = CARTESIAN_POINT('', (1.99999999999999, 2.00000000000002, -55.));
#204 = CARTESIAN_POINT('', (1.99999999999999, -1.99999999999999, -55.));
#205 = DRAUGHTING_MODEL('', (#213, #321, #361, #366, #371, #376, #381), #395);
#206 = PRESENTATION_STYLE_ASSIGNMENT((#207));
#207 = SURFACE_STYLE_USAGE(.POSITIVE., #208);
#208 = SURFACE_SIDE_STYLE('', (#209));
#209 = SURFACE_STYLE_FILL_AREA(#210);
#210 = FILL_AREA_STYLE('', (#211));
#211 = FILL_AREA_STYLE_COLOUR('', #212);
#212 = COLOUR_RGB('', 0.50196078431373, 0.50196078431373, 0.50196078431373);
#213 = STYLED_ITEM('', (#206), #1);
#214 = MANIFOLD_SOLID_BREP('CUT', #215);
#215 = CLOSED_SHELL('', (#216, #233, #272));
#216 = ADVANCED_FACE('', (#217), #228, .T.);
#217 = FACE_OUTER_BOUND('', #218, .T.);
#218 = EDGE_LOOP('', (#219));
#219 = ORIENTED_EDGE('', *, *, #220, .F.);
#220 = EDGE_CURVE('', #221, #221, #223, .T.);
#221 = VERTEX_POINT('', #222);
#222 = CARTESIAN_POINT('', (-2., 3.49024337756996E-15, -55.));
#223 = CIRCLE('', #224, 2.);
#224 = AXIS2_PLACEMENT_3D('', #225, #226, #227);
#225 = CARTESIAN_POINT('', (4.09394740330526E-16, 8.88178419700125E-16, -55.));
#226 = DIRECTION('', (0., 0., -1.));
#227 = DIRECTION('', (-1., 1.30103247893492E-15, 0.));
#228 = B_SPLINE_SURFACE_WITH_KNOTS('', 1, 1, ((#229, #230), (#231, #232)), .UNSPECIFIED., .F., .F., .U., (2, 2), (2, 2), (0.469579336581249, 0.502765500224169), (0.497234499775831, 0.530420663418751), .UNSPECIFIED.);
#229 = CARTESIAN_POINT('', (-2., 2., -55.));
#230 = CARTESIAN_POINT('', (2.00000000000001, 2., -55.));
#231 = CARTESIAN_POINT('', (-2., -2., -55.));
#232 = CARTESIAN_POINT('', (2.00000000000001, -2., -55.));
#233 = ADVANCED_FACE('', (#234), #253, .T.);
#234 = FACE_OUTER_BOUND('', #235, .T.);
#235 = EDGE_LOOP('', (#236, #237, #245, #252));
#236 = ORIENTED_EDGE('', *, *, #220, .T.);
#237 = ORIENTED_EDGE('', *, *, #238, .T.);
#238 = EDGE_CURVE('', #221, #239, #241, .T.);
#239 = VERTEX_POINT('', #240);
#240 = CARTESIAN_POINT('', (-2., 3.67394039744206E-15, -58.));
#241 = LINE('', #242, #243);
#242 = CARTESIAN_POINT('', (-2., 3.49024337756996E-15, -55.));
#243 = VECTOR('', #244, 3.);
#244 = DIRECTION('', (0., 1.836970198721E-16, -3.));
#245 = ORIENTED_EDGE('', *, *, #246, .F.);
#246 = EDGE_CURVE('', #239, #239, #247, .T.);
#247 = CIRCLE('', #248, 2.);
#248 = AXIS2_PLACEMENT_3D('', #249, #250, #251);
#249 = CARTESIAN_POINT('', (-2.42861286636753E-16, 1.22124532708767E-15, -58.));
#250 = DIRECTION('', (0., 0., -1.));
#251 = DIRECTION('', (-1., 1.22634753517719E-15, 0.));
#252 = ORIENTED_EDGE('', *, *, #238, .F.);
#253 = (
   BOUNDED_SURFACE ()
   B_SPLINE_SURFACE (2, 1, ((#254, #255), (#256, #257), (#258, #259), (#260, #261), (#262, #263), (#264, #265), (#266, #267), (#268, #269), (#270, #271)), .UNSPECIFIED., .T., .F., .U.)
   B_SPLINE_SURFACE_WITH_KNOTS ((3, 2, 2, 2, 3), (2, 2), (0., 3.1415926535898, 6.2831853071796, 9.4247779607694, 12.5663706143592), (0.249999999999999, 1.), .UNSPECIFIED.)
   GEOMETRIC_REPRESENTATION_ITEM ()
   RATIONAL_B_SPLINE_SURFACE (((1., 1.), (0.707106781186548, 0.707106781186548), (1., 1.), (0.707106781186548, 0.707106781186548), (1., 1.), (0.707106781186548, 0.707106781186548), (1., 1.), (0.707106781186548, 0.707106781186548), (1., 1.)))
   REPRESENTATION_ITEM ('')
   SURFACE ()
);
#254 = CARTESIAN_POINT('', (-2., 3.49024337756996E-15, -55.));
#255 = CARTESIAN_POINT('', (-2., 3.98984373865128E-15, -58.));
#256 = CARTESIAN_POINT('', (-2., 2., -55.));
#257 = CARTESIAN_POINT('', (-2., 2., -58.));
#258 = CARTESIAN_POINT('', (2.81960607924655E-15, 2., -55.));
#259 = CARTESIAN_POINT('', (2.81960607924655E-15, 2., -58.));
#260 = CARTESIAN_POINT('', (2., 2., -55.));
#261 = CARTESIAN_POINT('', (2., 2., -58.));
#262 = CARTESIAN_POINT('', (2., -1.80202408572779E-15, -55.));
#263 = CARTESIAN_POINT('', (2., -1.30242372464647E-15, -58.));
#264 = CARTESIAN_POINT('', (2., -2., -55.));
#265 = CARTESIAN_POINT('', (2., -2., -58.));
#266 = CARTESIAN_POINT('', (-2.22773202422172E-15, -2., -55.));
#267 = CARTESIAN_POINT('', (-2.22773202422172E-15, -2., -58.));
#268 = CARTESIAN_POINT('', (-2., -2., -55.));
#269 = CARTESIAN_POINT('', (-2., -2., -58.));
#270 = CARTESIAN_POINT('', (-2., 3.49024337756996E-15, -55.));
#271 = CARTESIAN_POINT('', (-2., 3.98984373865128E-15, -58.));
#272 = ADVANCED_FACE('', (#273), #286, .T.);
#273 = FACE_OUTER_BOUND('', #274, .T.);
#274 = EDGE_LOOP('', (#275, #284, #285));
#275 = ORIENTED_EDGE('', *, *, #276, .F.);
#276 = EDGE_CURVE('', #239, #277, #279, .T.);
#277 = VERTEX_POINT('', #278);
#278 = CARTESIAN_POINT('', (5.89438644669238E-16, 3.67394039744206E-15, -60.));
#279 = CIRCLE('', #280, 1.99999999999998);
#280 = AXIS2_PLACEMENT_3D('', #281, #282, #283);
#281 = CARTESIAN_POINT('', (-1.66533453693773E-14, 3.55147571752732E-15, -58.));
#282 = DIRECTION('', (-6.12323399573699E-17, -1., -6.12323399573699E-17));
#283 = DIRECTION('', (-1., 6.12323399573697E-17, 3.55271367880053E-15));
#284 = ORIENTED_EDGE('', *, *, #246, .T.);
#285 = ORIENTED_EDGE('', *, *, #276, .T.);
#286 = (
   BOUNDED_SURFACE ()
   B_SPLINE_SURFACE (2, 2, ((#287, #288, #289), (#290, #291, #292), (#293, #294, #295), (#296, #297, #298), (#299, #300, #301), (#302, #303, #304), (#305, #306, #307), (#308, #309, #310), (#311, #312, #313)), .UNSPECIFIED., .T., .F., .U.)
   B_SPLINE_SURFACE_WITH_KNOTS ((3, 2, 2, 2, 3), (3, 3), (0., 0.25, 0.5, 0.75, 1.), (0., 1.), .UNSPECIFIED.)
   GEOMETRIC_REPRESENTATION_ITEM ()
   RATIONAL_B_SPLINE_SURFACE (((1., 0.707106781186548, 1.), (0.707106781186548, 0.5, 0.707106781186548), (1., 0.707106781186548, 1.), (0.707106781186548, 0.5, 0.707106781186548), (1., 0.707106781186548, 1.), (0.707106781186548, 0.5, 0.707106781186548), (1., 0.707106781186548, 1.), (0.707106781186548, 0.5, 0.707106781186548), (1., 0.707106781186548, 1.)))
   REPRESENTATION_ITEM ('')
   SURFACE ()
);
#287 = CARTESIAN_POINT('', (-2., 3.67394039744206E-15, -58.));
#288 = CARTESIAN_POINT('', (-2., 3.7964050773568E-15, -60.));
#289 = CARTESIAN_POINT('', (5.89438644669238E-16, 3.67394039744206E-15, -60.));
#290 = CARTESIAN_POINT('', (-2., 1.99999999999999, -58.));
#291 = CARTESIAN_POINT('', (-2., 1.99999999999999, -60.));
#292 = CARTESIAN_POINT('', (5.89438644669238E-16, 3.67394039744206E-15, -60.));
#293 = CARTESIAN_POINT('', (-1.66533453693773E-14, 1.99999999999999, -58.));
#294 = CARTESIAN_POINT('', (-1.65308806894626E-14, 1.99999999999999, -60.));
#295 = CARTESIAN_POINT('', (5.89438644669238E-16, 3.67394039744206E-15, -60.));
#296 = CARTESIAN_POINT('', (1.99999999999997, 1.99999999999999, -58.));
#297 = CARTESIAN_POINT('', (1.99999999999997, 1.99999999999999, -60.));
#298 = CARTESIAN_POINT('', (5.89438644669238E-16, 3.67394039744206E-15, -60.));
#299 = CARTESIAN_POINT('', (1.99999999999997, 3.67394039744205E-15, -58.));
#300 = CARTESIAN_POINT('', (1.99999999999997, 3.55147571752731E-15, -60.));
#301 = CARTESIAN_POINT('', (5.89438644669238E-16, 3.67394039744206E-15, -60.));
#302 = CARTESIAN_POINT('', (1.99999999999997, -1.99999999999998, -58.));
#303 = CARTESIAN_POINT('', (1.99999999999997, -1.99999999999998, -60.));
#304 = CARTESIAN_POINT('', (5.89438644669238E-16, 3.67394039744206E-15, -60.));
#305 = CARTESIAN_POINT('', (-1.64084160095479E-14, -1.99999999999998, -58.));
#306 = CARTESIAN_POINT('', (-1.65308806894626E-14, -1.99999999999998, -60.));
#307 = CARTESIAN_POINT('', (5.89438644669238E-16, 3.67394039744206E-15, -60.));
#308 = CARTESIAN_POINT('', (-2., -1.99999999999998, -58.));
#309 = CARTESIAN_POINT('', (-2., -1.99999999999998, -60.));
#310 = CARTESIAN_POINT('', (5.89438644669238E-16, 3.67394039744206E-15, -60.));
#311 = CARTESIAN_POINT('', (-2., 3.67394039744206E-15, -58.));
#312 = CARTESIAN_POINT('', (-2., 3.7964050773568E-15, -60.));
#313 = CARTESIAN_POINT('', (5.89438644669238E-16, 3.67394039744206E-15, -60.));
#314 = PRESENTATION_STYLE_ASSIGNMENT((#315));
#315 = SURFACE_STYLE_USAGE(.POSITIVE., #316);
#316 = SURFACE_SIDE_STYLE('', (#317));
#317 = SURFACE_STYLE_FILL_AREA(#318);
#318 = FILL_AREA_STYLE('', (#319));
#319 = FILL_AREA_STYLE_COLOUR('', #320);
#320 = COLOUR_RGB('', 0.8, 0.8, 0.8);
#321 = STYLED_ITEM('', (#314), #214);
#322 = TRIMMED_CURVE('cutting part line', #323, (#328), (#329), .T., .CARTESIAN.);
#323 = CIRCLE('', #324, 1.99999999999994);
#324 = AXIS2_PLACEMENT_3D('', #325, #326, #327);
#325 = CARTESIAN_POINT('', (2.24265050974282E-14, 0., -58.));
#326 = DIRECTION('', (0., -1., 0.));
#327 = DIRECTION('', (-1.87939941387332E-14, 0., -1.));
#328 = CARTESIAN_POINT('', (-1.51614831800371E-14, 0., -60.));
#329 = CARTESIAN_POINT('', (1.99999999999996, 0., -58.));
#330 = TRIMMED_CURVE('cutting part line', #331, (#335), (#336), .T., .CARTESIAN.);
#331 = LINE('', #332, #333);
#332 = CARTESIAN_POINT('', (2., 4.99524269526458E-16, -58.));
#333 = VECTOR('', #334, 3.);
#334 = DIRECTION('', (0., -4.99524269526458E-16, 3.));
#335 = CARTESIAN_POINT('', (2., 4.99524269526458E-16, -58.));
#336 = CARTESIAN_POINT('', (2., 0., -55.));
#337 = TRIMMED_CURVE('cutting part line', #338, (#342), (#343), .T., .CARTESIAN.);
#338 = LINE('', #339, #340);
#339 = CARTESIAN_POINT('', (2., 0., -55.));
#340 = VECTOR('', #341, 2.);
#341 = DIRECTION('', (-2., 0., 0.));
#342 = CARTESIAN_POINT('', (2., 0., -55.));
#343 = CARTESIAN_POINT('', (6.93889390390723E-18, 0., -55.));
#344 = TRIMMED_CURVE('cutting part line', #345, (#349), (#350), .T., .CARTESIAN.);
#345 = LINE('', #346, #347);
#346 = CARTESIAN_POINT('', (0., 0., -55.));
#347 = VECTOR('', #348, 4.99999999999999);
#348 = DIRECTION('', (0., 0., -4.99999999999999));
#349 = CARTESIAN_POINT('', (0., 0., -55.));
#350 = CARTESIAN_POINT('', (0., 0., -60.));
#351 = COMPOSITE_CURVE('cutting part line', (#352, #353, #354, #355), .U.);
#352 = COMPOSITE_CURVE_SEGMENT(.CONTINUOUS., .T., #322);
#353 = COMPOSITE_CURVE_SEGMENT(.CONTINUOUS., .T., #330);
#354 = COMPOSITE_CURVE_SEGMENT(.CONTINUOUS., .T., #337);
#355 = COMPOSITE_CURVE_SEGMENT(.CONTINUOUS., .T., #344);
#356 = GEOMETRIC_SET('', (#351, #394));
#357 = PRESENTATION_STYLE_ASSIGNMENT((#358));
#358 = CURVE_STYLE('', #360, POSITIVE_LENGTH_MEASURE(1.E-6), #359);
#359 = COLOUR_RGB('', 0., 0., 1.);
#360 = DRAUGHTING_PRE_DEFINED_CURVE_FONT('continuous');
#361 = STYLED_ITEM('', (#357), #351);
#362 = PRESENTATION_STYLE_ASSIGNMENT((#363));
#363 = CURVE_STYLE('', #365, POSITIVE_LENGTH_MEASURE(1.E-6), #364);
#364 = COLOUR_RGB('', 0., 0., 1.);
#365 = DRAUGHTING_PRE_DEFINED_CURVE_FONT('continuous');
#366 = OVER_RIDING_STYLED_ITEM('', (#362), #322, #361);
#367 = PRESENTATION_STYLE_ASSIGNMENT((#368));
#368 = CURVE_STYLE('', #370, POSITIVE_LENGTH_MEASURE(1.E-6), #369);
#369 = COLOUR_RGB('', 0., 0., 1.);
#370 = DRAUGHTING_PRE_DEFINED_CURVE_FONT('continuous');
#371 = OVER_RIDING_STYLED_ITEM('', (#367), #330, #361);
#372 = PRESENTATION_STYLE_ASSIGNMENT((#373));
#373 = CURVE_STYLE('', #375, POSITIVE_LENGTH_MEASURE(1.E-6), #374);
#374 = COLOUR_RGB('', 0., 0., 1.);
#375 = DRAUGHTING_PRE_DEFINED_CURVE_FONT('continuous');
#376 = OVER_RIDING_STYLED_ITEM('', (#372), #337, #361);
#377 = PRESENTATION_STYLE_ASSIGNMENT((#378));
#378 = CURVE_STYLE('', #380, POSITIVE_LENGTH_MEASURE(1.E-6), #379);
#379 = COLOUR_RGB('', 0., 0., 1.);
#380 = DRAUGHTING_PRE_DEFINED_CURVE_FONT('continuous');
#381 = OVER_RIDING_STYLED_ITEM('', (#377), #344, #361);
#382 = AXIS2_PLACEMENT_3D('MCS', #383, #384, #385);
#383 = CARTESIAN_POINT('', (0., 0., -28.));
#384 = DIRECTION('', (0., 0., 1.));
#385 = DIRECTION('', (1., 0., 0.));
#386 = AXIS2_PLACEMENT_3D('PCS', #387, #388, #389);
#387 = CARTESIAN_POINT('', (0., 0., 0.));
#388 = DIRECTION('', (0., 0., 1.));
#389 = DIRECTION('', (1., 0., 0.));
#390 = AXIS2_PLACEMENT_3D('CIP', #391, #392, #393);
#391 = CARTESIAN_POINT('', (0., 0., -60.));
#392 = DIRECTION('', (0., 0., 1.));
#393 = DIRECTION('', (1., 0., 0.));
#394 = CARTESIAN_POINT('CRP', (2., 0., -60.));
#395 = (
   GEOMETRIC_REPRESENTATION_CONTEXT (3)
   GLOBAL_UNCERTAINTY_ASSIGNED_CONTEXT ((#397))
   GLOBAL_UNIT_ASSIGNED_CONTEXT ((#396, #398, #399))
   REPRESENTATION_CONTEXT ('', '3D')
);
#396 = (
   LENGTH_UNIT ()
   NAMED_UNIT (*)
   SI_UNIT (.MILLI., .METRE.)
);
#397 = UNCERTAINTY_MEASURE_WITH_UNIT(LENGTH_MEASURE(1.E-6), #396, 'DISTANCE_ACCURACY_VALUE', '');
#398 = (
   NAMED_UNIT (*)
   SI_UNIT ($, .STERADIAN.)
   SOLID_ANGLE_UNIT ()
);
#399 = (
   NAMED_UNIT (*)
   PLANE_ANGLE_UNIT ()
   SI_UNIT ($, .RADIAN.)
);
#400 = SHAPE_REPRESENTATION('', (), #395);
#401 = PRODUCT_DEFINITION_SHAPE('', '', #402);
#402 = PRODUCT_DEFINITION('', '', #405, #409);
#403 = APPLICATION_CONTEXT('configuration controlled 3D designs of mechanical parts and assemblies');
#404 = APPLICATION_PROTOCOL_DEFINITION('International Standard', 'automotive_design', 2002, #403);
#405 = PRODUCT_DEFINITION_FORMATION_WITH_SPECIFIED_SOURCE('', '', #406, .NOT_KNOWN.);
#406 = PRODUCT('product-name', '2B320-0400-NG       H10F', '', (#407));
#407 = PRODUCT_CONTEXT('', #403, 'mechanical');
#408 = PRODUCT_RELATED_PRODUCT_CATEGORY('detail', '', (#406));
#409 = PRODUCT_DEFINITION_CONTEXT('part definition', #403, 'design');
#410 = SHAPE_DEFINITION_REPRESENTATION(#401, #400);
#411 = CONSTRUCTIVE_GEOMETRY_REPRESENTATION('supplemental geometry', (#382, #386, #390), #395);
#412 = CONSTRUCTIVE_GEOMETRY_REPRESENTATION_RELATIONSHIP('', '', #400, #411);
#413 = SHAPE_REPRESENTATION_RELATIONSHIP('', '', #400, #414);
#414 = SHAPE_REPRESENTATION('', (#356), #395);
#415 = SHAPE_REPRESENTATION_RELATIONSHIP('', '', #400, #416);
#416 = ADVANCED_BREP_SHAPE_REPRESENTATION('', (#1, #214), #395);
ENDSEC;
END-ISO-10303-21;
