ISO-10303-21;
HEADER;
FILE_DESCRIPTION(('STEP'), '1');
FILE_NAME('C:\\Users\\ds2002\\OneDrive - Sandvik\\HomeShare\\Documents\\Batchrepair\\CorSRT2\\NEW_MILBN_SLD\\Output2\\MOD000000000000000020082298300000.stp', '2018-11-23T12:39:39', (''), (''), 'Express v3.0.0.0', 'Express Tool', 'Unknown');
FILE_SCHEMA(('AUTOMOTIVE_DESIGN'));
ENDSEC;

DATA;
#1 = MANIFOLD_SOLID_BREP('NOCUT', #2);
#2 = CLOSED_SHELL('', (#3, #50, #89, #98, #137));
#3 = ADVANCED_FACE('', (#4), #31, .T.);
#4 = FACE_OUTER_BOUND('', #5, .T.);
#5 = EDGE_LOOP('', (#6, #16, #23, #24));
#6 = ORIENTED_EDGE('', *, *, #7, .T.);
#7 = EDGE_CURVE('', #8, #10, #12, .T.);
#8 = VERTEX_POINT('', #9);
#9 = CARTESIAN_POINT('', (-5., 2.75545529808154E-15, -40.));
#10 = VERTEX_POINT('', #11);
#11 = CARTESIAN_POINT('', (-5., 3.36777869765522E-16, -0.5));
#12 = LINE('', #13, #14);
#13 = CARTESIAN_POINT('', (-5., 2.75545529808154E-15, -40.));
#14 = VECTOR('', #15, 39.5);
#15 = DIRECTION('', (0., -2.41867742831602E-15, 39.5));
#16 = ORIENTED_EDGE('', *, *, #17, .T.);
#17 = EDGE_CURVE('', #10, #10, #18, .T.);
#18 = CIRCLE('', #19, 5.);
#19 = AXIS2_PLACEMENT_3D('', #20, #21, #22);
#20 = CARTESIAN_POINT('', (8.88178419700125E-16, -1.99840144432528E-15, -0.5));
#21 = DIRECTION('', (0., 0., -1.));
#22 = DIRECTION('', (-1., 4.67035862818161E-16, 0.));
#23 = ORIENTED_EDGE('', *, *, #7, .F.);
#24 = ORIENTED_EDGE('', *, *, #25, .F.);
#25 = EDGE_CURVE('', #8, #8, #26, .T.);
#26 = CIRCLE('', #27, 5.);
#27 = AXIS2_PLACEMENT_3D('', #28, #29, #30);
#28 = CARTESIAN_POINT('', (8.04911692853238E-16, -4.21884749357559E-15, -40.));
#29 = DIRECTION('', (-6.7465470929473E-30, -4.83671794477989E-15, -1.));
#30 = DIRECTION('', (-1., 1.39486055833143E-15, 0.));
#31 = (
   BOUNDED_SURFACE ()
   B_SPLINE_SURFACE (1, 2, ((#32, #33, #34, #35, #36, #37, #38, #39, #40), (#41, #42, #43, #44, #45, #46, #47, #48, #49)), .UNSPECIFIED., .F., .T., .U.)
   B_SPLINE_SURFACE_WITH_KNOTS ((2, 2), (3, 2, 2, 2, 3), (0., 1.), (0., 7.85398163397447, 15.707963267949, 23.5619449019234, 31.4159265358979), .UNSPECIFIED.)
   GEOMETRIC_REPRESENTATION_ITEM ()
   RATIONAL_B_SPLINE_SURFACE (((1., 0.707106781186548, 1., 0.707106781186548, 1., 0.707106781186548, 1., 0.707106781186548, 1.), (1., 0.707106781186548, 1., 0.707106781186548, 1., 0.707106781186548, 1., 0.707106781186548, 1.)))
   REPRESENTATION_ITEM ('')
   SURFACE ()
);
#32 = CARTESIAN_POINT('', (-5., 2.55722391901583E-15, -40.));
#33 = CARTESIAN_POINT('', (-5., 5., -40.));
#34 = CARTESIAN_POINT('', (2.91719603400409E-15, 5., -40.));
#35 = CARTESIAN_POINT('', (5., 5., -40.));
#36 = CARTESIAN_POINT('', (5., -1.5008113095921E-15, -40.));
#37 = CARTESIAN_POINT('', (5., -5., -40.));
#38 = CARTESIAN_POINT('', (-5.28515795030162E-16, -5., -40.));
#39 = CARTESIAN_POINT('', (-5., -5., -40.));
#40 = CARTESIAN_POINT('', (-5., 2.55722391901583E-15, -40.));
#41 = CARTESIAN_POINT('', (-5., 3.36777869765522E-16, -0.5));
#42 = CARTESIAN_POINT('', (-5., 5., -0.5));
#43 = CARTESIAN_POINT('', (2.91719603400409E-15, 5., -0.5));
#44 = CARTESIAN_POINT('', (5., 5., -0.5));
#45 = CARTESIAN_POINT('', (5., -3.72125735884241E-15, -0.5));
#46 = CARTESIAN_POINT('', (5., -5., -0.5));
#47 = CARTESIAN_POINT('', (-5.28515795030163E-16, -5., -0.5));
#48 = CARTESIAN_POINT('', (-5., -5., -0.5));
#49 = CARTESIAN_POINT('', (-5., 3.36777869765522E-16, -0.5));
#50 = ADVANCED_FACE('', (#51), #70, .T.);
#51 = FACE_OUTER_BOUND('', #52, .T.);
#52 = EDGE_LOOP('', (#53, #61, #68, #69));
#53 = ORIENTED_EDGE('', *, *, #54, .T.);
#54 = EDGE_CURVE('', #10, #55, #57, .T.);
#55 = VERTEX_POINT('', #56);
#56 = CARTESIAN_POINT('', (-4.5, 2.75545529808154E-16, 0.));
#57 = LINE('', #58, #59);
#58 = CARTESIAN_POINT('', (-5., 3.36777869765522E-16, -0.5));
#59 = VECTOR('', #60, 0.707106781186548);
#60 = DIRECTION('', (0.5, -6.1232339957368E-17, 0.5));
#61 = ORIENTED_EDGE('', *, *, #62, .T.);
#62 = EDGE_CURVE('', #55, #55, #63, .T.);
#63 = CIRCLE('', #64, 4.5);
#64 = AXIS2_PLACEMENT_3D('', #65, #66, #67);
#65 = CARTESIAN_POINT('', (2.28983498828939E-15, 0., -1.84889274661175E-32));
#66 = DIRECTION('', (-3.59251091371472E-34, 6.12323399573676E-17, -1.));
#67 = DIRECTION('', (-1., 6.12323399573675E-17, 4.1086505480261E-33));
#68 = ORIENTED_EDGE('', *, *, #54, .F.);
#69 = ORIENTED_EDGE('', *, *, #17, .F.);
#70 = (
   BOUNDED_SURFACE ()
   B_SPLINE_SURFACE (1, 2, ((#71, #72, #73, #74, #75, #76, #77, #78, #79), (#80, #81, #82, #83, #84, #85, #86, #87, #88)), .UNSPECIFIED., .F., .T., .U.)
   B_SPLINE_SURFACE_WITH_KNOTS ((2, 2), (3, 2, 2, 2, 3), (0., 1.), (0., 0.25, 0.5, 0.75, 1.), .UNSPECIFIED.)
   GEOMETRIC_REPRESENTATION_ITEM ()
   RATIONAL_B_SPLINE_SURFACE (((1., 0.707106781186548, 1., 0.707106781186548, 1., 0.707106781186548, 1., 0.707106781186548, 1.), (1., 0.707106781186548, 1., 0.707106781186548, 1., 0.707106781186548, 1., 0.707106781186548, 1.)))
   REPRESENTATION_ITEM ('')
   SURFACE ()
);
#71 = CARTESIAN_POINT('', (-5., -2.69144046670109E-15, -0.5));
#72 = CARTESIAN_POINT('', (-5., 5., -0.50000000000003));
#73 = CARTESIAN_POINT('', (2.28983498828938E-15, 5., -0.50000000000003));
#74 = CARTESIAN_POINT('', (5., 5., -0.50000000000003));
#75 = CARTESIAN_POINT('', (5., -2.69144046670108E-15, -0.5));
#76 = CARTESIAN_POINT('', (5., -5., -0.49999999999997));
#77 = CARTESIAN_POINT('', (2.90215838786306E-15, -5., -0.49999999999997));
#78 = CARTESIAN_POINT('', (-5., -5., -0.49999999999997));
#79 = CARTESIAN_POINT('', (-5., -2.69144046670109E-15, -0.5));
#80 = CARTESIAN_POINT('', (-4.5, 2.75545529808154E-16, -5.47382212626882E-48));
#81 = CARTESIAN_POINT('', (-4.5, 4.5, -2.69784194983913E-14));
#82 = CARTESIAN_POINT('', (2.28983498828938E-15, 4.5, -2.69784194983913E-14));
#83 = CARTESIAN_POINT('', (4.5, 4.5, -2.69784194983913E-14));
#84 = CARTESIAN_POINT('', (4.5, 2.75545529808155E-16, -3.34088136340818E-30));
#85 = CARTESIAN_POINT('', (4.5, -4.5, 2.69784194983913E-14));
#86 = CARTESIAN_POINT('', (2.8409260479057E-15, -4.5, 2.69784194983913E-14));
#87 = CARTESIAN_POINT('', (-4.5, -4.5, 2.69784194983913E-14));
#88 = CARTESIAN_POINT('', (-4.5, 2.75545529808154E-16, -5.47382212626882E-48));
#89 = ADVANCED_FACE('', (#90), #93, .T.);
#90 = FACE_OUTER_BOUND('', #91, .T.);
#91 = EDGE_LOOP('', (#92));
#92 = ORIENTED_EDGE('', *, *, #62, .F.);
#93 = B_SPLINE_SURFACE_WITH_KNOTS('', 1, 1, ((#94, #95), (#96, #97)), .UNSPECIFIED., .F., .F., .U., (2, 2), (2, 2), (0.0454545454545454, 0.954545454545454), (0.0454545454545454, 0.954545454545454), .UNSPECIFIED.);
#94 = CARTESIAN_POINT('', (4.5, -4.5, -2.75545529808155E-16));
#95 = CARTESIAN_POINT('', (-4.5, -4.5, -2.75545529808154E-16));
#96 = CARTESIAN_POINT('', (4.5, 4.5, 2.75545529808154E-16));
#97 = CARTESIAN_POINT('', (-4.5, 4.5, 2.75545529808155E-16));
#98 = ADVANCED_FACE('', (#99), #118, .T.);
#99 = FACE_OUTER_BOUND('', #100, .T.);
#100 = EDGE_LOOP('', (#101, #110, #116, #117));
#101 = ORIENTED_EDGE('', *, *, #102, .F.);
#102 = EDGE_CURVE('', #103, #103, #105, .T.);
#103 = VERTEX_POINT('', #104);
#104 = CARTESIAN_POINT('', (-5., 3.55147571752732E-15, -53.));
#105 = CIRCLE('', #106, 5.);
#106 = AXIS2_PLACEMENT_3D('', #107, #108, #109);
#107 = CARTESIAN_POINT('', (-7.63278329429795E-16, -3.33066907387547E-16, -53.));
#108 = DIRECTION('', (0., 0., -1.));
#109 = DIRECTION('', (-1., 7.76908524982974E-16, 0.));
#110 = ORIENTED_EDGE('', *, *, #111, .F.);
#111 = EDGE_CURVE('', #8, #103, #112, .T.);
#112 = LINE('', #113, #114);
#113 = CARTESIAN_POINT('', (-5., 2.75545529808154E-15, -40.));
#114 = VECTOR('', #115, 13.);
#115 = DIRECTION('', (0., 7.9602041944578E-16, -13.));
#116 = ORIENTED_EDGE('', *, *, #25, .T.);
#117 = ORIENTED_EDGE('', *, *, #111, .T.);
#118 = (
   BOUNDED_SURFACE ()
   B_SPLINE_SURFACE (2, 1, ((#119, #120), (#121, #122), (#123, #124), (#125, #126), (#127, #128), (#129, #130), (#131, #132), (#133, #134), (#135, #136)), .UNSPECIFIED., .T., .F., .U.)
   B_SPLINE_SURFACE_WITH_KNOTS ((3, 2, 2, 2, 3), (2, 2), (0., 7.85398163397448, 15.707963267949, 23.5619449019234, 31.4159265358979), (0., 0.481481481481481), .UNSPECIFIED.)
   GEOMETRIC_REPRESENTATION_ITEM ()
   RATIONAL_B_SPLINE_SURFACE (((1., 1.), (0.707106781186548, 0.707106781186548), (1., 1.), (0.707106781186548, 0.707106781186548), (1., 1.), (0.707106781186548, 0.707106781186548), (1., 1.), (0.707106781186548, 0.707106781186548), (1., 1.)))
   REPRESENTATION_ITEM ('')
   SURFACE ()
);
#119 = CARTESIAN_POINT('', (-5., 2.75545529808154E-15, -40.));
#120 = CARTESIAN_POINT('', (-5., -1.31124565943867E-16, -53.));
#121 = CARTESIAN_POINT('', (-5., 5., -40.));
#122 = CARTESIAN_POINT('', (-5., 5., -53.));
#123 = CARTESIAN_POINT('', (3.05991626183854E-15, 5., -40.));
#124 = CARTESIAN_POINT('', (3.05991626183854E-15, 5., -53.));
#125 = CARTESIAN_POINT('', (5., 5., -40.));
#126 = CARTESIAN_POINT('', (5., 4.99999999999999, -53.));
#127 = CARTESIAN_POINT('', (5., -1.6990426886578E-15, -40.));
#128 = CARTESIAN_POINT('', (5., -4.58562255268321E-15, -53.));
#129 = CARTESIAN_POINT('', (5., -5., -40.));
#130 = CARTESIAN_POINT('', (5., -5., -53.));
#131 = CARTESIAN_POINT('', (-7.82258325327126E-16, -5., -40.));
#132 = CARTESIAN_POINT('', (-7.82258325327128E-16, -5., -53.));
#133 = CARTESIAN_POINT('', (-5., -5., -40.));
#134 = CARTESIAN_POINT('', (-5., -5., -53.));
#135 = CARTESIAN_POINT('', (-5., 2.75545529808154E-15, -40.));
#136 = CARTESIAN_POINT('', (-5., -1.31124565943867E-16, -53.));
#137 = ADVANCED_FACE('', (#138), #141, .T.);
#138 = FACE_OUTER_BOUND('', #139, .T.);
#139 = EDGE_LOOP('', (#140));
#140 = ORIENTED_EDGE('', *, *, #102, .T.);
#141 = B_SPLINE_SURFACE_WITH_KNOTS('', 1, 1, ((#142, #143), (#144, #145)), .UNSPECIFIED., .F., .F., .U., (2, 2), (2, 2), (0.482017982801393, 0.550160387405169), (0.449839612594831, 0.517982017198607), .UNSPECIFIED.);
#142 = CARTESIAN_POINT('', (-5.00000000000001, 5.00000000000003, -53.));
#143 = CARTESIAN_POINT('', (-5.00000000000001, -4.99999999999999, -53.));
#144 = CARTESIAN_POINT('', (4.99999999999999, 5.00000000000003, -53.));
#145 = CARTESIAN_POINT('', (4.99999999999999, -4.99999999999999, -53.));
#146 = DRAUGHTING_MODEL('', (#154, #262, #302, #307, #312, #317, #322), #336);
#147 = PRESENTATION_STYLE_ASSIGNMENT((#148));
#148 = SURFACE_STYLE_USAGE(.POSITIVE., #149);
#149 = SURFACE_SIDE_STYLE('', (#150));
#150 = SURFACE_STYLE_FILL_AREA(#151);
#151 = FILL_AREA_STYLE('', (#152));
#152 = FILL_AREA_STYLE_COLOUR('', #153);
#153 = COLOUR_RGB('', 0.50196078431373, 0.50196078431373, 0.50196078431373);
#154 = STYLED_ITEM('', (#147), #1);
#155 = MANIFOLD_SOLID_BREP('CUT', #156);
#156 = CLOSED_SHELL('', (#157, #174, #213));
#157 = ADVANCED_FACE('', (#158), #169, .T.);
#158 = FACE_OUTER_BOUND('', #159, .T.);
#159 = EDGE_LOOP('', (#160));
#160 = ORIENTED_EDGE('', *, *, #161, .F.);
#161 = EDGE_CURVE('', #162, #162, #164, .T.);
#162 = VERTEX_POINT('', #163);
#163 = CARTESIAN_POINT('', (-5., 3.55147571752732E-15, -53.));
#164 = CIRCLE('', #165, 5.);
#165 = AXIS2_PLACEMENT_3D('', #166, #167, #168);
#166 = CARTESIAN_POINT('', (-7.63278329429795E-16, -3.33066907387547E-16, -53.));
#167 = DIRECTION('', (0., 0., -1.));
#168 = DIRECTION('', (-1., 7.76908524982974E-16, 0.));
#169 = B_SPLINE_SURFACE_WITH_KNOTS('', 1, 1, ((#170, #171), (#172, #173)), .UNSPECIFIED., .F., .F., .U., (2, 2), (2, 2), (0.449839612594831, 0.517982017198607), (0.482017982801393, 0.550160387405169), .UNSPECIFIED.);
#170 = CARTESIAN_POINT('', (-5., 5., -53.));
#171 = CARTESIAN_POINT('', (5., 5., -53.));
#172 = CARTESIAN_POINT('', (-5., -5., -53.));
#173 = CARTESIAN_POINT('', (5., -5., -53.));
#174 = ADVANCED_FACE('', (#175), #194, .T.);
#175 = FACE_OUTER_BOUND('', #176, .T.);
#176 = EDGE_LOOP('', (#177, #178, #186, #193));
#177 = ORIENTED_EDGE('', *, *, #161, .T.);
#178 = ORIENTED_EDGE('', *, *, #179, .T.);
#179 = EDGE_CURVE('', #162, #180, #182, .T.);
#180 = VERTEX_POINT('', #181);
#181 = CARTESIAN_POINT('', (-5., 4.40872847693047E-15, -67.));
#182 = LINE('', #183, #184);
#183 = CARTESIAN_POINT('', (-5., 3.55147571752732E-15, -53.));
#184 = VECTOR('', #185, 14.);
#185 = DIRECTION('', (0., 8.5725275940315E-16, -14.));
#186 = ORIENTED_EDGE('', *, *, #187, .F.);
#187 = EDGE_CURVE('', #180, #180, #188, .T.);
#188 = CIRCLE('', #189, 5.);
#189 = AXIS2_PLACEMENT_3D('', #190, #191, #192);
#190 = CARTESIAN_POINT('', (2.2065682614425E-15, -1.66533453693773E-15, -67.));
#191 = DIRECTION('', (-2.84217094304039E-15, 9.24648183040205E-15, -1.));
#192 = DIRECTION('', (-1., 1.21481260277364E-15, 2.8421709430404E-15));
#193 = ORIENTED_EDGE('', *, *, #179, .F.);
#194 = (
   BOUNDED_SURFACE ()
   B_SPLINE_SURFACE (2, 1, ((#195, #196), (#197, #198), (#199, #200), (#201, #202), (#203, #204), (#205, #206), (#207, #208), (#209, #210), (#211, #212)), .UNSPECIFIED., .T., .F., .U.)
   B_SPLINE_SURFACE_WITH_KNOTS ((3, 2, 2, 2, 3), (2, 2), (0., 7.85398163397448, 15.707963267949, 23.5619449019234, 31.4159265358979), (0.481481481481481, 1.), .UNSPECIFIED.)
   GEOMETRIC_REPRESENTATION_ITEM ()
   RATIONAL_B_SPLINE_SURFACE (((1., 1.), (0.707106781186548, 0.707106781186548), (1., 1.), (0.707106781186548, 0.707106781186548), (1., 1.), (0.707106781186548, 0.707106781186548), (1., 1.), (0.707106781186548, 0.707106781186548), (1., 1.)))
   REPRESENTATION_ITEM ('')
   SURFACE ()
);
#195 = CARTESIAN_POINT('', (-5., 3.55147571752732E-15, -53.));
#196 = CARTESIAN_POINT('', (-5., 4.55067643968996E-15, -67.));
#197 = CARTESIAN_POINT('', (-4.99999999999999, 5., -53.));
#198 = CARTESIAN_POINT('', (-4.99999999999999, 5., -67.));
#199 = CARTESIAN_POINT('', (7.26987248200667E-15, 5., -53.));
#200 = CARTESIAN_POINT('', (7.26987248200667E-15, 5., -67.));
#201 = CARTESIAN_POINT('', (5.00000000000001, 4.99999999999999, -53.));
#202 = CARTESIAN_POINT('', (5.00000000000001, 4.99999999999999, -67.));
#203 = CARTESIAN_POINT('', (5., -8.26822283615439E-15, -53.));
#204 = CARTESIAN_POINT('', (5., -7.26902211399175E-15, -67.));
#205 = CARTESIAN_POINT('', (5., -5.00000000000001, -53.));
#206 = CARTESIAN_POINT('', (5., -5.00000000000001, -67.));
#207 = CARTESIAN_POINT('', (-3.93750267210136E-15, -5., -53.));
#208 = CARTESIAN_POINT('', (-3.93750267210136E-15, -5., -67.));
#209 = CARTESIAN_POINT('', (-5., -5., -53.));
#210 = CARTESIAN_POINT('', (-5., -5., -67.));
#211 = CARTESIAN_POINT('', (-5., 3.55147571752732E-15, -53.));
#212 = CARTESIAN_POINT('', (-5., 4.55067643968996E-15, -67.));
#213 = ADVANCED_FACE('', (#214), #227, .T.);
#214 = FACE_OUTER_BOUND('', #215, .T.);
#215 = EDGE_LOOP('', (#216, #225, #226));
#216 = ORIENTED_EDGE('', *, *, #217, .F.);
#217 = EDGE_CURVE('', #180, #218, #220, .T.);
#218 = VERTEX_POINT('', #219);
#219 = CARTESIAN_POINT('', (1.80666351906064E-15, 4.40872847693047E-15, -72.));
#220 = CIRCLE('', #221, 5.);
#221 = AXIS2_PLACEMENT_3D('', #222, #223, #224);
#222 = CARTESIAN_POINT('', (7.105427357601E-15, 4.10256677714363E-15, -67.));
#223 = DIRECTION('', (-6.1232339957368E-17, -1., -6.12323399573679E-17));
#224 = DIRECTION('', (-1., 6.1232339957368E-17, 0.));
#225 = ORIENTED_EDGE('', *, *, #187, .T.);
#226 = ORIENTED_EDGE('', *, *, #217, .T.);
#227 = (
   BOUNDED_SURFACE ()
   B_SPLINE_SURFACE (2, 2, ((#228, #229, #230), (#231, #232, #233), (#234, #235, #236), (#237, #238, #239), (#240, #241, #242), (#243, #244, #245), (#246, #247, #248), (#249, #250, #251), (#252, #253, #254)), .UNSPECIFIED., .T., .F., .U.)
   B_SPLINE_SURFACE_WITH_KNOTS ((3, 2, 2, 2, 3), (3, 3), (0., 0.25, 0.5, 0.75, 1.), (0., 1.), .UNSPECIFIED.)
   GEOMETRIC_REPRESENTATION_ITEM ()
   RATIONAL_B_SPLINE_SURFACE (((1., 0.707106781186548, 1.), (0.707106781186548, 0.5, 0.707106781186548), (1., 0.707106781186548, 1.), (0.707106781186548, 0.5, 0.707106781186548), (1., 0.707106781186548, 1.), (0.707106781186548, 0.5, 0.707106781186548), (1., 0.707106781186548, 1.), (0.707106781186548, 0.5, 0.707106781186548), (1., 0.707106781186548, 1.)))
   REPRESENTATION_ITEM ('')
   SURFACE ()
);
#228 = CARTESIAN_POINT('', (-5., 4.40872847693047E-15, -67.));
#229 = CARTESIAN_POINT('', (-5., 4.71489017671731E-15, -72.));
#230 = CARTESIAN_POINT('', (1.80666351906064E-15, 4.40872847693047E-15, -72.));
#231 = CARTESIAN_POINT('', (-5., 5.00000000000001, -67.));
#232 = CARTESIAN_POINT('', (-5., 5.00000000000001, -72.));
#233 = CARTESIAN_POINT('', (1.80666351906064E-15, 4.40872847693047E-15, -72.));
#234 = CARTESIAN_POINT('', (7.105427357601E-15, 5.00000000000001, -67.));
#235 = CARTESIAN_POINT('', (7.41158905738784E-15, 5.00000000000001, -72.));
#236 = CARTESIAN_POINT('', (1.80666351906064E-15, 4.40872847693047E-15, -72.));
#237 = CARTESIAN_POINT('', (5.00000000000001, 5.00000000000001, -67.));
#238 = CARTESIAN_POINT('', (5.00000000000001, 5.00000000000001, -72.));
#239 = CARTESIAN_POINT('', (1.80666351906064E-15, 4.40872847693047E-15, -72.));
#240 = CARTESIAN_POINT('', (5.00000000000001, 4.40872847693047E-15, -67.));
#241 = CARTESIAN_POINT('', (5.00000000000001, 4.10256677714363E-15, -72.));
#242 = CARTESIAN_POINT('', (1.80666351906064E-15, 4.40872847693047E-15, -72.));
#243 = CARTESIAN_POINT('', (5.00000000000001, -5., -67.));
#244 = CARTESIAN_POINT('', (5.00000000000001, -5., -72.));
#245 = CARTESIAN_POINT('', (1.80666351906064E-15, 4.40872847693047E-15, -72.));
#246 = CARTESIAN_POINT('', (7.71775075717468E-15, -5., -67.));
#247 = CARTESIAN_POINT('', (7.41158905738784E-15, -5., -72.));
#248 = CARTESIAN_POINT('', (1.80666351906064E-15, 4.40872847693047E-15, -72.));
#249 = CARTESIAN_POINT('', (-5., -5., -67.));
#250 = CARTESIAN_POINT('', (-5., -5., -72.));
#251 = CARTESIAN_POINT('', (1.80666351906064E-15, 4.40872847693047E-15, -72.));
#252 = CARTESIAN_POINT('', (-5., 4.40872847693047E-15, -67.));
#253 = CARTESIAN_POINT('', (-5., 4.71489017671731E-15, -72.));
#254 = CARTESIAN_POINT('', (1.80666351906064E-15, 4.40872847693047E-15, -72.));
#255 = PRESENTATION_STYLE_ASSIGNMENT((#256));
#256 = SURFACE_STYLE_USAGE(.POSITIVE., #257);
#257 = SURFACE_SIDE_STYLE('', (#258));
#258 = SURFACE_STYLE_FILL_AREA(#259);
#259 = FILL_AREA_STYLE('', (#260));
#260 = FILL_AREA_STYLE_COLOUR('', #261);
#261 = COLOUR_RGB('', 0.8, 0.8, 0.8);
#262 = STYLED_ITEM('', (#255), #155);
#263 = TRIMMED_CURVE('cutting part line', #264, (#269), (#270), .T., .CARTESIAN.);
#264 = CIRCLE('', #265, 4.99999999999999);
#265 = AXIS2_PLACEMENT_3D('', #266, #267, #268);
#266 = CARTESIAN_POINT('', (1.66533453693773E-14, 0., -67.));
#267 = DIRECTION('', (0., -1., 0.));
#268 = DIRECTION('', (-3.44724249146112E-15, 0., -1.));
#269 = CARTESIAN_POINT('', (-5.82867087928223E-16, 0., -72.));
#270 = CARTESIAN_POINT('', (5.00000000000001, 0., -67.));
#271 = TRIMMED_CURVE('cutting part line', #272, (#276), (#277), .T., .CARTESIAN.);
#272 = LINE('', #273, #274);
#273 = CARTESIAN_POINT('', (5., 9.99048539052919E-16, -67.));
#274 = VECTOR('', #275, 14.);
#275 = DIRECTION('', (0., -9.99048539052919E-16, 14.));
#276 = CARTESIAN_POINT('', (5., 9.99048539052919E-16, -67.));
#277 = CARTESIAN_POINT('', (5., 0., -53.));
#278 = TRIMMED_CURVE('cutting part line', #279, (#283), (#284), .T., .CARTESIAN.);
#279 = LINE('', #280, #281);
#280 = CARTESIAN_POINT('', (5., 0., -53.));
#281 = VECTOR('', #282, 5.);
#282 = DIRECTION('', (-5., 0., 0.));
#283 = CARTESIAN_POINT('', (5., 0., -53.));
#284 = CARTESIAN_POINT('', (0., 0., -53.));
#285 = TRIMMED_CURVE('cutting part line', #286, (#290), (#291), .T., .CARTESIAN.);
#286 = LINE('', #287, #288);
#287 = CARTESIAN_POINT('', (0., 0., -53.));
#288 = VECTOR('', #289, 19.);
#289 = DIRECTION('', (0., 0., -19.));
#290 = CARTESIAN_POINT('', (0., 0., -53.));
#291 = CARTESIAN_POINT('', (0., 0., -72.));
#292 = COMPOSITE_CURVE('cutting part line', (#293, #294, #295, #296), .U.);
#293 = COMPOSITE_CURVE_SEGMENT(.CONTINUOUS., .T., #263);
#294 = COMPOSITE_CURVE_SEGMENT(.CONTINUOUS., .T., #271);
#295 = COMPOSITE_CURVE_SEGMENT(.CONTINUOUS., .T., #278);
#296 = COMPOSITE_CURVE_SEGMENT(.CONTINUOUS., .T., #285);
#297 = GEOMETRIC_SET('', (#292, #335));
#298 = PRESENTATION_STYLE_ASSIGNMENT((#299));
#299 = CURVE_STYLE('', #301, POSITIVE_LENGTH_MEASURE(1.E-6), #300);
#300 = COLOUR_RGB('', 0., 0., 1.);
#301 = DRAUGHTING_PRE_DEFINED_CURVE_FONT('continuous');
#302 = STYLED_ITEM('', (#298), #292);
#303 = PRESENTATION_STYLE_ASSIGNMENT((#304));
#304 = CURVE_STYLE('', #306, POSITIVE_LENGTH_MEASURE(1.E-6), #305);
#305 = COLOUR_RGB('', 0., 0., 1.);
#306 = DRAUGHTING_PRE_DEFINED_CURVE_FONT('continuous');
#307 = OVER_RIDING_STYLED_ITEM('', (#303), #263, #302);
#308 = PRESENTATION_STYLE_ASSIGNMENT((#309));
#309 = CURVE_STYLE('', #311, POSITIVE_LENGTH_MEASURE(1.E-6), #310);
#310 = COLOUR_RGB('', 0., 0., 1.);
#311 = DRAUGHTING_PRE_DEFINED_CURVE_FONT('continuous');
#312 = OVER_RIDING_STYLED_ITEM('', (#308), #271, #302);
#313 = PRESENTATION_STYLE_ASSIGNMENT((#314));
#314 = CURVE_STYLE('', #316, POSITIVE_LENGTH_MEASURE(1.E-6), #315);
#315 = COLOUR_RGB('', 0., 0., 1.);
#316 = DRAUGHTING_PRE_DEFINED_CURVE_FONT('continuous');
#317 = OVER_RIDING_STYLED_ITEM('', (#313), #278, #302);
#318 = PRESENTATION_STYLE_ASSIGNMENT((#319));
#319 = CURVE_STYLE('', #321, POSITIVE_LENGTH_MEASURE(1.E-6), #320);
#320 = COLOUR_RGB('', 0., 0., 1.);
#321 = DRAUGHTING_PRE_DEFINED_CURVE_FONT('continuous');
#322 = OVER_RIDING_STYLED_ITEM('', (#318), #285, #302);
#323 = AXIS2_PLACEMENT_3D('MCS', #324, #325, #326);
#324 = CARTESIAN_POINT('', (0., 0., -40.));
#325 = DIRECTION('', (0., 0., 1.));
#326 = DIRECTION('', (1., 0., 0.));
#327 = AXIS2_PLACEMENT_3D('PCS', #328, #329, #330);
#328 = CARTESIAN_POINT('', (0., 0., 0.));
#329 = DIRECTION('', (0., 0., 1.));
#330 = DIRECTION('', (1., 0., 0.));
#331 = AXIS2_PLACEMENT_3D('CIP', #332, #333, #334);
#332 = CARTESIAN_POINT('', (0., 0., -72.));
#333 = DIRECTION('', (0., 0., 1.));
#334 = DIRECTION('', (1., 0., 0.));
#335 = CARTESIAN_POINT('CRP', (5.00000000000001, 0., -72.));
#336 = (
   GEOMETRIC_REPRESENTATION_CONTEXT (3)
   GLOBAL_UNCERTAINTY_ASSIGNED_CONTEXT ((#338))
   GLOBAL_UNIT_ASSIGNED_CONTEXT ((#337, #339, #340))
   REPRESENTATION_CONTEXT ('', '3D')
);
#337 = (
   LENGTH_UNIT ()
   NAMED_UNIT (*)
   SI_UNIT (.MILLI., .METRE.)
);
#338 = UNCERTAINTY_MEASURE_WITH_UNIT(LENGTH_MEASURE(1.E-6), #337, 'DISTANCE_ACCURACY_VALUE', '');
#339 = (
   NAMED_UNIT (*)
   SI_UNIT ($, .STERADIAN.)
   SOLID_ANGLE_UNIT ()
);
#340 = (
   NAMED_UNIT (*)
   PLANE_ANGLE_UNIT ()
   SI_UNIT ($, .RADIAN.)
);
#341 = SHAPE_REPRESENTATION('', (), #336);
#342 = PRODUCT_DEFINITION_SHAPE('', '', #343);
#343 = PRODUCT_DEFINITION('', '', #346, #350);
#344 = APPLICATION_CONTEXT('configuration controlled 3D designs of mechanical parts and assemblies');
#345 = APPLICATION_PROTOCOL_DEFINITION('International Standard', 'automotive_design', 2002, #344);
#346 = PRODUCT_DEFINITION_FORMATION_WITH_SPECIFIED_SOURCE('', '', #347, .NOT_KNOWN.);
#347 = PRODUCT('product-name', '2B230-1000-NA       N20C', '', (#348));
#348 = PRODUCT_CONTEXT('', #344, 'mechanical');
#349 = PRODUCT_RELATED_PRODUCT_CATEGORY('detail', '', (#347));
#350 = PRODUCT_DEFINITION_CONTEXT('part definition', #344, 'design');
#351 = SHAPE_DEFINITION_REPRESENTATION(#342, #341);
#352 = CONSTRUCTIVE_GEOMETRY_REPRESENTATION('supplemental geometry', (#323, #327, #331), #336);
#353 = CONSTRUCTIVE_GEOMETRY_REPRESENTATION_RELATIONSHIP('', '', #341, #352);
#354 = SHAPE_REPRESENTATION_RELATIONSHIP('', '', #341, #355);
#355 = SHAPE_REPRESENTATION('', (#297), #336);
#356 = SHAPE_REPRESENTATION_RELATIONSHIP('', '', #341, #357);
#357 = ADVANCED_BREP_SHAPE_REPRESENTATION('', (#1, #155), #336);
ENDSEC;
END-ISO-10303-21;
