ISO-10303-21;
HEADER;
FILE_DESCRIPTION(('STEP'), '1');
FILE_NAME('C:\\Users\\ds2002\\OneDrive - Sandvik\\HomeShare\\Documents\\Batchrepair\\CorSRT2\\NEW_MILSQ_SLD\\Output\\MOD000000000000000020082279600000.stp', '2019-01-02T12:09:50', (''), (''), 'Express v3.0.0.0', 'Express Tool', 'Unknown');
FILE_SCHEMA(('AUTOMOTIVE_DESIGN'));
ENDSEC;

DATA;
#1 = MANIFOLD_SOLID_BREP('NOCUT', #2);
#2 = CLOSED_SHELL('', (#3, #20, #37, #85));
#3 = ADVANCED_FACE('', (#4), #15, .T.);
#4 = FACE_OUTER_BOUND('', #5, .T.);
#5 = EDGE_LOOP('', (#6));
#6 = ORIENTED_EDGE('', *, *, #7, .F.);
#7 = EDGE_CURVE('', #8, #8, #10, .T.);
#8 = VERTEX_POINT('', #9);
#9 = CARTESIAN_POINT('', (-10.0000000000003, 0., -70.));
#10 = CIRCLE('', #11, 10.0000000000003);
#11 = AXIS2_PLACEMENT_3D('', #12, #13, #14);
#12 = CARTESIAN_POINT('', (-2.1094237467878E-15, 1.99840144432528E-15, -70.));
#13 = DIRECTION('', (0., 0., 1.));
#14 = DIRECTION('', (-1., -1.99840144432522E-16, 0.));
#15 = B_SPLINE_SURFACE_WITH_KNOTS('', 1, 1, ((#16, #17), (#18, #19)), .UNSPECIFIED., .F., .F., .U., (2, 2), (2, 2), (-10.0010000000003, 10.0010000000003), (-10.0010000000003, 10.0010000000003), .UNSPECIFIED.);
#16 = CARTESIAN_POINT('', (10.0010000000003, -10.0010000000003, -70.));
#17 = CARTESIAN_POINT('', (10.0010000000003, 10.0010000000003, -70.));
#18 = CARTESIAN_POINT('', (-10.0010000000003, -10.0010000000003, -70.));
#19 = CARTESIAN_POINT('', (-10.0010000000003, 10.0010000000003, -70.));
#20 = ADVANCED_FACE('', (#21), #32, .T.);
#21 = FACE_OUTER_BOUND('', #22, .T.);
#22 = EDGE_LOOP('', (#23));
#23 = ORIENTED_EDGE('', *, *, #24, .T.);
#24 = EDGE_CURVE('', #25, #25, #27, .T.);
#25 = VERTEX_POINT('', #26);
#26 = CARTESIAN_POINT('', (9.00000000000028, 0., 0.));
#27 = CIRCLE('', #28, 9.00000000000028);
#28 = AXIS2_PLACEMENT_3D('', #29, #30, #31);
#29 = CARTESIAN_POINT('', (-1.58206781009085E-15, 1.33226762955019E-15, 0.));
#30 = DIRECTION('', (0., 0., 1.));
#31 = DIRECTION('', (1., -1.48029736616683E-16, 0.));
#32 = B_SPLINE_SURFACE_WITH_KNOTS('', 1, 1, ((#33, #34), (#35, #36)), .UNSPECIFIED., .F., .F., .U., (2, 2), (2, 2), (-9.00100000000023, 9.00100000000034), (-9.00100000000028, 9.00100000000028), .UNSPECIFIED.);
#33 = CARTESIAN_POINT('', (9.00100000000028, 9.00100000000028, 0.));
#34 = CARTESIAN_POINT('', (9.00100000000028, -9.00100000000028, 0.));
#35 = CARTESIAN_POINT('', (-9.00100000000028, 9.00100000000028, 0.));
#36 = CARTESIAN_POINT('', (-9.00100000000028, -9.00100000000028, 0.));
#37 = ADVANCED_FACE('', (#38), #66, .T.);
#38 = FACE_OUTER_BOUND('', #39, .T.);
#39 = EDGE_LOOP('', (#40, #48, #49, #50, #59));
#40 = ORIENTED_EDGE('', *, *, #41, .T.);
#41 = EDGE_CURVE('', #42, #25, #44, .T.);
#42 = VERTEX_POINT('', #43);
#43 = CARTESIAN_POINT('', (10.0000000000003, 0., -1.));
#44 = LINE('', #45, #46);
#45 = CARTESIAN_POINT('', (10.0000000000003, -8.08489262679004E-15, -1.00000000000001));
#46 = VECTOR('', #47, 1.41421356237311);
#47 = DIRECTION('', (-1.00000000000001, 8.07681581097907E-15, 1.00000000000001));
#48 = ORIENTED_EDGE('', *, *, #24, .F.);
#49 = ORIENTED_EDGE('', *, *, #41, .F.);
#50 = ORIENTED_EDGE('', *, *, #51, .F.);
#51 = EDGE_CURVE('', #52, #42, #54, .T.);
#52 = VERTEX_POINT('', #53);
#53 = CARTESIAN_POINT('', (-10.0000000000003, -1.22464679914739E-15, -1.));
#54 = CIRCLE('', #55, 10.0000000000003);
#55 = AXIS2_PLACEMENT_3D('', #56, #57, #58);
#56 = CARTESIAN_POINT('', (2.1094237467878E-15, 1.99840144432528E-15, -1.));
#57 = DIRECTION('', (0., 0., -1.));
#58 = DIRECTION('', (1., -1.99840144432522E-16, 0.));
#59 = ORIENTED_EDGE('', *, *, #60, .F.);
#60 = EDGE_CURVE('', #42, #52, #61, .T.);
#61 = CIRCLE('', #62, 10.0000000000003);
#62 = AXIS2_PLACEMENT_3D('', #63, #64, #65);
#63 = CARTESIAN_POINT('', (2.1094237467878E-15, 1.99840144432528E-15, -1.));
#64 = DIRECTION('', (0., 0., -1.));
#65 = DIRECTION('', (1., -1.99840144432522E-16, 0.));
#66 = (
   BOUNDED_SURFACE ()
   B_SPLINE_SURFACE (2, 1, ((#67, #68), (#69, #70), (#71, #72), (#73, #74), (#75, #76), (#77, #78), (#79, #80), (#81, #82), (#83, #84)), .UNSPECIFIED., .T., .F., .U.)
   B_SPLINE_SURFACE_WITH_KNOTS ((3, 2, 2, 2, 3), (2, 2), (0., 0.25, 0.5, 0.75, 1.), (0., 1.), .UNSPECIFIED.)
   GEOMETRIC_REPRESENTATION_ITEM ()
   RATIONAL_B_SPLINE_SURFACE (((1., 1.), (0.707106781186548, 0.707106781186548), (1., 1.), (0.707106781186548, 0.707106781186548), (1., 1.), (0.707106781186548, 0.707106781186548), (1., 1.), (0.707106781186548, 0.707106781186548), (1., 1.)))
   REPRESENTATION_ITEM ('')
   SURFACE ()
);
#67 = CARTESIAN_POINT('', (8.99900000000028, 0., 0.001));
#68 = CARTESIAN_POINT('', (10.0010000000003, -8.09296944260094E-15, -1.001));
#69 = CARTESIAN_POINT('', (8.99900000000028, -8.99900000000028, 0.0010000000000698));
#70 = CARTESIAN_POINT('', (10.0010000000003, -10.0010000000003, -1.00099999999992));
#71 = CARTESIAN_POINT('', (-4.27844032984306E-15, -8.99900000000028, 0.0010000000000698));
#72 = CARTESIAN_POINT('', (-4.53849379543063E-15, -10.0010000000003, -1.00099999999992));
#73 = CARTESIAN_POINT('', (-8.99900000000029, -8.99900000000028, 0.0010000000000698));
#74 = CARTESIAN_POINT('', (-10.0010000000003, -10.0010000000003, -1.00099999999992));
#75 = CARTESIAN_POINT('', (-8.99900000000028, 4.67110007349808E-15, 0.001));
#76 = CARTESIAN_POINT('', (-10.0010000000003, -2.90176243792774E-15, -1.001));
#77 = CARTESIAN_POINT('', (-8.99900000000028, 8.99900000000029, 0.000999999999930203));
#78 = CARTESIAN_POINT('', (-10.0010000000003, 10.0010000000003, -1.00100000000008));
#79 = CARTESIAN_POINT('', (-7.09399910897724E-16, 8.99900000000029, 0.000999999999930203));
#80 = CARTESIAN_POINT('', (-5.72056054584728E-16, 10.0010000000003, -1.00100000000008));
#81 = CARTESIAN_POINT('', (8.99900000000028, 8.99900000000029, 0.000999999999930203));
#82 = CARTESIAN_POINT('', (10.0010000000003, 10.0010000000003, -1.00100000000008));
#83 = CARTESIAN_POINT('', (8.99900000000028, 0., 0.001));
#84 = CARTESIAN_POINT('', (10.0010000000003, -8.09296944260094E-15, -1.001));
#85 = ADVANCED_FACE('', (#86), #98, .T.);
#86 = FACE_OUTER_BOUND('', #87, .T.);
#87 = EDGE_LOOP('', (#88, #94, #95, #96, #97));
#88 = ORIENTED_EDGE('', *, *, #89, .T.);
#89 = EDGE_CURVE('', #52, #8, #90, .T.);
#90 = LINE('', #91, #92);
#91 = CARTESIAN_POINT('', (-10.0000000000002, -7.02077059698406E-29, -1.));
#92 = VECTOR('', #93, 69.);
#93 = DIRECTION('', (-9.59232693276135E-14, 6.31070432280221E-29, -69.));
#94 = ORIENTED_EDGE('', *, *, #7, .T.);
#95 = ORIENTED_EDGE('', *, *, #89, .F.);
#96 = ORIENTED_EDGE('', *, *, #51, .T.);
#97 = ORIENTED_EDGE('', *, *, #60, .T.);
#98 = (
   BOUNDED_SURFACE ()
   B_SPLINE_SURFACE (2, 1, ((#99, #100), (#101, #102), (#103, #104), (#105, #106), (#107, #108), (#109, #110), (#111, #112), (#113, #114), (#115, #116)), .UNSPECIFIED., .T., .F., .U.)
   B_SPLINE_SURFACE_WITH_KNOTS ((3, 2, 2, 2, 3), (2, 2), (0., 0.25, 0.5, 0.75, 1.), (0., 1.), .UNSPECIFIED.)
   GEOMETRIC_REPRESENTATION_ITEM ()
   RATIONAL_B_SPLINE_SURFACE (((1., 1.), (0.707106781186548, 0.707106781186548), (1., 1.), (0.707106781186548, 0.707106781186548), (1., 1.), (0.707106781186548, 0.707106781186548), (1., 1.), (0.707106781186548, 0.707106781186548), (1., 1.)))
   REPRESENTATION_ITEM ('')
   SURFACE ()
);
#99 = CARTESIAN_POINT('', (-10.0000000000003, -7.88860905221012E-31, -76.9012));
#100 = CARTESIAN_POINT('', (-10.0000000000002, -7.65195078064381E-29, 5.90120000000002));
#101 = CARTESIAN_POINT('', (-10.0000000000003, -10.0000000000003, -76.9012));
#102 = CARTESIAN_POINT('', (-10.0000000000002, -10.0000000000003, 5.90120000000002));
#103 = CARTESIAN_POINT('', (-3.27685865867407E-15, -10.0000000000003, -76.9012));
#104 = CARTESIAN_POINT('', (1.14392428988327E-13, -10.0000000000003, 5.9012));
#105 = CARTESIAN_POINT('', (10.0000000000003, -10.0000000000003, -76.9012));
#106 = CARTESIAN_POINT('', (10.0000000000004, -10.0000000000003, 5.90119999999999));
#107 = CARTESIAN_POINT('', (10.0000000000003, -1.41032338847992E-14, -76.9012));
#108 = CARTESIAN_POINT('', (10.0000000000004, -1.41032338847993E-14, 5.90119999999999));
#109 = CARTESIAN_POINT('', (10.0000000000003, 10.0000000000003, -76.9012));
#110 = CARTESIAN_POINT('', (10.0000000000004, 10.0000000000003, 5.90119999999999));
#111 = CARTESIAN_POINT('', (1.20510220252725E-14, 10.0000000000003, -76.9012));
#112 = CARTESIAN_POINT('', (1.29720309672273E-13, 10.0000000000003, 5.9012));
#113 = CARTESIAN_POINT('', (-10.0000000000003, 10.0000000000003, -76.9012));
#114 = CARTESIAN_POINT('', (-10.0000000000002, 10.0000000000003, 5.90120000000002));
#115 = CARTESIAN_POINT('', (-10.0000000000003, -7.88860905221012E-31, -76.9012));
#116 = CARTESIAN_POINT('', (-10.0000000000002, -7.65195078064381E-29, 5.90120000000002));
#117 = DRAUGHTING_MODEL('', (#125, #239, #286, #291, #296, #301, #306, #311), #325);
#118 = PRESENTATION_STYLE_ASSIGNMENT((#119));
#119 = SURFACE_STYLE_USAGE(.POSITIVE., #120);
#120 = SURFACE_SIDE_STYLE('', (#121));
#121 = SURFACE_STYLE_FILL_AREA(#122);
#122 = FILL_AREA_STYLE('', (#123));
#123 = FILL_AREA_STYLE_COLOUR('', #124);
#124 = COLOUR_RGB('', 0.50196078431373, 0.50196078431373, 0.50196078431373);
#125 = STYLED_ITEM('', (#118), #1);
#126 = MANIFOLD_SOLID_BREP('CUT', #127);
#127 = CLOSED_SHELL('', (#128, #145, #192, #223));
#128 = ADVANCED_FACE('', (#129), #140, .T.);
#129 = FACE_OUTER_BOUND('', #130, .T.);
#130 = EDGE_LOOP('', (#131));
#131 = ORIENTED_EDGE('', *, *, #132, .T.);
#132 = EDGE_CURVE('', #133, #133, #135, .T.);
#133 = VERTEX_POINT('', #134);
#134 = CARTESIAN_POINT('', (-9.85000000000028, 0., -125.));
#135 = CIRCLE('', #136, 9.85000000000028);
#136 = AXIS2_PLACEMENT_3D('', #137, #138, #139);
#137 = CARTESIAN_POINT('', (-1.13797860024079E-15, -5.55111512312578E-15, -125.));
#138 = DIRECTION('', (0., 0., -1.));
#139 = DIRECTION('', (-1., 5.63564987119353E-16, 0.));
#140 = B_SPLINE_SURFACE_WITH_KNOTS('', 1, 1, ((#141, #142), (#143, #144)), .UNSPECIFIED., .F., .F., .U., (2, 2), (2, 2), (-19.8510000000006, -0.149000000000019), (-9.85100000000028, 9.85100000000028), .UNSPECIFIED.);
#141 = CARTESIAN_POINT('', (-9.85100000000028, 9.85100000000028, -125.));
#142 = CARTESIAN_POINT('', (-9.85100000000028, -9.85100000000028, -125.));
#143 = CARTESIAN_POINT('', (9.85100000000028, 9.85100000000028, -125.));
#144 = CARTESIAN_POINT('', (9.85100000000028, -9.85100000000028, -125.));
#145 = ADVANCED_FACE('', (#146), #173, .T.);
#146 = FACE_OUTER_BOUND('', #147, .T.);
#147 = EDGE_LOOP('', (#148, #158, #165, #166));
#148 = ORIENTED_EDGE('', *, *, #149, .T.);
#149 = EDGE_CURVE('', #150, #152, #154, .T.);
#150 = VERTEX_POINT('', #151);
#151 = CARTESIAN_POINT('', (-10.0000000000003, 0., -70.));
#152 = VERTEX_POINT('', #153);
#153 = CARTESIAN_POINT('', (-10.0000000000003, 0., -124.85));
#154 = LINE('', #155, #156);
#155 = CARTESIAN_POINT('', (-10.0000000000003, -7.88860905221012E-31, -70.));
#156 = VECTOR('', #157, 54.85);
#157 = DIRECTION('', (0., 0., -54.85));
#158 = ORIENTED_EDGE('', *, *, #159, .T.);
#159 = EDGE_CURVE('', #152, #152, #160, .T.);
#160 = CIRCLE('', #161, 10.0000000000003);
#161 = AXIS2_PLACEMENT_3D('', #162, #163, #164);
#162 = CARTESIAN_POINT('', (-2.1094237467878E-15, 1.99840144432528E-15, -124.85));
#163 = DIRECTION('', (-9.66570412664163E-31, 4.83671794477978E-15, 1.));
#164 = DIRECTION('', (-1., -1.99840144432522E-16, 0.));
#165 = ORIENTED_EDGE('', *, *, #149, .F.);
#166 = ORIENTED_EDGE('', *, *, #167, .F.);
#167 = EDGE_CURVE('', #150, #150, #168, .T.);
#168 = CIRCLE('', #169, 10.0000000000003);
#169 = AXIS2_PLACEMENT_3D('', #170, #171, #172);
#170 = CARTESIAN_POINT('', (-2.1094237467878E-15, 1.99840144432528E-15, -70.));
#171 = DIRECTION('', (0., 0., 1.));
#172 = DIRECTION('', (-1., -1.99840144432522E-16, 0.));
#173 = (
   BOUNDED_SURFACE ()
   B_SPLINE_SURFACE (2, 1, ((#174, #175), (#176, #177), (#178, #179), (#180, #181), (#182, #183), (#184, #185), (#186, #187), (#188, #189), (#190, #191)), .UNSPECIFIED., .T., .F., .U.)
   B_SPLINE_SURFACE_WITH_KNOTS ((3, 2, 2, 2, 3), (2, 2), (0., 0.25, 0.5, 0.75, 1.), (0., 1.), .UNSPECIFIED.)
   GEOMETRIC_REPRESENTATION_ITEM ()
   RATIONAL_B_SPLINE_SURFACE (((1., 1.), (0.707106781186548, 0.707106781186548), (1., 1.), (0.707106781186548, 0.707106781186548), (1., 1.), (0.707106781186548, 0.707106781186548), (1., 1.), (0.707106781186548, 0.707106781186548), (1., 1.)))
   REPRESENTATION_ITEM ('')
   SURFACE ()
);
#174 = CARTESIAN_POINT('', (-10.0000000000003, -7.88860905221012E-31, -130.3362));
#175 = CARTESIAN_POINT('', (-10.0000000000003, -7.88860905221012E-31, -64.5138));
#176 = CARTESIAN_POINT('', (-10.0000000000003, -10.0000000000003, -130.3362));
#177 = CARTESIAN_POINT('', (-10.0000000000003, -10.0000000000003, -64.5138));
#178 = CARTESIAN_POINT('', (-3.27685865867407E-15, -10.0000000000003, -130.3362));
#179 = CARTESIAN_POINT('', (-3.27685865867407E-15, -10.0000000000003, -64.5138));
#180 = CARTESIAN_POINT('', (10.0000000000003, -10.0000000000003, -130.3362));
#181 = CARTESIAN_POINT('', (10.0000000000003, -10.0000000000003, -64.5138));
#182 = CARTESIAN_POINT('', (10.0000000000003, -1.41032338847992E-14, -130.3362));
#183 = CARTESIAN_POINT('', (10.0000000000003, -1.41032338847992E-14, -64.5138));
#184 = CARTESIAN_POINT('', (10.0000000000003, 10.0000000000003, -130.3362));
#185 = CARTESIAN_POINT('', (10.0000000000003, 10.0000000000003, -64.5138));
#186 = CARTESIAN_POINT('', (1.20510220252725E-14, 10.0000000000003, -130.3362));
#187 = CARTESIAN_POINT('', (1.20510220252725E-14, 10.0000000000003, -64.5138));
#188 = CARTESIAN_POINT('', (-10.0000000000003, 10.0000000000003, -130.3362));
#189 = CARTESIAN_POINT('', (-10.0000000000003, 10.0000000000003, -64.5138));
#190 = CARTESIAN_POINT('', (-10.0000000000003, -7.88860905221012E-31, -130.3362));
#191 = CARTESIAN_POINT('', (-10.0000000000003, -7.88860905221012E-31, -64.5138));
#192 = ADVANCED_FACE('', (#193), #204, .T.);
#193 = FACE_OUTER_BOUND('', #194, .T.);
#194 = EDGE_LOOP('', (#195, #201, #202, #203));
#195 = ORIENTED_EDGE('', *, *, #196, .T.);
#196 = EDGE_CURVE('', #152, #133, #197, .T.);
#197 = LINE('', #198, #199);
#198 = CARTESIAN_POINT('', (-10.0000000000003, 7.35075475095885E-15, -124.85));
#199 = VECTOR('', #200, 0.212132034355979);
#200 = DIRECTION('', (0.150000000000015, -7.30207425591946E-15, -0.150000000000006));
#201 = ORIENTED_EDGE('', *, *, #132, .F.);
#202 = ORIENTED_EDGE('', *, *, #196, .F.);
#203 = ORIENTED_EDGE('', *, *, #159, .F.);
#204 = (
   BOUNDED_SURFACE ()
   B_SPLINE_SURFACE (2, 1, ((#205, #206), (#207, #208), (#209, #210), (#211, #212), (#213, #214), (#215, #216), (#217, #218), (#219, #220), (#221, #222)), .UNSPECIFIED., .T., .F., .U.)
   B_SPLINE_SURFACE_WITH_KNOTS ((3, 2, 2, 2, 3), (2, 2), (0., 0.25, 0.5, 0.75, 1.), (0., 1.), .UNSPECIFIED.)
   GEOMETRIC_REPRESENTATION_ITEM ()
   RATIONAL_B_SPLINE_SURFACE (((1., 1.), (0.707106781186548, 0.707106781186548), (1., 1.), (0.707106781186548, 0.707106781186548), (1., 1.), (0.707106781186548, 0.707106781186548), (1., 1.), (0.707106781186548, 0.707106781186548), (1., 1.)))
   REPRESENTATION_ITEM ('')
   SURFACE ()
);
#205 = CARTESIAN_POINT('', (-9.84900000000029, 0., -125.001));
#206 = CARTESIAN_POINT('', (-10.0010000000003, 7.39943524599854E-15, -124.849));
#207 = CARTESIAN_POINT('', (-9.84900000000029, -9.84900000000029, -125.001));
#208 = CARTESIAN_POINT('', (-10.0010000000003, -10.0010000000003, -124.849));
#209 = CARTESIAN_POINT('', (-4.46110232681255E-15, -9.84900000000029, -125.001));
#210 = CARTESIAN_POINT('', (-4.54237292595858E-15, -10.0010000000003, -124.849));
#211 = CARTESIAN_POINT('', (9.84900000000028, -9.8490000000003, -125.001));
#212 = CARTESIAN_POINT('', (10.0010000000003, -10.0010000000003, -124.849));
#213 = CARTESIAN_POINT('', (9.84900000000029, -1.05320280393316E-14, -125.001));
#214 = CARTESIAN_POINT('', (10.0010000000003, -3.2951339916251E-15, -124.849));
#215 = CARTESIAN_POINT('', (9.8490000000003, 9.84900000000028, -125.001));
#216 = CARTESIAN_POINT('', (10.0010000000003, 10.0010000000003, -124.849));
#217 = CARTESIAN_POINT('', (7.27708034499929E-15, 9.84900000000028, -125.001));
#218 = CARTESIAN_POINT('', (7.37696557549237E-15, 10.0010000000003, -124.849));
#219 = CARTESIAN_POINT('', (-9.84900000000028, 9.84900000000029, -125.001));
#220 = CARTESIAN_POINT('', (-10.0010000000003, 10.0010000000003, -124.849));
#221 = CARTESIAN_POINT('', (-9.84900000000029, 0., -125.001));
#222 = CARTESIAN_POINT('', (-10.0010000000003, 7.39943524599854E-15, -124.849));
#223 = ADVANCED_FACE('', (#224), #227, .T.);
#224 = FACE_OUTER_BOUND('', #225, .T.);
#225 = EDGE_LOOP('', (#226));
#226 = ORIENTED_EDGE('', *, *, #167, .T.);
#227 = B_SPLINE_SURFACE_WITH_KNOTS('', 1, 1, ((#228, #229), (#230, #231)), .UNSPECIFIED., .F., .F., .U., (2, 2), (2, 2), (-10.0010000000003, 10.0010000000003), (-10.0010000000003, 10.0010000000003), .UNSPECIFIED.);
#228 = CARTESIAN_POINT('', (-10.0010000000003, -10.0010000000003, -70.));
#229 = CARTESIAN_POINT('', (-10.0010000000003, 10.0010000000003, -70.));
#230 = CARTESIAN_POINT('', (10.0010000000003, -10.0010000000003, -70.));
#231 = CARTESIAN_POINT('', (10.0010000000003, 10.0010000000003, -70.));
#232 = PRESENTATION_STYLE_ASSIGNMENT((#233));
#233 = SURFACE_STYLE_USAGE(.POSITIVE., #234);
#234 = SURFACE_SIDE_STYLE('', (#235));
#235 = SURFACE_STYLE_FILL_AREA(#236);
#236 = FILL_AREA_STYLE('', (#237));
#237 = FILL_AREA_STYLE_COLOUR('', #238);
#238 = COLOUR_RGB('', 0.8, 0.8, 0.8);
#239 = STYLED_ITEM('', (#232), #126);
#240 = TRIMMED_CURVE('cutting part line', #241, (#245), (#246), .T., .CARTESIAN.);
#241 = LINE('', #242, #243);
#242 = CARTESIAN_POINT('', (-1.19348975147204E-15, 0., -125.));
#243 = VECTOR('', #244, 9.85000000000028);
#244 = DIRECTION('', (9.85000000000028, 0., 0.));
#245 = CARTESIAN_POINT('', (-1.19348975147204E-15, 0., -125.));
#246 = CARTESIAN_POINT('', (9.85000000000028, 0., -125.));
#247 = TRIMMED_CURVE('cutting part line', #248, (#252), (#253), .T., .CARTESIAN.);
#248 = LINE('', #249, #250);
#249 = CARTESIAN_POINT('', (9.85000000000005, -4.59997915936441E-15, -125.));
#250 = VECTOR('', #251, 0.212132034356673);
#251 = DIRECTION('', (0.1500000000005, 7.22995653264307E-15, 0.150000000000503));
#252 = CARTESIAN_POINT('', (9.85000000000005, -4.59997915936441E-15, -125.));
#253 = CARTESIAN_POINT('', (10.0000000000006, 2.62997737327866E-15, -124.85));
#254 = TRIMMED_CURVE('cutting part line', #255, (#259), (#260), .T., .CARTESIAN.);
#255 = LINE('', #256, #257);
#256 = CARTESIAN_POINT('', (10.0000000000003, 0., -124.85));
#257 = VECTOR('', #258, 54.85);
#258 = DIRECTION('', (0., 0., 54.85));
#259 = CARTESIAN_POINT('', (10.0000000000003, 0., -124.85));
#260 = CARTESIAN_POINT('', (10.0000000000003, 0., -70.));
#261 = TRIMMED_CURVE('cutting part line', #262, (#266), (#267), .T., .CARTESIAN.);
#262 = LINE('', #263, #264);
#263 = CARTESIAN_POINT('', (10.0000000000003, 0., -70.));
#264 = VECTOR('', #265, 10.0000000000003);
#265 = DIRECTION('', (-10.0000000000003, 0., 0.));
#266 = CARTESIAN_POINT('', (10.0000000000003, 0., -70.));
#267 = CARTESIAN_POINT('', (2.77555756156289E-17, 0., -70.));
#268 = TRIMMED_CURVE('cutting part line', #269, (#273), (#274), .T., .CARTESIAN.);
#269 = LINE('', #270, #271);
#270 = CARTESIAN_POINT('', (0., 0., -70.));
#271 = VECTOR('', #272, 55.);
#272 = DIRECTION('', (0., 0., -55.));
#273 = CARTESIAN_POINT('', (0., 0., -70.));
#274 = CARTESIAN_POINT('', (0., 0., -125.));
#275 = COMPOSITE_CURVE('cutting part line', (#276, #277, #278, #279, #280), .U.);
#276 = COMPOSITE_CURVE_SEGMENT(.CONTINUOUS., .T., #240);
#277 = COMPOSITE_CURVE_SEGMENT(.CONTINUOUS., .T., #247);
#278 = COMPOSITE_CURVE_SEGMENT(.CONTINUOUS., .T., #254);
#279 = COMPOSITE_CURVE_SEGMENT(.CONTINUOUS., .T., #261);
#280 = COMPOSITE_CURVE_SEGMENT(.CONTINUOUS., .T., #268);
#281 = GEOMETRIC_SET('', (#275, #324));
#282 = PRESENTATION_STYLE_ASSIGNMENT((#283));
#283 = CURVE_STYLE('', #285, POSITIVE_LENGTH_MEASURE(1.E-6), #284);
#284 = COLOUR_RGB('', 0., 0., 1.);
#285 = DRAUGHTING_PRE_DEFINED_CURVE_FONT('continuous');
#286 = STYLED_ITEM('', (#282), #275);
#287 = PRESENTATION_STYLE_ASSIGNMENT((#288));
#288 = CURVE_STYLE('', #290, POSITIVE_LENGTH_MEASURE(1.E-6), #289);
#289 = COLOUR_RGB('', 0., 0., 1.);
#290 = DRAUGHTING_PRE_DEFINED_CURVE_FONT('continuous');
#291 = OVER_RIDING_STYLED_ITEM('', (#287), #240, #286);
#292 = PRESENTATION_STYLE_ASSIGNMENT((#293));
#293 = CURVE_STYLE('', #295, POSITIVE_LENGTH_MEASURE(1.E-6), #294);
#294 = COLOUR_RGB('', 0., 0., 1.);
#295 = DRAUGHTING_PRE_DEFINED_CURVE_FONT('continuous');
#296 = OVER_RIDING_STYLED_ITEM('', (#292), #247, #286);
#297 = PRESENTATION_STYLE_ASSIGNMENT((#298));
#298 = CURVE_STYLE('', #300, POSITIVE_LENGTH_MEASURE(1.E-6), #299);
#299 = COLOUR_RGB('', 0., 0., 1.);
#300 = DRAUGHTING_PRE_DEFINED_CURVE_FONT('continuous');
#301 = OVER_RIDING_STYLED_ITEM('', (#297), #254, #286);
#302 = PRESENTATION_STYLE_ASSIGNMENT((#303));
#303 = CURVE_STYLE('', #305, POSITIVE_LENGTH_MEASURE(1.E-6), #304);
#304 = COLOUR_RGB('', 0., 0., 1.);
#305 = DRAUGHTING_PRE_DEFINED_CURVE_FONT('continuous');
#306 = OVER_RIDING_STYLED_ITEM('', (#302), #261, #286);
#307 = PRESENTATION_STYLE_ASSIGNMENT((#308));
#308 = CURVE_STYLE('', #310, POSITIVE_LENGTH_MEASURE(1.E-6), #309);
#309 = COLOUR_RGB('', 0., 0., 1.);
#310 = DRAUGHTING_PRE_DEFINED_CURVE_FONT('continuous');
#311 = OVER_RIDING_STYLED_ITEM('', (#307), #268, #286);
#312 = AXIS2_PLACEMENT_3D('MCS', #313, #314, #315);
#313 = CARTESIAN_POINT('', (0., 0., -50.));
#314 = DIRECTION('', (0., 0., 1.));
#315 = DIRECTION('', (1., 0., 0.));
#316 = AXIS2_PLACEMENT_3D('PCS', #317, #318, #319);
#317 = CARTESIAN_POINT('', (0., 0., 0.));
#318 = DIRECTION('', (0., 0., 1.));
#319 = DIRECTION('', (1., 0., 0.));
#320 = AXIS2_PLACEMENT_3D('CIP', #321, #322, #323);
#321 = CARTESIAN_POINT('', (0., 0., -125.));
#322 = DIRECTION('', (0., 0., 1.));
#323 = DIRECTION('', (1., 0., 0.));
#324 = CARTESIAN_POINT('CRP', (10.0000000000006, 0., -125.));
#325 = (
   GEOMETRIC_REPRESENTATION_CONTEXT (3)
   GLOBAL_UNCERTAINTY_ASSIGNED_CONTEXT ((#327))
   GLOBAL_UNIT_ASSIGNED_CONTEXT ((#326, #328, #329))
   REPRESENTATION_CONTEXT ('', '3D')
);
#326 = (
   LENGTH_UNIT ()
   NAMED_UNIT (*)
   SI_UNIT (.MILLI., .METRE.)
);
#327 = UNCERTAINTY_MEASURE_WITH_UNIT(LENGTH_MEASURE(1.E-6), #326, 'DISTANCE_ACCURACY_VALUE', '');
#328 = (
   NAMED_UNIT (*)
   SI_UNIT ($, .STERADIAN.)
   SOLID_ANGLE_UNIT ()
);
#329 = (
   NAMED_UNIT (*)
   PLANE_ANGLE_UNIT ()
   SI_UNIT ($, .RADIAN.)
);
#330 = SHAPE_REPRESENTATION('', (), #325);
#331 = PRODUCT_DEFINITION_SHAPE('', '', #332);
#332 = PRODUCT_DEFINITION('', '', #335, #339);
#333 = APPLICATION_CONTEXT('configuration controlled 3D designs of mechanical parts and assemblies');
#334 = APPLICATION_PROTOCOL_DEFINITION('International Standard', 'automotive_design', 2002, #333);
#335 = PRODUCT_DEFINITION_FORMATION_WITH_SPECIFIED_SOURCE('', '', #336, .NOT_KNOWN.);
#336 = PRODUCT('1P360-2000-XA-634837507537235773-1', '1P360-2000-XA       1620', '', (#337));
#337 = PRODUCT_CONTEXT('', #333, 'mechanical');
#338 = PRODUCT_RELATED_PRODUCT_CATEGORY('detail', '', (#336));
#339 = PRODUCT_DEFINITION_CONTEXT('part definition', #333, 'design');
#340 = SHAPE_DEFINITION_REPRESENTATION(#331, #330);
#341 = CONSTRUCTIVE_GEOMETRY_REPRESENTATION('supplemental geometry', (#312, #316, #320), #325);
#342 = CONSTRUCTIVE_GEOMETRY_REPRESENTATION_RELATIONSHIP('', '', #330, #341);
#343 = SHAPE_REPRESENTATION_RELATIONSHIP('', '', #330, #344);
#344 = SHAPE_REPRESENTATION('', (#281), #325);
#345 = SHAPE_REPRESENTATION_RELATIONSHIP('', '', #330, #346);
#346 = ADVANCED_BREP_SHAPE_REPRESENTATION('', (#1, #126), #325);
ENDSEC;
END-ISO-10303-21;
