ISO-10303-21;
HEADER;
FILE_DESCRIPTION(('STEP'), '1');
FILE_NAME('C:\\Users\\ds2002\\OneDrive - Sandvik\\HomeShare\\Documents\\Batchrepair\\CorSRT2\\NEW_MILSQ_SLD\\Output\\MOD000000000000000020082274200000.stp', '2019-01-02T12:08:31', (''), (''), 'Express v3.0.0.0', 'Express Tool', 'Unknown');
FILE_SCHEMA(('AUTOMOTIVE_DESIGN'));
ENDSEC;

DATA;
#1 = MANIFOLD_SOLID_BREP('NOCUT', #2);
#2 = CLOSED_SHELL('', (#3, #50, #89, #98, #137));
#3 = ADVANCED_FACE('', (#4), #31, .T.);
#4 = FACE_OUTER_BOUND('', #5, .T.);
#5 = EDGE_LOOP('', (#6, #16, #23, #24));
#6 = ORIENTED_EDGE('', *, *, #7, .T.);
#7 = EDGE_CURVE('', #8, #10, #12, .T.);
#8 = VERTEX_POINT('', #9);
#9 = CARTESIAN_POINT('', (-3., 2.38806125833734E-15, -36.));
#10 = VERTEX_POINT('', #11);
#11 = CARTESIAN_POINT('', (-3., 2.02066721859313E-16, -0.299999999999997));
#12 = LINE('', #13, #14);
#13 = CARTESIAN_POINT('', (-3., 2.38806125833734E-15, -36.));
#14 = VECTOR('', #15, 35.7);
#15 = DIRECTION('', (0., -2.18599453647803E-15, 35.7));
#16 = ORIENTED_EDGE('', *, *, #17, .T.);
#17 = EDGE_CURVE('', #10, #10, #18, .T.);
#18 = CIRCLE('', #19, 3.);
#19 = AXIS2_PLACEMENT_3D('', #20, #21, #22);
#20 = CARTESIAN_POINT('', (1.346145417358E-15, -1.88737914186277E-15, -0.299999999999997));
#21 = DIRECTION('', (-1.85037170770859E-17, 6.01984494166833E-17, -1.));
#22 = DIRECTION('', (-1., 6.96481954574026E-16, 1.85037170770859E-17));
#23 = ORIENTED_EDGE('', *, *, #7, .F.);
#24 = ORIENTED_EDGE('', *, *, #25, .F.);
#25 = EDGE_CURVE('', #8, #8, #26, .T.);
#26 = CIRCLE('', #27, 3.);
#27 = AXIS2_PLACEMENT_3D('', #28, #29, #30);
#28 = CARTESIAN_POINT('', (6.66133814775094E-16, 1.99840144432528E-15, -36.));
#29 = DIRECTION('', (0., 0., -1.));
#30 = DIRECTION('', (-1., 1.29886604670686E-16, 0.));
#31 = (
   BOUNDED_SURFACE ()
   B_SPLINE_SURFACE (1, 2, ((#32, #33, #34, #35, #36, #37, #38, #39, #40), (#41, #42, #43, #44, #45, #46, #47, #48, #49)), .UNSPECIFIED., .F., .T., .U.)
   B_SPLINE_SURFACE_WITH_KNOTS ((2, 2), (3, 2, 2, 2, 3), (0., 1.), (0., 4.7123889803847, 9.4247779607694, 14.1371669411541, 18.8495559215388), .UNSPECIFIED.)
   GEOMETRIC_REPRESENTATION_ITEM ()
   RATIONAL_B_SPLINE_SURFACE (((1., 0.707106781186548, 1., 0.707106781186548, 1., 0.707106781186548, 1., 0.707106781186548, 1.), (1., 0.707106781186548, 1., 0.707106781186548, 1., 0.707106781186548, 1., 0.707106781186548, 1.)))
   REPRESENTATION_ITEM ('')
   SURFACE ()
);
#32 = CARTESIAN_POINT('', (-3., 2.14495701495334E-15, -36.));
#33 = CARTESIAN_POINT('', (-3., 3., -36.));
#34 = CARTESIAN_POINT('', (2.59131156155601E-15, 3., -36.));
#35 = CARTESIAN_POINT('', (3., 3., -36.));
#36 = CARTESIAN_POINT('', (3., -1.66654067274662E-15, -36.));
#37 = CARTESIAN_POINT('', (3., -3., -36.));
#38 = CARTESIAN_POINT('', (-8.52792086399734E-16, -3., -36.));
#39 = CARTESIAN_POINT('', (-3., -3., -36.));
#40 = CARTESIAN_POINT('', (-3., 2.14495701495334E-15, -36.));
#41 = CARTESIAN_POINT('', (-3., 2.02066721859312E-16, -0.299999999999997));
#42 = CARTESIAN_POINT('', (-3., 3., -0.299999999999997));
#43 = CARTESIAN_POINT('', (3.25189426120798E-15, 3., -0.299999999999997));
#44 = CARTESIAN_POINT('', (3., 3., -0.299999999999997));
#45 = CARTESIAN_POINT('', (3., -3.60943096584064E-15, -0.299999999999997));
#46 = CARTESIAN_POINT('', (3., -3., -0.299999999999997));
#47 = CARTESIAN_POINT('', (-1.92209386747767E-16, -3., -0.299999999999997));
#48 = CARTESIAN_POINT('', (-3., -3., -0.299999999999997));
#49 = CARTESIAN_POINT('', (-3., 2.02066721859312E-16, -0.299999999999997));
#50 = ADVANCED_FACE('', (#51), #70, .T.);
#51 = FACE_OUTER_BOUND('', #52, .T.);
#52 = EDGE_LOOP('', (#53, #61, #68, #69));
#53 = ORIENTED_EDGE('', *, *, #54, .T.);
#54 = EDGE_CURVE('', #10, #55, #57, .T.);
#55 = VERTEX_POINT('', #56);
#56 = CARTESIAN_POINT('', (-2.7, 1.65327317884893E-16, 0.));
#57 = LINE('', #58, #59);
#58 = CARTESIAN_POINT('', (-3., 2.02066721859313E-16, -0.299999999999997));
#59 = VECTOR('', #60, 0.424264068711926);
#60 = DIRECTION('', (0.3, -3.673940397442E-17, 0.299999999999997));
#61 = ORIENTED_EDGE('', *, *, #62, .T.);
#62 = EDGE_CURVE('', #55, #55, #63, .T.);
#63 = CIRCLE('', #64, 2.7);
#64 = AXIS2_PLACEMENT_3D('', #65, #66, #67);
#65 = CARTESIAN_POINT('', (9.22872889219661E-16, -1.27675647831893E-15, -8.0118685686509E-32));
#66 = DIRECTION('', (3.03091835913145E-33, 6.12323399573678E-17, -1.));
#67 = DIRECTION('', (-1., 5.34105109705119E-16, 2.96735872912996E-32));
#68 = ORIENTED_EDGE('', *, *, #54, .F.);
#69 = ORIENTED_EDGE('', *, *, #17, .F.);
#70 = (
   BOUNDED_SURFACE ()
   B_SPLINE_SURFACE (1, 2, ((#71, #72, #73, #74, #75, #76, #77, #78, #79), (#80, #81, #82, #83, #84, #85, #86, #87, #88)), .UNSPECIFIED., .F., .T., .U.)
   B_SPLINE_SURFACE_WITH_KNOTS ((2, 2), (3, 2, 2, 2, 3), (0., 1.), (0., 0.25, 0.5, 0.75, 1.), .UNSPECIFIED.)
   GEOMETRIC_REPRESENTATION_ITEM ()
   RATIONAL_B_SPLINE_SURFACE (((1., 0.707106781186548, 1., 0.707106781186548, 1., 0.707106781186548, 1., 0.707106781186548, 1.), (1., 0.707106781186548, 1., 0.707106781186548, 1., 0.707106781186548, 1., 0.707106781186548, 1.)))
   REPRESENTATION_ITEM ('')
   SURFACE ()
);
#71 = CARTESIAN_POINT('', (-3., 1.49129302665284E-15, -0.299999999999997));
#72 = CARTESIAN_POINT('', (-3., 3., -0.299999999999985));
#73 = CARTESIAN_POINT('', (2.34149119846292E-15, 3., -0.299999999999985));
#74 = CARTESIAN_POINT('', (3., 3., -0.299999999999985));
#75 = CARTESIAN_POINT('', (3., -1.34594359183367E-15, -0.299999999999997));
#76 = CARTESIAN_POINT('', (3., -3., -0.300000000000009));
#77 = CARTESIAN_POINT('', (-1.28351380279387E-16, -3., -0.300000000000009));
#78 = CARTESIAN_POINT('', (-3., -3., -0.300000000000009));
#79 = CARTESIAN_POINT('', (-3., 1.49129302665284E-15, -0.299999999999997));
#80 = CARTESIAN_POINT('', (-2.7, 1.65327317884893E-16, -2.18952885050753E-47));
#81 = CARTESIAN_POINT('', (-2.7, 2.7, 1.04916075827078E-14));
#82 = CARTESIAN_POINT('', (2.19962936753859E-15, 2.7, 1.04916075827078E-14));
#83 = CARTESIAN_POINT('', (2.7, 2.7, 1.04916075827078E-14));
#84 = CARTESIAN_POINT('', (2.7, -2.38818563875297E-15, 1.12461399303431E-30));
#85 = CARTESIAN_POINT('', (2.7, -2.7, -1.04916075827078E-14));
#86 = CARTESIAN_POINT('', (-2.32289533294833E-17, -2.7, -1.04916075827078E-14));
#87 = CARTESIAN_POINT('', (-2.7, -2.7, -1.04916075827078E-14));
#88 = CARTESIAN_POINT('', (-2.7, 1.65327317884893E-16, -2.18952885050753E-47));
#89 = ADVANCED_FACE('', (#90), #93, .T.);
#90 = FACE_OUTER_BOUND('', #91, .T.);
#91 = EDGE_LOOP('', (#92));
#92 = ORIENTED_EDGE('', *, *, #62, .F.);
#93 = B_SPLINE_SURFACE_WITH_KNOTS('', 1, 1, ((#94, #95), (#96, #97)), .UNSPECIFIED., .F., .F., .U., (2, 2), (2, 2), (0.0454545454545454, 0.954545454545454), (0.0454545454545454, 0.954545454545454), .UNSPECIFIED.);
#94 = CARTESIAN_POINT('', (2.7, -2.7, -1.65327317884893E-16));
#95 = CARTESIAN_POINT('', (-2.7, -2.7, -1.65327317884893E-16));
#96 = CARTESIAN_POINT('', (2.7, 2.7, 1.65327317884893E-16));
#97 = CARTESIAN_POINT('', (-2.7, 2.7, 1.65327317884893E-16));
#98 = ADVANCED_FACE('', (#99), #118, .T.);
#99 = FACE_OUTER_BOUND('', #100, .T.);
#100 = EDGE_LOOP('', (#101, #110, #116, #117));
#101 = ORIENTED_EDGE('', *, *, #102, .F.);
#102 = EDGE_CURVE('', #103, #103, #105, .T.);
#103 = VERTEX_POINT('', #104);
#104 = CARTESIAN_POINT('', (-3., 2.8473038080176E-15, -43.5));
#105 = CIRCLE('', #106, 3.);
#106 = AXIS2_PLACEMENT_3D('', #107, #108, #109);
#107 = CARTESIAN_POINT('', (9.85322934354826E-16, 2.38697950294409E-15, -43.5));
#108 = DIRECTION('', (0., 0., -1.));
#109 = DIRECTION('', (-1., 1.53441435024504E-16, 0.));
#110 = ORIENTED_EDGE('', *, *, #111, .F.);
#111 = EDGE_CURVE('', #8, #103, #112, .T.);
#112 = LINE('', #113, #114);
#113 = CARTESIAN_POINT('', (-3., 2.38806125833734E-15, -36.));
#114 = VECTOR('', #115, 7.5);
#115 = DIRECTION('', (0., 4.5924254968026E-16, -7.5));
#116 = ORIENTED_EDGE('', *, *, #25, .T.);
#117 = ORIENTED_EDGE('', *, *, #111, .T.);
#118 = (
   BOUNDED_SURFACE ()
   B_SPLINE_SURFACE (2, 1, ((#119, #120), (#121, #122), (#123, #124), (#125, #126), (#127, #128), (#129, #130), (#131, #132), (#133, #134), (#135, #136)), .UNSPECIFIED., .T., .F., .U.)
   B_SPLINE_SURFACE_WITH_KNOTS ((3, 2, 2, 2, 3), (2, 2), (0., 4.7123889803847, 9.4247779607694, 14.1371669411541, 18.8495559215388), (0., 0.36319612590799), .UNSPECIFIED.)
   GEOMETRIC_REPRESENTATION_ITEM ()
   RATIONAL_B_SPLINE_SURFACE (((1., 1.), (0.707106781186548, 0.707106781186548), (1., 1.), (0.707106781186548, 0.707106781186548), (1., 1.), (0.707106781186548, 0.707106781186548), (1., 1.), (0.707106781186548, 0.707106781186548), (1., 1.)))
   REPRESENTATION_ITEM ('')
   SURFACE ()
);
#119 = CARTESIAN_POINT('', (-3., 2.38806125833734E-15, -36.));
#120 = CARTESIAN_POINT('', (-3., 2.72112816572489E-15, -43.5));
#121 = CARTESIAN_POINT('', (-3., 3., -36.));
#122 = CARTESIAN_POINT('', (-3., 3., -43.5));
#123 = CARTESIAN_POINT('', (2.06558636038709E-15, 3., -36.));
#124 = CARTESIAN_POINT('', (2.06558636038709E-15, 3., -43.5));
#125 = CARTESIAN_POINT('', (3., 3., -36.));
#126 = CARTESIAN_POINT('', (3., 3., -43.5));
#127 = CARTESIAN_POINT('', (3., -1.90964491613062E-15, -36.));
#128 = CARTESIAN_POINT('', (3., -1.57657800874307E-15, -43.5));
#129 = CARTESIAN_POINT('', (3., -3., -36.));
#130 = CARTESIAN_POINT('', (3., -3., -43.5));
#131 = CARTESIAN_POINT('', (-1.86472577433666E-15, -3., -36.));
#132 = CARTESIAN_POINT('', (-1.86472577433666E-15, -3., -43.5));
#133 = CARTESIAN_POINT('', (-3., -3., -36.));
#134 = CARTESIAN_POINT('', (-3., -3., -43.5));
#135 = CARTESIAN_POINT('', (-3., 2.38806125833734E-15, -36.));
#136 = CARTESIAN_POINT('', (-3., 2.72112816572489E-15, -43.5));
#137 = ADVANCED_FACE('', (#138), #141, .T.);
#138 = FACE_OUTER_BOUND('', #139, .T.);
#139 = EDGE_LOOP('', (#140));
#140 = ORIENTED_EDGE('', *, *, #102, .T.);
#141 = B_SPLINE_SURFACE_WITH_KNOTS('', 1, 1, ((#142, #143), (#144, #145)), .UNSPECIFIED., .F., .F., .U., (2, 2), (2, 2), (0.487670501678755, 0.539728417981887), (0.460271582018113, 0.512329498321245), .UNSPECIFIED.);
#142 = CARTESIAN_POINT('', (-3.00000000000001, 3.00000000000002, -43.5));
#143 = CARTESIAN_POINT('', (-3.00000000000001, -2.99999999999998, -43.5));
#144 = CARTESIAN_POINT('', (2.99999999999999, 3.00000000000002, -43.5));
#145 = CARTESIAN_POINT('', (2.99999999999999, -2.99999999999998, -43.5));
#146 = DRAUGHTING_MODEL('', (#154, #268, #315, #320, #325, #330, #335, #340), #354);
#147 = PRESENTATION_STYLE_ASSIGNMENT((#148));
#148 = SURFACE_STYLE_USAGE(.POSITIVE., #149);
#149 = SURFACE_SIDE_STYLE('', (#150));
#150 = SURFACE_STYLE_FILL_AREA(#151);
#151 = FILL_AREA_STYLE('', (#152));
#152 = FILL_AREA_STYLE_COLOUR('', #153);
#153 = COLOUR_RGB('', 0.50196078431373, 0.50196078431373, 0.50196078431373);
#154 = STYLED_ITEM('', (#147), #1);
#155 = MANIFOLD_SOLID_BREP('CUT', #156);
#156 = CLOSED_SHELL('', (#157, #174, #213, #252));
#157 = ADVANCED_FACE('', (#158), #169, .T.);
#158 = FACE_OUTER_BOUND('', #159, .T.);
#159 = EDGE_LOOP('', (#160));
#160 = ORIENTED_EDGE('', *, *, #161, .F.);
#161 = EDGE_CURVE('', #162, #162, #164, .T.);
#162 = VERTEX_POINT('', #163);
#163 = CARTESIAN_POINT('', (-3., 2.8473038080176E-15, -43.5));
#164 = CIRCLE('', #165, 3.);
#165 = AXIS2_PLACEMENT_3D('', #166, #167, #168);
#166 = CARTESIAN_POINT('', (9.85322934354826E-16, 2.38697950294409E-15, -43.5));
#167 = DIRECTION('', (0., 0., -1.));
#168 = DIRECTION('', (-1., 1.53441435024504E-16, 0.));
#169 = B_SPLINE_SURFACE_WITH_KNOTS('', 1, 1, ((#170, #171), (#172, #173)), .UNSPECIFIED., .F., .F., .U., (2, 2), (2, 2), (0.460271582018113, 0.512329498321245), (0.487670501678755, 0.539728417981887), .UNSPECIFIED.);
#170 = CARTESIAN_POINT('', (-3., 3.00000000000001, -43.5));
#171 = CARTESIAN_POINT('', (3., 3.00000000000001, -43.5));
#172 = CARTESIAN_POINT('', (-3., -3.00000000000001, -43.5));
#173 = CARTESIAN_POINT('', (3., -3.00000000000001, -43.5));
#174 = ADVANCED_FACE('', (#175), #194, .T.);
#175 = FACE_OUTER_BOUND('', #176, .T.);
#176 = EDGE_LOOP('', (#177, #178, #186, #193));
#177 = ORIENTED_EDGE('', *, *, #161, .T.);
#178 = ORIENTED_EDGE('', *, *, #179, .T.);
#179 = EDGE_CURVE('', #162, #180, #182, .T.);
#180 = VERTEX_POINT('', #181);
#181 = CARTESIAN_POINT('', (-3., 3.65250907845698E-15, -56.65));
#182 = LINE('', #183, #184);
#183 = CARTESIAN_POINT('', (-3., 2.8473038080176E-15, -43.5));
#184 = VECTOR('', #185, 13.15);
#185 = DIRECTION('', (0., 8.0520527043938E-16, -13.15));
#186 = ORIENTED_EDGE('', *, *, #187, .F.);
#187 = EDGE_CURVE('', #180, #180, #188, .T.);
#188 = CIRCLE('', #189, 3.);
#189 = AXIS2_PLACEMENT_3D('', #190, #191, #192);
#190 = CARTESIAN_POINT('', (8.32667268468867E-17, -5.55111512312578E-17, -56.65));
#191 = DIRECTION('', (0., 0., -1.));
#192 = DIRECTION('', (-1., 1.23600674322941E-15, 0.));
#193 = ORIENTED_EDGE('', *, *, #179, .F.);
#194 = (
   BOUNDED_SURFACE ()
   B_SPLINE_SURFACE (2, 1, ((#195, #196), (#197, #198), (#199, #200), (#201, #202), (#203, #204), (#205, #206), (#207, #208), (#209, #210), (#211, #212)), .UNSPECIFIED., .T., .F., .U.)
   B_SPLINE_SURFACE_WITH_KNOTS ((3, 2, 2, 2, 3), (2, 2), (0., 4.7123889803847, 9.4247779607694, 14.1371669411541, 18.8495559215388), (0.36319612590799, 1.), .UNSPECIFIED.)
   GEOMETRIC_REPRESENTATION_ITEM ()
   RATIONAL_B_SPLINE_SURFACE (((1., 1.), (0.707106781186548, 0.707106781186548), (1., 1.), (0.707106781186548, 0.707106781186548), (1., 1.), (0.707106781186548, 0.707106781186548), (1., 1.), (0.707106781186548, 0.707106781186548), (1., 1.)))
   REPRESENTATION_ITEM ('')
   SURFACE ()
);
#195 = CARTESIAN_POINT('', (-3., 2.8473038080176E-15, -43.5));
#196 = CARTESIAN_POINT('', (-3., 2.40321459816754E-15, -56.65));
#197 = CARTESIAN_POINT('', (-3., 3., -43.5));
#198 = CARTESIAN_POINT('', (-3., 3., -56.65));
#199 = CARTESIAN_POINT('', (2.63585121252987E-15, 3., -43.5));
#200 = CARTESIAN_POINT('', (2.63585121252987E-15, 3., -56.65));
#201 = CARTESIAN_POINT('', (3., 3., -43.5));
#202 = CARTESIAN_POINT('', (3., 3., -56.65));
#203 = CARTESIAN_POINT('', (3., -1.70275365103578E-15, -43.5));
#204 = CARTESIAN_POINT('', (3., -2.14684286088585E-15, -56.65));
#205 = CARTESIAN_POINT('', (3., -3., -43.5));
#206 = CARTESIAN_POINT('', (3., -3., -56.65));
#207 = CARTESIAN_POINT('', (-1.54681220677931E-15, -3., -43.5));
#208 = CARTESIAN_POINT('', (-1.54681220677931E-15, -3., -56.65));
#209 = CARTESIAN_POINT('', (-3., -3., -43.5));
#210 = CARTESIAN_POINT('', (-3., -3., -56.65));
#211 = CARTESIAN_POINT('', (-3., 2.8473038080176E-15, -43.5));
#212 = CARTESIAN_POINT('', (-3., 2.40321459816754E-15, -56.65));
#213 = ADVANCED_FACE('', (#214), #233, .T.);
#214 = FACE_OUTER_BOUND('', #215, .T.);
#215 = EDGE_LOOP('', (#216, #224, #225, #226));
#216 = ORIENTED_EDGE('', *, *, #217, .F.);
#217 = EDGE_CURVE('', #180, #218, #220, .T.);
#218 = VERTEX_POINT('', #219);
#219 = CARTESIAN_POINT('', (-2.7549273616266, 3.65893402633493E-15, -57.));
#220 = LINE('', #221, #222);
#221 = CARTESIAN_POINT('', (-3., 3.65250907845698E-15, -56.65));
#222 = VECTOR('', #223, 0.427271106066512);
#223 = DIRECTION('', (0.2450726383734, 6.42494787794968E-18, -0.350000000000001));
#224 = ORIENTED_EDGE('', *, *, #187, .T.);
#225 = ORIENTED_EDGE('', *, *, #217, .T.);
#226 = ORIENTED_EDGE('', *, *, #227, .F.);
#227 = EDGE_CURVE('', #218, #218, #228, .T.);
#228 = CIRCLE('', #229, 2.7549273616266);
#229 = AXIS2_PLACEMENT_3D('', #230, #231, #232);
#230 = CARTESIAN_POINT('', (4.9960036108132E-16, 2.77555756156289E-16, -57.));
#231 = DIRECTION('', (0., 0., -1.));
#232 = DIRECTION('', (-1., 1.22739289510057E-15, 0.));
#233 = (
   BOUNDED_SURFACE ()
   B_SPLINE_SURFACE (2, 1, ((#234, #235), (#236, #237), (#238, #239), (#240, #241), (#242, #243), (#244, #245), (#246, #247), (#248, #249), (#250, #251)), .UNSPECIFIED., .T., .F., .U.)
   B_SPLINE_SURFACE_WITH_KNOTS ((3, 2, 2, 2, 3), (2, 2), (0., 0.25, 0.5, 0.75, 1.), (0., 1.), .UNSPECIFIED.)
   GEOMETRIC_REPRESENTATION_ITEM ()
   RATIONAL_B_SPLINE_SURFACE (((1., 1.), (0.707106781186548, 0.707106781186548), (1., 1.), (0.707106781186548, 0.707106781186548), (1., 1.), (0.707106781186548, 0.707106781186548), (1., 1.), (0.707106781186548, 0.707106781186548), (1., 1.)))
   REPRESENTATION_ITEM ('')
   SURFACE ()
);
#234 = CARTESIAN_POINT('', (-3., 3.65250907845698E-15, -56.65));
#235 = CARTESIAN_POINT('', (-2.7549273616266, 1.84751427940537E-15, -57.));
#236 = CARTESIAN_POINT('', (-3., 3., -56.65));
#237 = CARTESIAN_POINT('', (-2.7549273616266, 2.7549273616266, -57.));
#238 = CARTESIAN_POINT('', (2.34471124615191E-15, 3., -56.65));
#239 = CARTESIAN_POINT('', (2.22005735514516E-15, 2.7549273616266, -57.));
#240 = CARTESIAN_POINT('', (3., 3., -56.65));
#241 = CARTESIAN_POINT('', (2.7549273616266, 2.7549273616266, -57.));
#242 = CARTESIAN_POINT('', (3., 6.00665547475274E-16, -56.65));
#243 = CARTESIAN_POINT('', (2.7549273616266, -9.55021469562843E-16, -57.));
#244 = CARTESIAN_POINT('', (3., -3., -56.65));
#245 = CARTESIAN_POINT('', (2.7549273616266, -2.7549273616266, -57.));
#246 = CARTESIAN_POINT('', (-3.39738245085594E-16, -3., -56.65));
#247 = CARTESIAN_POINT('', (-2.45097096293106E-16, -2.7549273616266, -57.));
#248 = CARTESIAN_POINT('', (-3., -3., -56.65));
#249 = CARTESIAN_POINT('', (-2.7549273616266, -2.7549273616266, -57.));
#250 = CARTESIAN_POINT('', (-3., 3.65250907845698E-15, -56.65));
#251 = CARTESIAN_POINT('', (-2.7549273616266, 1.84751427940537E-15, -57.));
#252 = ADVANCED_FACE('', (#253), #256, .T.);
#253 = FACE_OUTER_BOUND('', #254, .T.);
#254 = EDGE_LOOP('', (#255));
#255 = ORIENTED_EDGE('', *, *, #227, .T.);
#256 = B_SPLINE_SURFACE_WITH_KNOTS('', 1, 1, ((#257, #258), (#259, #260)), .UNSPECIFIED., .F., .F., .U., (2, 2), (2, 2), (0.0454545454545454, 0.954545454545454), (0.0454545454545454, 0.954545454545454), .UNSPECIFIED.);
#257 = CARTESIAN_POINT('', (2.7549273616266, -2.7549273616266, -57.));
#258 = CARTESIAN_POINT('', (2.7549273616266, 2.75492736162661, -57.));
#259 = CARTESIAN_POINT('', (-2.7549273616266, -2.7549273616266, -57.));
#260 = CARTESIAN_POINT('', (-2.7549273616266, 2.75492736162661, -57.));
#261 = PRESENTATION_STYLE_ASSIGNMENT((#262));
#262 = SURFACE_STYLE_USAGE(.POSITIVE., #263);
#263 = SURFACE_SIDE_STYLE('', (#264));
#264 = SURFACE_STYLE_FILL_AREA(#265);
#265 = FILL_AREA_STYLE('', (#266));
#266 = FILL_AREA_STYLE_COLOUR('', #267);
#267 = COLOUR_RGB('', 0.8, 0.8, 0.8);
#268 = STYLED_ITEM('', (#261), #155);
#269 = TRIMMED_CURVE('cutting part line', #270, (#274), (#275), .T., .CARTESIAN.);
#270 = LINE('', #271, #272);
#271 = CARTESIAN_POINT('', (-2.35922392732846E-16, 0., -57.));
#272 = VECTOR('', #273, 2.7549273616266);
#273 = DIRECTION('', (2.7549273616266, 0., 0.));
#274 = CARTESIAN_POINT('', (-2.35922392732846E-16, 0., -57.));
#275 = CARTESIAN_POINT('', (2.7549273616266, 0., -57.));
#276 = TRIMMED_CURVE('cutting part line', #277, (#281), (#282), .T., .CARTESIAN.);
#277 = LINE('', #278, #279);
#278 = CARTESIAN_POINT('', (2.7549273616266, 2.91803329873323E-16, -57.));
#279 = VECTOR('', #280, 0.42727110606651);
#280 = DIRECTION('', (0.245072638373398, 1.66508089842153E-15, 0.350000000000001));
#281 = CARTESIAN_POINT('', (2.7549273616266, 2.91803329873323E-16, -57.));
#282 = CARTESIAN_POINT('', (3., 1.95688422829485E-15, -56.65));
#283 = TRIMMED_CURVE('cutting part line', #284, (#288), (#289), .T., .CARTESIAN.);
#284 = LINE('', #285, #286);
#285 = CARTESIAN_POINT('', (3., -4.44021572912408E-16, -56.65));
#286 = VECTOR('', #287, 13.15);
#287 = DIRECTION('', (0., 4.44021572912408E-16, 13.15));
#288 = CARTESIAN_POINT('', (3., -4.44021572912408E-16, -56.65));
#289 = CARTESIAN_POINT('', (3., 0., -43.5));
#290 = TRIMMED_CURVE('cutting part line', #291, (#295), (#296), .T., .CARTESIAN.);
#291 = LINE('', #292, #293);
#292 = CARTESIAN_POINT('', (3., 0., -43.5));
#293 = VECTOR('', #294, 3.);
#294 = DIRECTION('', (-3., 0., 0.));
#295 = CARTESIAN_POINT('', (3., 0., -43.5));
#296 = CARTESIAN_POINT('', (6.93889390390723E-18, 0., -43.5));
#297 = TRIMMED_CURVE('cutting part line', #298, (#302), (#303), .T., .CARTESIAN.);
#298 = LINE('', #299, #300);
#299 = CARTESIAN_POINT('', (0., 0., -43.5));
#300 = VECTOR('', #301, 13.5);
#301 = DIRECTION('', (0., 0., -13.5));
#302 = CARTESIAN_POINT('', (0., 0., -43.5));
#303 = CARTESIAN_POINT('', (0., 0., -57.));
#304 = COMPOSITE_CURVE('cutting part line', (#305, #306, #307, #308, #309), .U.);
#305 = COMPOSITE_CURVE_SEGMENT(.CONTINUOUS., .T., #269);
#306 = COMPOSITE_CURVE_SEGMENT(.CONTINUOUS., .T., #276);
#307 = COMPOSITE_CURVE_SEGMENT(.CONTINUOUS., .T., #283);
#308 = COMPOSITE_CURVE_SEGMENT(.CONTINUOUS., .T., #290);
#309 = COMPOSITE_CURVE_SEGMENT(.CONTINUOUS., .T., #297);
#310 = GEOMETRIC_SET('', (#304, #353));
#311 = PRESENTATION_STYLE_ASSIGNMENT((#312));
#312 = CURVE_STYLE('', #314, POSITIVE_LENGTH_MEASURE(1.E-6), #313);
#313 = COLOUR_RGB('', 0., 0., 1.);
#314 = DRAUGHTING_PRE_DEFINED_CURVE_FONT('continuous');
#315 = STYLED_ITEM('', (#311), #304);
#316 = PRESENTATION_STYLE_ASSIGNMENT((#317));
#317 = CURVE_STYLE('', #319, POSITIVE_LENGTH_MEASURE(1.E-6), #318);
#318 = COLOUR_RGB('', 0., 0., 1.);
#319 = DRAUGHTING_PRE_DEFINED_CURVE_FONT('continuous');
#320 = OVER_RIDING_STYLED_ITEM('', (#316), #269, #315);
#321 = PRESENTATION_STYLE_ASSIGNMENT((#322));
#322 = CURVE_STYLE('', #324, POSITIVE_LENGTH_MEASURE(1.E-6), #323);
#323 = COLOUR_RGB('', 0., 0., 1.);
#324 = DRAUGHTING_PRE_DEFINED_CURVE_FONT('continuous');
#325 = OVER_RIDING_STYLED_ITEM('', (#321), #276, #315);
#326 = PRESENTATION_STYLE_ASSIGNMENT((#327));
#327 = CURVE_STYLE('', #329, POSITIVE_LENGTH_MEASURE(1.E-6), #328);
#328 = COLOUR_RGB('', 0., 0., 1.);
#329 = DRAUGHTING_PRE_DEFINED_CURVE_FONT('continuous');
#330 = OVER_RIDING_STYLED_ITEM('', (#326), #283, #315);
#331 = PRESENTATION_STYLE_ASSIGNMENT((#332));
#332 = CURVE_STYLE('', #334, POSITIVE_LENGTH_MEASURE(1.E-6), #333);
#333 = COLOUR_RGB('', 0., 0., 1.);
#334 = DRAUGHTING_PRE_DEFINED_CURVE_FONT('continuous');
#335 = OVER_RIDING_STYLED_ITEM('', (#331), #290, #315);
#336 = PRESENTATION_STYLE_ASSIGNMENT((#337));
#337 = CURVE_STYLE('', #339, POSITIVE_LENGTH_MEASURE(1.E-6), #338);
#338 = COLOUR_RGB('', 0., 0., 1.);
#339 = DRAUGHTING_PRE_DEFINED_CURVE_FONT('continuous');
#340 = OVER_RIDING_STYLED_ITEM('', (#336), #297, #315);
#341 = AXIS2_PLACEMENT_3D('MCS', #342, #343, #344);
#342 = CARTESIAN_POINT('', (0., 0., -34.));
#343 = DIRECTION('', (0., 0., 1.));
#344 = DIRECTION('', (1., 0., 0.));
#345 = AXIS2_PLACEMENT_3D('PCS', #346, #347, #348);
#346 = CARTESIAN_POINT('', (0., 0., 0.));
#347 = DIRECTION('', (0., 0., 1.));
#348 = DIRECTION('', (1., 0., 0.));
#349 = AXIS2_PLACEMENT_3D('CIP', #350, #351, #352);
#350 = CARTESIAN_POINT('', (0., 0., -57.));
#351 = DIRECTION('', (0., 0., 1.));
#352 = DIRECTION('', (1., 0., 0.));
#353 = CARTESIAN_POINT('CRP', (3., 0., -57.));
#354 = (
   GEOMETRIC_REPRESENTATION_CONTEXT (3)
   GLOBAL_UNCERTAINTY_ASSIGNED_CONTEXT ((#356))
   GLOBAL_UNIT_ASSIGNED_CONTEXT ((#355, #357, #358))
   REPRESENTATION_CONTEXT ('', '3D')
);
#355 = (
   LENGTH_UNIT ()
   NAMED_UNIT (*)
   SI_UNIT (.MILLI., .METRE.)
);
#356 = UNCERTAINTY_MEASURE_WITH_UNIT(LENGTH_MEASURE(1.E-6), #355, 'DISTANCE_ACCURACY_VALUE', '');
#357 = (
   NAMED_UNIT (*)
   SI_UNIT ($, .STERADIAN.)
   SOLID_ANGLE_UNIT ()
);
#358 = (
   NAMED_UNIT (*)
   PLANE_ANGLE_UNIT ()
   SI_UNIT ($, .RADIAN.)
);
#359 = SHAPE_REPRESENTATION('', (), #354);
#360 = PRODUCT_DEFINITION_SHAPE('', '', #361);
#361 = PRODUCT_DEFINITION('', '', #364, #368);
#362 = APPLICATION_CONTEXT('configuration controlled 3D designs of mechanical parts and assemblies');
#363 = APPLICATION_PROTOCOL_DEFINITION('International Standard', 'automotive_design', 2002, #362);
#364 = PRODUCT_DEFINITION_FORMATION_WITH_SPECIFIED_SOURCE('', '', #365, .NOT_KNOWN.);
#365 = PRODUCT('product-name', '1P340-0600-XB       1640', '', (#366));
#366 = PRODUCT_CONTEXT('', #362, 'mechanical');
#367 = PRODUCT_RELATED_PRODUCT_CATEGORY('detail', '', (#365));
#368 = PRODUCT_DEFINITION_CONTEXT('part definition', #362, 'design');
#369 = SHAPE_DEFINITION_REPRESENTATION(#360, #359);
#370 = CONSTRUCTIVE_GEOMETRY_REPRESENTATION('supplemental geometry', (#341, #345, #349), #354);
#371 = CONSTRUCTIVE_GEOMETRY_REPRESENTATION_RELATIONSHIP('', '', #359, #370);
#372 = SHAPE_REPRESENTATION_RELATIONSHIP('', '', #359, #373);
#373 = SHAPE_REPRESENTATION('', (#310), #354);
#374 = SHAPE_REPRESENTATION_RELATIONSHIP('', '', #359, #375);
#375 = ADVANCED_BREP_SHAPE_REPRESENTATION('', (#1, #155), #354);
ENDSEC;
END-ISO-10303-21;
