ISO-10303-21;
HEADER;
/* Generated by software containing ST-Developer
 * from STEP Tools, Inc. (www.steptools.com) 
 */
/* OPTION: using custom schema-name function */

FILE_DESCRIPTION(
/* description */ ('3-D model version:1'),
/* implementation_level */ '2;1');

FILE_NAME(
/* name */ '1C050-0150-045-XA',
/* time_stamp */ '2014-04-17T16:47:02+02:00',
/* author */ ('InteractiveCad'),
/* organization */ ('AB Sandvik Coromant'),
/* preprocessor_version */ 'ST-DEVELOPER v11',
/* originating_system */ 'SIEMENS UGS NX 6.0',
/* authorisation */ '');

FILE_SCHEMA (('AP203_CONFIGURATION_CONTROLLED_3D_DESIGN_OF_MECHANICAL_PARTS_AND_ASSEMBLIES_MIM_LF'));
ENDSEC;

DATA;
#10=GEOMETRICALLY_BOUNDED_WIREFRAME_SHAPE_REPRESENTATION(
'pr987B8A67jd-None',(#97),#226);
#11=SHAPE_REPRESENTATION_RELATIONSHIP('None',
'relationship between pr987B8A67jd-None and pr987B8A67jd-None',#96,#13);
#12=SHAPE_REPRESENTATION_RELATIONSHIP('None',
'relationship between pr987B8A67jd-None and pr987B8A67jd-None',#96,#10);
#13=ADVANCED_BREP_SHAPE_REPRESENTATION('pr987B8A67jd-None',(#109,#110),#226);
#14=CC_DESIGN_APPROVAL(#26,(#84));
#15=CC_DESIGN_APPROVAL(#27,(#86));
#16=CC_DESIGN_APPROVAL(#28,(#33));
#17=APPROVAL_PERSON_ORGANIZATION(#71,#26,#20);
#18=APPROVAL_PERSON_ORGANIZATION(#72,#27,#21);
#19=APPROVAL_PERSON_ORGANIZATION(#73,#28,#22);
#20=APPROVAL_ROLE('approver');
#21=APPROVAL_ROLE('approver');
#22=APPROVAL_ROLE('approver');
#23=APPROVAL_DATE_TIME(#41,#26);
#24=APPROVAL_DATE_TIME(#42,#27);
#25=APPROVAL_DATE_TIME(#43,#28);
#26=APPROVAL(#29,' ');
#27=APPROVAL(#30,' ');
#28=APPROVAL(#31,' ');
#29=APPROVAL_STATUS('not_yet_approved');
#30=APPROVAL_STATUS('not_yet_approved');
#31=APPROVAL_STATUS('not_yet_approved');
#32=CC_DESIGN_SECURITY_CLASSIFICATION(#33,(#86));
#33=SECURITY_CLASSIFICATION(' ',' ',#34);
#34=SECURITY_CLASSIFICATION_LEVEL('confidential');
#35=CC_DESIGN_DATE_AND_TIME_ASSIGNMENT(#39,#37,(#84));
#36=CC_DESIGN_DATE_AND_TIME_ASSIGNMENT(#40,#38,(#33));
#37=DATE_TIME_ROLE('creation_date');
#38=DATE_TIME_ROLE('classification_date');
#39=DATE_AND_TIME(#54,#44);
#40=DATE_AND_TIME(#55,#45);
#41=DATE_AND_TIME(#56,#46);
#42=DATE_AND_TIME(#57,#47);
#43=DATE_AND_TIME(#58,#48);
#44=LOCAL_TIME(0,0,0.,#49);
#45=LOCAL_TIME(0,0,0.,#50);
#46=LOCAL_TIME(0,0,0.,#51);
#47=LOCAL_TIME(0,0,0.,#52);
#48=LOCAL_TIME(0,0,0.,#53);
#49=COORDINATED_UNIVERSAL_TIME_OFFSET(0,0,.BEHIND.);
#50=COORDINATED_UNIVERSAL_TIME_OFFSET(0,0,.BEHIND.);
#51=COORDINATED_UNIVERSAL_TIME_OFFSET(0,0,.BEHIND.);
#52=COORDINATED_UNIVERSAL_TIME_OFFSET(0,0,.BEHIND.);
#53=COORDINATED_UNIVERSAL_TIME_OFFSET(0,0,.BEHIND.);
#54=CALENDAR_DATE(0,1,1);
#55=CALENDAR_DATE(0,1,1);
#56=CALENDAR_DATE(0,1,1);
#57=CALENDAR_DATE(0,1,1);
#58=CALENDAR_DATE(0,1,1);
#59=CC_DESIGN_PERSON_AND_ORGANIZATION_ASSIGNMENT(#67,#63,(#84,#86));
#60=CC_DESIGN_PERSON_AND_ORGANIZATION_ASSIGNMENT(#68,#64,(#88));
#61=CC_DESIGN_PERSON_AND_ORGANIZATION_ASSIGNMENT(#69,#65,(#86));
#62=CC_DESIGN_PERSON_AND_ORGANIZATION_ASSIGNMENT(#70,#66,(#33));
#63=PERSON_AND_ORGANIZATION_ROLE('creator');
#64=PERSON_AND_ORGANIZATION_ROLE('design_owner');
#65=PERSON_AND_ORGANIZATION_ROLE('design_supplier');
#66=PERSON_AND_ORGANIZATION_ROLE('classification_officer');
#67=PERSON_AND_ORGANIZATION(#81,#74);
#68=PERSON_AND_ORGANIZATION(#81,#75);
#69=PERSON_AND_ORGANIZATION(#81,#76);
#70=PERSON_AND_ORGANIZATION(#81,#77);
#71=PERSON_AND_ORGANIZATION(#81,#78);
#72=PERSON_AND_ORGANIZATION(#81,#79);
#73=PERSON_AND_ORGANIZATION(#81,#80);
#74=ORGANIZATION(' ',' ',' ');
#75=ORGANIZATION(' ',' ',' ');
#76=ORGANIZATION(' ',' ',' ');
#77=ORGANIZATION(' ',' ',' ');
#78=ORGANIZATION(' ',' ',' ');
#79=ORGANIZATION(' ',' ',' ');
#80=ORGANIZATION(' ',' ',' ');
#81=PERSON(' ',' ',' ',(' '),$,$);
#82=SHAPE_DEFINITION_REPRESENTATION(#83,#96);
#83=PRODUCT_DEFINITION_SHAPE('','',#84);
#84=PRODUCT_DEFINITION(' ','',#86,#85);
#85=DESIGN_CONTEXT('',#95,'design');
#86=PRODUCT_DEFINITION_FORMATION_WITH_SPECIFIED_SOURCE(' ',' ',#88,.NOT_KNOWN.);
#87=PRODUCT_RELATED_PRODUCT_CATEGORY('detail','',(#88));
#88=PRODUCT('pr987B8A67jd','pr987B8A67jd',' ',(#93));
#89=PRODUCT_CATEGORY_RELATIONSHIP(' ',' ',#91,#92);
#90=PRODUCT_CATEGORY_RELATIONSHIP('','',#92,#87);
#91=PRODUCT_CATEGORY('part',' ');
#92=PRODUCT_CATEGORY(' ','');
#93=MECHANICAL_CONTEXT(' ',#95,'mechanical');
#94=APPLICATION_PROTOCOL_DEFINITION('international standard',
'config_control_design',1994,#95);
#95=APPLICATION_CONTEXT(
'configuration controlled 3D designs of mechanical parts and assemblies');
#96=SHAPE_REPRESENTATION('pr987B8A67jd-None',(#175),#226);
#97=GEOMETRIC_CURVE_SET('None',(#209));
#98=VERTEX_LOOP('',#154);
#99=SURFACE_STYLE_USAGE(.BOTH.,#101);
#100=SURFACE_STYLE_USAGE(.BOTH.,#102);
#101=SURFACE_SIDE_STYLE('',(#103));
#102=SURFACE_SIDE_STYLE('',(#104));
#103=SURFACE_STYLE_FILL_AREA(#105);
#104=SURFACE_STYLE_FILL_AREA(#106);
#105=FILL_AREA_STYLE('',(#107));
#106=FILL_AREA_STYLE('',(#108));
#107=FILL_AREA_STYLE_COLOUR('',#173);
#108=FILL_AREA_STYLE_COLOUR('',#174);
#109=MANIFOLD_SOLID_BREP('',#111);
#110=MANIFOLD_SOLID_BREP('',#112);
#111=CLOSED_SHELL('',(#122,#123,#124,#125));
#112=CLOSED_SHELL('',(#126,#127));
#113=CONICAL_SURFACE('',#182,4.40000000000018,45.);
#114=CONICAL_SURFACE('',#185,0.,45.);
#115=CYLINDRICAL_SURFACE('',#181,5.00000000000018);
#116=FACE_BOUND('',#136,.T.);
#117=FACE_BOUND('',#137,.T.);
#118=FACE_BOUND('',#138,.T.);
#119=FACE_BOUND('',#139,.T.);
#120=FACE_BOUND('',#141,.T.);
#121=FACE_BOUND('',#98,.T.);
#122=ADVANCED_FACE('',(#131),#128,.F.);
#123=ADVANCED_FACE('',(#132),#129,.T.);
#124=ADVANCED_FACE('',(#116,#117),#115,.T.);
#125=ADVANCED_FACE('',(#118,#119),#113,.T.);
#126=ADVANCED_FACE('',(#133),#130,.F.);
#127=ADVANCED_FACE('',(#120,#121),#114,.T.);
#128=PLANE('',#177);
#129=PLANE('',#179);
#130=PLANE('',#184);
#131=FACE_OUTER_BOUND('',#134,.T.);
#132=FACE_OUTER_BOUND('',#135,.T.);
#133=FACE_OUTER_BOUND('',#140,.T.);
#134=EDGE_LOOP('',(#142));
#135=EDGE_LOOP('',(#143));
#136=EDGE_LOOP('',(#144));
#137=EDGE_LOOP('',(#145));
#138=EDGE_LOOP('',(#146));
#139=EDGE_LOOP('',(#147));
#140=EDGE_LOOP('',(#148));
#141=EDGE_LOOP('',(#149));
#142=ORIENTED_EDGE('',*,*,#155,.F.);
#143=ORIENTED_EDGE('',*,*,#156,.T.);
#144=ORIENTED_EDGE('',*,*,#157,.T.);
#145=ORIENTED_EDGE('',*,*,#155,.T.);
#146=ORIENTED_EDGE('',*,*,#157,.F.);
#147=ORIENTED_EDGE('',*,*,#156,.F.);
#148=ORIENTED_EDGE('',*,*,#158,.F.);
#149=ORIENTED_EDGE('',*,*,#158,.T.);
#150=VERTEX_POINT('',#211);
#151=VERTEX_POINT('',#214);
#152=VERTEX_POINT('',#217);
#153=VERTEX_POINT('',#221);
#154=VERTEX_POINT('',#223);
#155=EDGE_CURVE('',#150,#150,#159,.T.);
#156=EDGE_CURVE('',#151,#151,#160,.T.);
#157=EDGE_CURVE('',#152,#152,#161,.T.);
#158=EDGE_CURVE('',#153,#153,#162,.T.);
#159=CIRCLE('',#176,5.00000000000037);
#160=CIRCLE('',#178,4.40000000000018);
#161=CIRCLE('',#180,5.00000000000018);
#162=CIRCLE('',#183,5.);
#163=PRESENTATION_LAYER_ASSIGNMENT('61','Layer 61',(#209));
#164=PRESENTATION_LAYER_ASSIGNMENT('1','Layer 1',(#109,#110));
#165=STYLED_ITEM('',(#168),#209);
#166=STYLED_ITEM('',(#169),#109);
#167=STYLED_ITEM('',(#170),#110);
#168=PRESENTATION_STYLE_ASSIGNMENT((#171));
#169=PRESENTATION_STYLE_ASSIGNMENT((#99));
#170=PRESENTATION_STYLE_ASSIGNMENT((#100));
#171=POINT_STYLE('',MARKER_TYPE(.PLUS.),POSITIVE_LENGTH_MEASURE(3.),#172);
#172=COLOUR_RGB('Strong Stone',0.576470588235294,0.54508278019379,0.392156862745098);
#173=COLOUR_RGB('Medium Gray',0.490196078431373,0.490196078431373,0.490196078431373);
#174=COLOUR_RGB('Light Gray',0.8,0.8,0.8);
#175=AXIS2_PLACEMENT_3D('',#208,#186,#187);
#176=AXIS2_PLACEMENT_3D('',#210,#188,#189);
#177=AXIS2_PLACEMENT_3D('',#212,#190,#191);
#178=AXIS2_PLACEMENT_3D('',#213,#192,#193);
#179=AXIS2_PLACEMENT_3D('',#215,#194,#195);
#180=AXIS2_PLACEMENT_3D('',#216,#196,#197);
#181=AXIS2_PLACEMENT_3D('',#218,#198,#199);
#182=AXIS2_PLACEMENT_3D('',#219,#200,#201);
#183=AXIS2_PLACEMENT_3D('',#220,#202,#203);
#184=AXIS2_PLACEMENT_3D('',#222,#204,#205);
#185=AXIS2_PLACEMENT_3D('',#224,#206,#207);
#186=DIRECTION('',(0.,0.,1.));
#187=DIRECTION('',(1.,0.,0.));
#188=DIRECTION('',(3.73640463187386E-015,0.,1.));
#189=DIRECTION('',(1.,0.,-2.77555756156269E-015));
#190=DIRECTION('',(3.73640463187386E-015,0.,1.));
#191=DIRECTION('',(1.,0.,-3.73312492030209E-015));
#192=DIRECTION('',(3.73640463187386E-015,0.,1.));
#193=DIRECTION('',(1.,0.,-3.73640463187386E-015));
#194=DIRECTION('',(3.73640463187386E-015,0.,1.));
#195=DIRECTION('',(1.,0.,-3.73640463187386E-015));
#196=DIRECTION('',(-3.73640463187386E-015,0.,-1.));
#197=DIRECTION('',(1.,0.,-3.72965547335E-015));
#198=DIRECTION('',(3.73640463187386E-015,0.,1.));
#199=DIRECTION('',(1.,0.,-3.73640463187386E-015));
#200=DIRECTION('',(-3.73640463187386E-015,0.,-1.));
#201=DIRECTION('',(-1.,0.,3.73962192410012E-015));
#202=DIRECTION('',(8.75622461390355E-017,0.,-1.));
#203=DIRECTION('',(-1.,0.,0.));
#204=DIRECTION('',(8.75622461390355E-017,0.,-1.));
#205=DIRECTION('',(-1.,0.,-8.32667268468867E-017));
#206=DIRECTION('',(-8.75622461390355E-017,0.,1.));
#207=DIRECTION('',(1.,0.,1.38777878078145E-016));
#208=CARTESIAN_POINT('',(0.,0.,0.));
#209=CARTESIAN_POINT('',(0.,0.,0.));
#210=CARTESIAN_POINT('',(-3.54958440028016E-013,0.,-95.));
#211=CARTESIAN_POINT('',(5.00000000000001,0.,-95.));
#212=CARTESIAN_POINT('',(-3.54958440028016E-013,0.,-95.));
#213=CARTESIAN_POINT('',(6.9803597865442E-029,0.,1.86820231593693E-014));
#214=CARTESIAN_POINT('',(4.40000000000018,0.,2.24184277912362E-015));
#215=CARTESIAN_POINT('',(6.9803597865442E-029,0.,1.86820231593693E-014));
#216=CARTESIAN_POINT('',(-2.24184277912424E-015,0.,-0.599999999999981));
#217=CARTESIAN_POINT('',(5.00000000000018,0.,-0.6));
#218=CARTESIAN_POINT('',(0.,0.,0.));
#219=CARTESIAN_POINT('',(6.9803597865442E-029,0.,1.86820231593693E-014));
#220=CARTESIAN_POINT('',(8.31841338320837E-015,0.,-95.));
#221=CARTESIAN_POINT('',(-4.99999999999999,0.,-95.));
#222=CARTESIAN_POINT('',(8.31841338320837E-015,0.,-95.));
#223=CARTESIAN_POINT('',(8.75622461390355E-015,0.,-100.));
#224=CARTESIAN_POINT('',(8.75622461390355E-015,0.,-100.));
#225=MECHANICAL_DESIGN_GEOMETRIC_PRESENTATION_REPRESENTATION('',(#165,#166,
#167),#226);
#226=(
GEOMETRIC_REPRESENTATION_CONTEXT(3)
GLOBAL_UNCERTAINTY_ASSIGNED_CONTEXT((#227))
GLOBAL_UNIT_ASSIGNED_CONTEXT((#233,#229,#228))
REPRESENTATION_CONTEXT('1C050-0150-045-XA','TOP_LEVEL_ASSEMBLY_PART')
);
#227=UNCERTAINTY_MEASURE_WITH_UNIT(LENGTH_MEASURE(2.E-005),#233,
'DISTANCE_ACCURACY_VALUE','Maximum Tolerance applied to model');
#228=(
NAMED_UNIT(*)
SI_UNIT($,.STERADIAN.)
SOLID_ANGLE_UNIT()
);
#229=(
CONVERSION_BASED_UNIT('DEGREE',#231)
NAMED_UNIT(#230)
PLANE_ANGLE_UNIT()
);
#230=DIMENSIONAL_EXPONENTS(0.,0.,0.,0.,0.,0.,0.);
#231=PLANE_ANGLE_MEASURE_WITH_UNIT(PLANE_ANGLE_MEASURE(0.0174532925),#232);
#232=(
NAMED_UNIT(*)
PLANE_ANGLE_UNIT()
SI_UNIT($,.RADIAN.)
);
#233=(
LENGTH_UNIT()
NAMED_UNIT(*)
SI_UNIT(.MILLI.,.METRE.)
);
ENDSEC;
END-ISO-10303-21;
