ISO-10303-21;
HEADER;
FILE_DESCRIPTION(('STEP'), '1');
FILE_NAME('C:\\Users\\ds2002\\OneDrive - Sandvik\\HomeShare\\Documents\\Batchrepair\\CorSRT2\\NEW_MILBN_SLD\\Output2\\MOD000000000000000020082228900000.stp', '2018-11-23T12:39:24', (''), (''), 'Express v3.0.0.0', 'Express Tool', 'Unknown');
FILE_SCHEMA(('AUTOMOTIVE_DESIGN'));
ENDSEC;

DATA;
#1 = MANIFOLD_SOLID_BREP('NOCUT', #2);
#2 = CLOSED_SHELL('', (#3, #50, #89, #98, #137));
#3 = ADVANCED_FACE('', (#4), #31, .T.);
#4 = FACE_OUTER_BOUND('', #5, .T.);
#5 = EDGE_LOOP('', (#6, #16, #23, #24));
#6 = ORIENTED_EDGE('', *, *, #7, .T.);
#7 = EDGE_CURVE('', #8, #10, #12, .T.);
#8 = VERTEX_POINT('', #9);
#9 = CARTESIAN_POINT('', (-8., 3.42901103761259E-15, -48.));
#10 = VERTEX_POINT('', #11);
#11 = CARTESIAN_POINT('', (-8., 5.38844591624835E-16, -0.799999999999997));
#12 = LINE('', #13, #14);
#13 = CARTESIAN_POINT('', (-8., 3.42901103761259E-15, -48.));
#14 = VECTOR('', #15, 47.2);
#15 = DIRECTION('', (0., -2.89016644598775E-15, 47.2));
#16 = ORIENTED_EDGE('', *, *, #17, .T.);
#17 = EDGE_CURVE('', #10, #10, #18, .T.);
#18 = CIRCLE('', #19, 8.);
#19 = AXIS2_PLACEMENT_3D('', #20, #21, #22);
#20 = CARTESIAN_POINT('', (5.27355936696949E-16, -4.44089209850063E-16, -0.799999999999997));
#21 = DIRECTION('', (-1.38777878078144E-17, 9.23824107420045E-17, -1.));
#22 = DIRECTION('', (-1., 1.22866725184362E-16, 1.38777878078145E-17));
#23 = ORIENTED_EDGE('', *, *, #7, .F.);
#24 = ORIENTED_EDGE('', *, *, #25, .F.);
#25 = EDGE_CURVE('', #8, #8, #26, .T.);
#26 = CIRCLE('', #27, 8.);
#27 = AXIS2_PLACEMENT_3D('', #28, #29, #30);
#28 = CARTESIAN_POINT('', (5.55111512312578E-17, 3.10862446895044E-15, -48.));
#29 = DIRECTION('', (0., 0., -1.));
#30 = DIRECTION('', (-1., 4.0048321082769E-17, 0.));
#31 = (
   BOUNDED_SURFACE ()
   B_SPLINE_SURFACE (1, 2, ((#32, #33, #34, #35, #36, #37, #38, #39, #40), (#41, #42, #43, #44, #45, #46, #47, #48, #49)), .UNSPECIFIED., .F., .T., .U.)
   B_SPLINE_SURFACE_WITH_KNOTS ((2, 2), (3, 2, 2, 2, 3), (0., 1.), (0., 12.5663706143592, 25.1327412287184, 37.6991118430775, 50.2654824574367), .UNSPECIFIED.)
   GEOMETRIC_REPRESENTATION_ITEM ()
   RATIONAL_B_SPLINE_SURFACE (((1., 0.707106781186548, 1., 0.707106781186548, 1., 0.707106781186548, 1., 0.707106781186548, 1.), (1., 0.707106781186548, 1., 0.707106781186548, 1., 0.707106781186548, 1., 0.707106781186548, 1.)))
   REPRESENTATION_ITEM ('')
   SURFACE ()
);
#32 = CARTESIAN_POINT('', (-8., 5.38844591624835E-16, -48.));
#33 = CARTESIAN_POINT('', (-8., 8., -48.));
#34 = CARTESIAN_POINT('', (3.65399433984063E-16, 8., -48.));
#35 = CARTESIAN_POINT('', (8., 8., -48.));
#36 = CARTESIAN_POINT('', (8., -4.47305572007077E-16, -48.));
#37 = CARTESIAN_POINT('', (8., -8., -48.));
#38 = CARTESIAN_POINT('', (3.58966709670033E-16, -8., -48.));
#39 = CARTESIAN_POINT('', (-8., -8., -48.));
#40 = CARTESIAN_POINT('', (-8., 5.38844591624835E-16, -48.));
#41 = CARTESIAN_POINT('', (-8., 5.38844591624835E-16, -0.799999999999997));
#42 = CARTESIAN_POINT('', (-8., 8., -0.799999999999997));
#43 = CARTESIAN_POINT('', (1.02043101851291E-15, 8., -0.799999999999997));
#44 = CARTESIAN_POINT('', (8., 8., -0.799999999999997));
#45 = CARTESIAN_POINT('', (8., -4.47305572007078E-16, -0.799999999999997));
#46 = CARTESIAN_POINT('', (8., -8., -0.799999999999997));
#47 = CARTESIAN_POINT('', (1.01399829419888E-15, -8., -0.799999999999997));
#48 = CARTESIAN_POINT('', (-8., -8., -0.799999999999997));
#49 = CARTESIAN_POINT('', (-8., 5.38844591624835E-16, -0.799999999999997));
#50 = ADVANCED_FACE('', (#51), #70, .T.);
#51 = FACE_OUTER_BOUND('', #52, .T.);
#52 = EDGE_LOOP('', (#53, #61, #68, #69));
#53 = ORIENTED_EDGE('', *, *, #54, .T.);
#54 = EDGE_CURVE('', #10, #55, #57, .T.);
#55 = VERTEX_POINT('', #56);
#56 = CARTESIAN_POINT('', (-7.2, 4.40872847693047E-16, 0.));
#57 = LINE('', #58, #59);
#58 = CARTESIAN_POINT('', (-8., 5.38844591624835E-16, -0.799999999999997));
#59 = VECTOR('', #60, 1.13137084989847);
#60 = DIRECTION('', (0.8, -9.7971743931788E-17, 0.799999999999997));
#61 = ORIENTED_EDGE('', *, *, #62, .T.);
#62 = EDGE_CURVE('', #55, #55, #63, .T.);
#63 = CIRCLE('', #64, 7.2);
#64 = AXIS2_PLACEMENT_3D('', #65, #66, #67);
#65 = CARTESIAN_POINT('', (-8.32667268468867E-17, -6.66133814775094E-16, -4.93038065763132E-32));
#66 = DIRECTION('', (2.56677801597318E-33, 6.12323399573677E-17, -1.));
#67 = DIRECTION('', (-1., 1.53750925342797E-16, 6.84775091337684E-33));
#68 = ORIENTED_EDGE('', *, *, #54, .F.);
#69 = ORIENTED_EDGE('', *, *, #17, .F.);
#70 = (
   BOUNDED_SURFACE ()
   B_SPLINE_SURFACE (1, 2, ((#71, #72, #73, #74, #75, #76, #77, #78, #79), (#80, #81, #82, #83, #84, #85, #86, #87, #88)), .UNSPECIFIED., .F., .T., .U.)
   B_SPLINE_SURFACE_WITH_KNOTS ((2, 2), (3, 2, 2, 2, 3), (0., 1.), (0., 0.25, 0.5, 0.75, 1.), .UNSPECIFIED.)
   GEOMETRIC_REPRESENTATION_ITEM ()
   RATIONAL_B_SPLINE_SURFACE (((1., 0.707106781186548, 1., 0.707106781186548, 1., 0.707106781186548, 1., 0.707106781186548, 1.), (1., 0.707106781186548, 1., 0.707106781186548, 1., 0.707106781186548, 1., 0.707106781186548, 1.)))
   REPRESENTATION_ITEM ('')
   SURFACE ()
);
#71 = CARTESIAN_POINT('', (-8., -4.09906311545837E-15, -0.799999999999997));
#72 = CARTESIAN_POINT('', (-8., 7.99999999999999, -0.800000000000044));
#73 = CARTESIAN_POINT('', (6.56881956236551E-16, 7.99999999999999, -0.800000000000044));
#74 = CARTESIAN_POINT('', (8., 7.99999999999999, -0.800000000000044));
#75 = CARTESIAN_POINT('', (8., -5.57936048162525E-15, -0.799999999999997));
#76 = CARTESIAN_POINT('', (8., -8.00000000000001, -0.799999999999951));
#77 = CARTESIAN_POINT('', (1.56302029387557E-16, -8.00000000000001, -0.799999999999951));
#78 = CARTESIAN_POINT('', (-8., -8.00000000000001, -0.799999999999951));
#79 = CARTESIAN_POINT('', (-8., -4.09906311545837E-15, -0.799999999999997));
#80 = CARTESIAN_POINT('', (-7.2, 4.40872847693047E-16, 0.));
#81 = CARTESIAN_POINT('', (-7.2, 7.2, -4.19664303308311E-14));
#82 = CARTESIAN_POINT('', (5.82867087928207E-16, 7.2, -4.19664303308311E-14));
#83 = CARTESIAN_POINT('', (7.2, 7.2, -4.19664303308311E-14));
#84 = CARTESIAN_POINT('', (7.2, -8.9139478185714E-16, -5.23801307078189E-30));
#85 = CARTESIAN_POINT('', (7.2, -7.2, 4.19664303308311E-14));
#86 = CARTESIAN_POINT('', (1.32345153764114E-16, -7.2, 4.19664303308311E-14));
#87 = CARTESIAN_POINT('', (-7.2, -7.2, 4.19664303308311E-14));
#88 = CARTESIAN_POINT('', (-7.2, 4.40872847693047E-16, 0.));
#89 = ADVANCED_FACE('', (#90), #93, .T.);
#90 = FACE_OUTER_BOUND('', #91, .T.);
#91 = EDGE_LOOP('', (#92));
#92 = ORIENTED_EDGE('', *, *, #62, .F.);
#93 = B_SPLINE_SURFACE_WITH_KNOTS('', 1, 1, ((#94, #95), (#96, #97)), .UNSPECIFIED., .F., .F., .U., (2, 2), (2, 2), (0.0454545454545454, 0.954545454545455), (0.0454545454545454, 0.954545454545454), .UNSPECIFIED.);
#94 = CARTESIAN_POINT('', (7.2, -7.2, -4.40872847693047E-16));
#95 = CARTESIAN_POINT('', (-7.2, -7.2, -4.40872847693047E-16));
#96 = CARTESIAN_POINT('', (7.2, 7.2, 4.40872847693047E-16));
#97 = CARTESIAN_POINT('', (-7.2, 7.2, 4.40872847693047E-16));
#98 = ADVANCED_FACE('', (#99), #118, .T.);
#99 = FACE_OUTER_BOUND('', #100, .T.);
#100 = EDGE_LOOP('', (#101, #110, #116, #117));
#101 = ORIENTED_EDGE('', *, *, #102, .F.);
#102 = EDGE_CURVE('', #103, #103, #105, .T.);
#103 = VERTEX_POINT('', #104);
#104 = CARTESIAN_POINT('', (-8., 4.65365783675994E-15, -68.));
#105 = CIRCLE('', #106, 8.);
#106 = AXIS2_PLACEMENT_3D('', #107, #108, #109);
#107 = CARTESIAN_POINT('', (5.27355936696949E-16, 7.54951656745106E-15, -68.));
#108 = DIRECTION('', (0., 0., -1.));
#109 = DIRECTION('', (-1., -3.61982341336391E-16, 0.));
#110 = ORIENTED_EDGE('', *, *, #111, .F.);
#111 = EDGE_CURVE('', #8, #103, #112, .T.);
#112 = LINE('', #113, #114);
#113 = CARTESIAN_POINT('', (-8., 3.42901103761259E-15, -48.));
#114 = VECTOR('', #115, 20.);
#115 = DIRECTION('', (0., 1.22464679914735E-15, -20.));
#116 = ORIENTED_EDGE('', *, *, #25, .T.);
#117 = ORIENTED_EDGE('', *, *, #111, .T.);
#118 = (
   BOUNDED_SURFACE ()
   B_SPLINE_SURFACE (2, 1, ((#119, #120), (#121, #122), (#123, #124), (#125, #126), (#127, #128), (#129, #130), (#131, #132), (#133, #134), (#135, #136)), .UNSPECIFIED., .T., .F., .U.)
   B_SPLINE_SURFACE_WITH_KNOTS ((3, 2, 2, 2, 3), (2, 2), (0., 12.5663706143592, 25.1327412287184, 37.6991118430775, 50.2654824574367), (0., 0.454545454545455), .UNSPECIFIED.)
   GEOMETRIC_REPRESENTATION_ITEM ()
   RATIONAL_B_SPLINE_SURFACE (((1., 1.), (0.707106781186548, 0.707106781186548), (1., 1.), (0.707106781186548, 0.707106781186548), (1., 1.), (0.707106781186548, 0.707106781186548), (1., 1.), (0.707106781186548, 0.707106781186548), (1., 1.)))
   REPRESENTATION_ITEM ('')
   SURFACE ()
);
#119 = CARTESIAN_POINT('', (-8., 3.42901103761259E-15, -48.));
#120 = CARTESIAN_POINT('', (-8., 6.315590901638E-15, -68.));
#121 = CARTESIAN_POINT('', (-7.99999999999999, 8., -48.));
#122 = CARTESIAN_POINT('', (-7.99999999999999, 8.00000000000001, -68.));
#123 = CARTESIAN_POINT('', (4.21590879627258E-15, 8., -48.));
#124 = CARTESIAN_POINT('', (4.21590879627258E-15, 8., -68.));
#125 = CARTESIAN_POINT('', (8., 8., -48.));
#126 = CARTESIAN_POINT('', (8., 8., -68.));
#127 = CARTESIAN_POINT('', (8., -3.33747201799483E-15, -48.));
#128 = CARTESIAN_POINT('', (8., -4.50892153969426E-16, -68.));
#129 = CARTESIAN_POINT('', (8., -8., -48.));
#130 = CARTESIAN_POINT('', (8., -8., -68.));
#131 = CARTESIAN_POINT('', (-1.57085682001696E-15, -8., -48.));
#132 = CARTESIAN_POINT('', (-1.57085682001696E-15, -8., -68.));
#133 = CARTESIAN_POINT('', (-8., -8., -48.));
#134 = CARTESIAN_POINT('', (-8., -7.99999999999999, -68.));
#135 = CARTESIAN_POINT('', (-8., 3.42901103761259E-15, -48.));
#136 = CARTESIAN_POINT('', (-8., 6.315590901638E-15, -68.));
#137 = ADVANCED_FACE('', (#138), #141, .T.);
#138 = FACE_OUTER_BOUND('', #139, .T.);
#139 = EDGE_LOOP('', (#140));
#140 = ORIENTED_EDGE('', *, *, #102, .T.);
#141 = B_SPLINE_SURFACE_WITH_KNOTS('', 1, 1, ((#142, #143), (#144, #145)), .UNSPECIFIED., .F., .F., .U., (2, 2), (2, 2), (0.475031226428128, 0.5530586547153), (0.4469413452847, 0.524968773571871), .UNSPECIFIED.);
#142 = CARTESIAN_POINT('', (-8.00000000000003, 8.00000000000001, -68.));
#143 = CARTESIAN_POINT('', (-8.00000000000003, -7.99999999999997, -68.));
#144 = CARTESIAN_POINT('', (7.99999999999999, 8.00000000000001, -68.));
#145 = CARTESIAN_POINT('', (7.99999999999999, -7.99999999999997, -68.));
#146 = DRAUGHTING_MODEL('', (#154, #262, #302, #307, #312, #317, #322), #336);
#147 = PRESENTATION_STYLE_ASSIGNMENT((#148));
#148 = SURFACE_STYLE_USAGE(.POSITIVE., #149);
#149 = SURFACE_SIDE_STYLE('', (#150));
#150 = SURFACE_STYLE_FILL_AREA(#151);
#151 = FILL_AREA_STYLE('', (#152));
#152 = FILL_AREA_STYLE_COLOUR('', #153);
#153 = COLOUR_RGB('', 0.50196078431373, 0.50196078431373, 0.50196078431373);
#154 = STYLED_ITEM('', (#147), #1);
#155 = MANIFOLD_SOLID_BREP('CUT', #156);
#156 = CLOSED_SHELL('', (#157, #174, #213));
#157 = ADVANCED_FACE('', (#158), #169, .T.);
#158 = FACE_OUTER_BOUND('', #159, .T.);
#159 = EDGE_LOOP('', (#160));
#160 = ORIENTED_EDGE('', *, *, #161, .F.);
#161 = EDGE_CURVE('', #162, #162, #164, .T.);
#162 = VERTEX_POINT('', #163);
#163 = CARTESIAN_POINT('', (-8., 4.65365783675994E-15, -68.));
#164 = CIRCLE('', #165, 8.);
#165 = AXIS2_PLACEMENT_3D('', #166, #167, #168);
#166 = CARTESIAN_POINT('', (5.27355936696949E-16, 7.54951656745106E-15, -68.));
#167 = DIRECTION('', (0., 0., -1.));
#168 = DIRECTION('', (-1., -3.61982341336391E-16, 0.));
#169 = B_SPLINE_SURFACE_WITH_KNOTS('', 1, 1, ((#170, #171), (#172, #173)), .UNSPECIFIED., .F., .F., .U., (2, 2), (2, 2), (0.4469413452847, 0.524968773571871), (0.475031226428129, 0.5530586547153), .UNSPECIFIED.);
#170 = CARTESIAN_POINT('', (-8., 8., -68.));
#171 = CARTESIAN_POINT('', (8.00000000000001, 8., -68.));
#172 = CARTESIAN_POINT('', (-8., -7.99999999999999, -68.));
#173 = CARTESIAN_POINT('', (8.00000000000001, -7.99999999999999, -68.));
#174 = ADVANCED_FACE('', (#175), #194, .T.);
#175 = FACE_OUTER_BOUND('', #176, .T.);
#176 = EDGE_LOOP('', (#177, #178, #186, #193));
#177 = ORIENTED_EDGE('', *, *, #161, .T.);
#178 = ORIENTED_EDGE('', *, *, #179, .T.);
#179 = EDGE_CURVE('', #162, #180, #182, .T.);
#180 = VERTEX_POINT('', #181);
#181 = CARTESIAN_POINT('', (-8., 6.12323399573677E-15, -92.));
#182 = LINE('', #183, #184);
#183 = CARTESIAN_POINT('', (-8., 4.65365783675994E-15, -68.));
#184 = VECTOR('', #185, 24.);
#185 = DIRECTION('', (0., 1.46957615897683E-15, -24.));
#186 = ORIENTED_EDGE('', *, *, #187, .F.);
#187 = EDGE_CURVE('', #180, #180, #188, .T.);
#188 = CIRCLE('', #189, 8.);
#189 = AXIS2_PLACEMENT_3D('', #190, #191, #192);
#190 = CARTESIAN_POINT('', (7.21644966006352E-16, 5.77315972805081E-15, -92.));
#191 = DIRECTION('', (0., 0., -1.));
#192 = DIRECTION('', (-1., 4.37592834607445E-17, 0.));
#193 = ORIENTED_EDGE('', *, *, #179, .F.);
#194 = (
   BOUNDED_SURFACE ()
   B_SPLINE_SURFACE (2, 1, ((#195, #196), (#197, #198), (#199, #200), (#201, #202), (#203, #204), (#205, #206), (#207, #208), (#209, #210), (#211, #212)), .UNSPECIFIED., .T., .F., .U.)
   B_SPLINE_SURFACE_WITH_KNOTS ((3, 2, 2, 2, 3), (2, 2), (0., 12.5663706143592, 25.1327412287184, 37.6991118430775, 50.2654824574367), (0.454545454545455, 1.), .UNSPECIFIED.)
   GEOMETRIC_REPRESENTATION_ITEM ()
   RATIONAL_B_SPLINE_SURFACE (((1., 1.), (0.707106781186548, 0.707106781186548), (1., 1.), (0.707106781186548, 0.707106781186548), (1., 1.), (0.707106781186548, 0.707106781186548), (1., 1.), (0.707106781186548, 0.707106781186548), (1., 1.)))
   REPRESENTATION_ITEM ('')
   SURFACE ()
);
#195 = CARTESIAN_POINT('', (-8., 4.65365783675994E-15, -68.));
#196 = CARTESIAN_POINT('', (-8., 7.98432691063541E-15, -92.));
#197 = CARTESIAN_POINT('', (-8., 8., -68.));
#198 = CARTESIAN_POINT('', (-8., 8.00000000000001, -92.));
#199 = CARTESIAN_POINT('', (2.0543753703132E-15, 8., -68.));
#200 = CARTESIAN_POINT('', (2.0543753703132E-15, 8.00000000000001, -92.));
#201 = CARTESIAN_POINT('', (8., 8., -68.));
#202 = CARTESIAN_POINT('', (8., 8., -92.));
#203 = CARTESIAN_POINT('', (8., 1.21104091090863E-15, -68.));
#204 = CARTESIAN_POINT('', (8., 4.5417099847841E-15, -92.));
#205 = CARTESIAN_POINT('', (8., -8., -68.));
#206 = CARTESIAN_POINT('', (8., -7.99999999999999, -92.));
#207 = CARTESIAN_POINT('', (-4.08524116220225E-16, -8., -68.));
#208 = CARTESIAN_POINT('', (-4.08524116220224E-16, -7.99999999999999, -92.));
#209 = CARTESIAN_POINT('', (-8., -8., -68.));
#210 = CARTESIAN_POINT('', (-8., -7.99999999999999, -92.));
#211 = CARTESIAN_POINT('', (-8., 4.65365783675994E-15, -68.));
#212 = CARTESIAN_POINT('', (-8., 7.98432691063541E-15, -92.));
#213 = ADVANCED_FACE('', (#214), #227, .T.);
#214 = FACE_OUTER_BOUND('', #215, .T.);
#215 = EDGE_LOOP('', (#216, #225, #226));
#216 = ORIENTED_EDGE('', *, *, #217, .F.);
#217 = EDGE_CURVE('', #180, #218, #220, .T.);
#218 = VERTEX_POINT('', #219);
#219 = CARTESIAN_POINT('', (2.35775457867695E-15, 6.12323399573677E-15, -100.));
#220 = CIRCLE('', #221, 7.99999999999993);
#221 = AXIS2_PLACEMENT_3D('', #222, #223, #224);
#222 = CARTESIAN_POINT('', (-6.66133814775094E-14, 5.63337527607784E-15, -92.));
#223 = DIRECTION('', (-6.12323399573671E-17, -1., -6.12323399573672E-17));
#224 = DIRECTION('', (-1., 6.12323399573668E-17, 5.3290705182008E-15));
#225 = ORIENTED_EDGE('', *, *, #187, .T.);
#226 = ORIENTED_EDGE('', *, *, #217, .T.);
#227 = (
   BOUNDED_SURFACE ()
   B_SPLINE_SURFACE (2, 2, ((#228, #229, #230), (#231, #232, #233), (#234, #235, #236), (#237, #238, #239), (#240, #241, #242), (#243, #244, #245), (#246, #247, #248), (#249, #250, #251), (#252, #253, #254)), .UNSPECIFIED., .T., .F., .U.)
   B_SPLINE_SURFACE_WITH_KNOTS ((3, 2, 2, 2, 3), (3, 3), (0., 0.25, 0.5, 0.75, 1.), (0., 1.), .UNSPECIFIED.)
   GEOMETRIC_REPRESENTATION_ITEM ()
   RATIONAL_B_SPLINE_SURFACE (((1., 0.707106781186548, 1.), (0.707106781186548, 0.5, 0.707106781186548), (1., 0.707106781186548, 1.), (0.707106781186548, 0.5, 0.707106781186548), (1., 0.707106781186548, 1.), (0.707106781186548, 0.5, 0.707106781186548), (1., 0.707106781186548, 1.), (0.707106781186548, 0.5, 0.707106781186548), (1., 0.707106781186548, 1.)))
   REPRESENTATION_ITEM ('')
   SURFACE ()
);
#228 = CARTESIAN_POINT('', (-8., 6.12323399573677E-15, -92.));
#229 = CARTESIAN_POINT('', (-8., 6.61309271539571E-15, -100.));
#230 = CARTESIAN_POINT('', (2.35775457867695E-15, 6.12323399573677E-15, -100.));
#231 = CARTESIAN_POINT('', (-8., 7.99999999999994, -92.));
#232 = CARTESIAN_POINT('', (-8., 7.99999999999994, -100.));
#233 = CARTESIAN_POINT('', (2.35775457867695E-15, 6.12323399573677E-15, -100.));
#234 = CARTESIAN_POINT('', (-6.66133814775094E-14, 7.99999999999994, -92.));
#235 = CARTESIAN_POINT('', (-6.61235227578505E-14, 7.99999999999994, -100.));
#236 = CARTESIAN_POINT('', (2.35775457867695E-15, 6.12323399573677E-15, -100.));
#237 = CARTESIAN_POINT('', (7.99999999999987, 7.99999999999994, -92.));
#238 = CARTESIAN_POINT('', (7.99999999999987, 7.99999999999994, -100.));
#239 = CARTESIAN_POINT('', (2.35775457867695E-15, 6.12323399573677E-15, -100.));
#240 = CARTESIAN_POINT('', (7.99999999999987, 6.12323399573678E-15, -92.));
#241 = CARTESIAN_POINT('', (7.99999999999987, 5.63337527607784E-15, -100.));
#242 = CARTESIAN_POINT('', (2.35775457867695E-15, 6.12323399573677E-15, -100.));
#243 = CARTESIAN_POINT('', (7.99999999999987, -7.99999999999993, -92.));
#244 = CARTESIAN_POINT('', (7.99999999999987, -7.99999999999993, -100.));
#245 = CARTESIAN_POINT('', (2.35775457867695E-15, 6.12323399573677E-15, -100.));
#246 = CARTESIAN_POINT('', (-6.56336640381915E-14, -7.99999999999993, -92.));
#247 = CARTESIAN_POINT('', (-6.61235227578505E-14, -7.99999999999993, -100.));
#248 = CARTESIAN_POINT('', (2.35775457867695E-15, 6.12323399573677E-15, -100.));
#249 = CARTESIAN_POINT('', (-8., -7.99999999999993, -92.));
#250 = CARTESIAN_POINT('', (-8., -7.99999999999993, -100.));
#251 = CARTESIAN_POINT('', (2.35775457867695E-15, 6.12323399573677E-15, -100.));
#252 = CARTESIAN_POINT('', (-8., 6.12323399573677E-15, -92.));
#253 = CARTESIAN_POINT('', (-8., 6.61309271539571E-15, -100.));
#254 = CARTESIAN_POINT('', (2.35775457867695E-15, 6.12323399573677E-15, -100.));
#255 = PRESENTATION_STYLE_ASSIGNMENT((#256));
#256 = SURFACE_STYLE_USAGE(.POSITIVE., #257);
#257 = SURFACE_SIDE_STYLE('', (#258));
#258 = SURFACE_STYLE_FILL_AREA(#259);
#259 = FILL_AREA_STYLE('', (#260));
#260 = FILL_AREA_STYLE_COLOUR('', #261);
#261 = COLOUR_RGB('', 0.8, 0.8, 0.8);
#262 = STYLED_ITEM('', (#255), #155);
#263 = TRIMMED_CURVE('cutting part line', #264, (#269), (#270), .T., .CARTESIAN.);
#264 = CIRCLE('', #265, 7.99999999999993);
#265 = AXIS2_PLACEMENT_3D('', #266, #267, #268);
#266 = CARTESIAN_POINT('', (-5.81756864903582E-14, 0., -92.0000000000001));
#267 = DIRECTION('', (0., -1., 0.));
#268 = DIRECTION('', (-7.77156117237616E-16, 0., -1.));
#269 = CARTESIAN_POINT('', (-6.43929354282591E-14, 0., -100.));
#270 = CARTESIAN_POINT('', (7.99999999999987, 0., -92.));
#271 = TRIMMED_CURVE('cutting part line', #272, (#276), (#277), .T., .CARTESIAN.);
#272 = LINE('', #273, #274);
#273 = CARTESIAN_POINT('', (8., 3.33016179684306E-15, -92.));
#274 = VECTOR('', #275, 24.);
#275 = DIRECTION('', (0., -3.33016179684306E-15, 24.));
#276 = CARTESIAN_POINT('', (8., 3.33016179684306E-15, -92.));
#277 = CARTESIAN_POINT('', (8., 0., -68.));
#278 = TRIMMED_CURVE('cutting part line', #279, (#283), (#284), .T., .CARTESIAN.);
#279 = LINE('', #280, #281);
#280 = CARTESIAN_POINT('', (8., 0., -68.));
#281 = VECTOR('', #282, 8.);
#282 = DIRECTION('', (-8., 0., 0.));
#283 = CARTESIAN_POINT('', (8., 0., -68.));
#284 = CARTESIAN_POINT('', (2.77555756156289E-17, 0., -68.));
#285 = TRIMMED_CURVE('cutting part line', #286, (#290), (#291), .T., .CARTESIAN.);
#286 = LINE('', #287, #288);
#287 = CARTESIAN_POINT('', (0., 0., -68.));
#288 = VECTOR('', #289, 32.);
#289 = DIRECTION('', (0., 0., -32.));
#290 = CARTESIAN_POINT('', (0., 0., -68.));
#291 = CARTESIAN_POINT('', (0., 0., -100.));
#292 = COMPOSITE_CURVE('cutting part line', (#293, #294, #295, #296), .U.);
#293 = COMPOSITE_CURVE_SEGMENT(.CONTINUOUS., .T., #263);
#294 = COMPOSITE_CURVE_SEGMENT(.CONTINUOUS., .T., #271);
#295 = COMPOSITE_CURVE_SEGMENT(.CONTINUOUS., .T., #278);
#296 = COMPOSITE_CURVE_SEGMENT(.CONTINUOUS., .T., #285);
#297 = GEOMETRIC_SET('', (#292, #335));
#298 = PRESENTATION_STYLE_ASSIGNMENT((#299));
#299 = CURVE_STYLE('', #301, POSITIVE_LENGTH_MEASURE(1.E-6), #300);
#300 = COLOUR_RGB('', 0., 0., 1.);
#301 = DRAUGHTING_PRE_DEFINED_CURVE_FONT('continuous');
#302 = STYLED_ITEM('', (#298), #292);
#303 = PRESENTATION_STYLE_ASSIGNMENT((#304));
#304 = CURVE_STYLE('', #306, POSITIVE_LENGTH_MEASURE(1.E-6), #305);
#305 = COLOUR_RGB('', 0., 0., 1.);
#306 = DRAUGHTING_PRE_DEFINED_CURVE_FONT('continuous');
#307 = OVER_RIDING_STYLED_ITEM('', (#303), #263, #302);
#308 = PRESENTATION_STYLE_ASSIGNMENT((#309));
#309 = CURVE_STYLE('', #311, POSITIVE_LENGTH_MEASURE(1.E-6), #310);
#310 = COLOUR_RGB('', 0., 0., 1.);
#311 = DRAUGHTING_PRE_DEFINED_CURVE_FONT('continuous');
#312 = OVER_RIDING_STYLED_ITEM('', (#308), #271, #302);
#313 = PRESENTATION_STYLE_ASSIGNMENT((#314));
#314 = CURVE_STYLE('', #316, POSITIVE_LENGTH_MEASURE(1.E-6), #315);
#315 = COLOUR_RGB('', 0., 0., 1.);
#316 = DRAUGHTING_PRE_DEFINED_CURVE_FONT('continuous');
#317 = OVER_RIDING_STYLED_ITEM('', (#313), #278, #302);
#318 = PRESENTATION_STYLE_ASSIGNMENT((#319));
#319 = CURVE_STYLE('', #321, POSITIVE_LENGTH_MEASURE(1.E-6), #320);
#320 = COLOUR_RGB('', 0., 0., 1.);
#321 = DRAUGHTING_PRE_DEFINED_CURVE_FONT('continuous');
#322 = OVER_RIDING_STYLED_ITEM('', (#318), #285, #302);
#323 = AXIS2_PLACEMENT_3D('MCS', #324, #325, #326);
#324 = CARTESIAN_POINT('', (0., 0., -48.));
#325 = DIRECTION('', (0., 0., 1.));
#326 = DIRECTION('', (1., 0., 0.));
#327 = AXIS2_PLACEMENT_3D('PCS', #328, #329, #330);
#328 = CARTESIAN_POINT('', (0., 0., 0.));
#329 = DIRECTION('', (0., 0., 1.));
#330 = DIRECTION('', (1., 0., 0.));
#331 = AXIS2_PLACEMENT_3D('CIP', #332, #333, #334);
#332 = CARTESIAN_POINT('', (0., 0., -100.));
#333 = DIRECTION('', (0., 0., 1.));
#334 = DIRECTION('', (1., 0., 0.));
#335 = CARTESIAN_POINT('CRP', (8., 0., -100.));
#336 = (
   GEOMETRIC_REPRESENTATION_CONTEXT (3)
   GLOBAL_UNCERTAINTY_ASSIGNED_CONTEXT ((#338))
   GLOBAL_UNIT_ASSIGNED_CONTEXT ((#337, #339, #340))
   REPRESENTATION_CONTEXT ('', '3D')
);
#337 = (
   LENGTH_UNIT ()
   NAMED_UNIT (*)
   SI_UNIT (.MILLI., .METRE.)
);
#338 = UNCERTAINTY_MEASURE_WITH_UNIT(LENGTH_MEASURE(1.E-6), #337, 'DISTANCE_ACCURACY_VALUE', '');
#339 = (
   NAMED_UNIT (*)
   SI_UNIT ($, .STERADIAN.)
   SOLID_ANGLE_UNIT ()
);
#340 = (
   NAMED_UNIT (*)
   PLANE_ANGLE_UNIT ()
   SI_UNIT ($, .RADIAN.)
);
#341 = SHAPE_REPRESENTATION('', (), #336);
#342 = PRODUCT_DEFINITION_SHAPE('', '', #343);
#343 = PRODUCT_DEFINITION('', '', #346, #350);
#344 = APPLICATION_CONTEXT('configuration controlled 3D designs of mechanical parts and assemblies');
#345 = APPLICATION_PROTOCOL_DEFINITION('International Standard', 'automotive_design', 2002, #344);
#346 = PRODUCT_DEFINITION_FORMATION_WITH_SPECIFIED_SOURCE('', '', #347, .NOT_KNOWN.);
#347 = PRODUCT('product-name', '1B240-1600-XA       1630', '', (#348));
#348 = PRODUCT_CONTEXT('', #344, 'mechanical');
#349 = PRODUCT_RELATED_PRODUCT_CATEGORY('detail', '', (#347));
#350 = PRODUCT_DEFINITION_CONTEXT('part definition', #344, 'design');
#351 = SHAPE_DEFINITION_REPRESENTATION(#342, #341);
#352 = CONSTRUCTIVE_GEOMETRY_REPRESENTATION('supplemental geometry', (#323, #327, #331), #336);
#353 = CONSTRUCTIVE_GEOMETRY_REPRESENTATION_RELATIONSHIP('', '', #341, #352);
#354 = SHAPE_REPRESENTATION_RELATIONSHIP('', '', #341, #355);
#355 = SHAPE_REPRESENTATION('', (#297), #336);
#356 = SHAPE_REPRESENTATION_RELATIONSHIP('', '', #341, #357);
#357 = ADVANCED_BREP_SHAPE_REPRESENTATION('', (#1, #155), #336);
ENDSEC;
END-ISO-10303-21;
