ISO-10303-21;
HEADER;
FILE_DESCRIPTION(('STEP'), '1');
FILE_NAME('C:\\Users\\ds2002\\OneDrive - Sandvik\\HomeShare\\Documents\\Batchrepair\\CorSRT2\\NEW_MILBN_SLD\\Output2\\MOD000000000000000020082228700000.stp', '2018-11-23T12:39:22', (''), (''), 'Express v3.0.0.0', 'Express Tool', 'Unknown');
FILE_SCHEMA(('AUTOMOTIVE_DESIGN'));
ENDSEC;

DATA;
#1 = MANIFOLD_SOLID_BREP('NOCUT', #2);
#2 = CLOSED_SHELL('', (#3, #50, #89, #98, #137));
#3 = ADVANCED_FACE('', (#4), #31, .T.);
#4 = FACE_OUTER_BOUND('', #5, .T.);
#5 = EDGE_LOOP('', (#6, #16, #23, #24));
#6 = ORIENTED_EDGE('', *, *, #7, .T.);
#7 = EDGE_CURVE('', #8, #10, #12, .T.);
#8 = VERTEX_POINT('', #9);
#9 = CARTESIAN_POINT('', (-6., 3.12284933782575E-15, -45.));
#10 = VERTEX_POINT('', #11);
#11 = CARTESIAN_POINT('', (-6., 4.04133443718627E-16, -0.600000000000001));
#12 = LINE('', #13, #14);
#13 = CARTESIAN_POINT('', (-6., 3.12284933782575E-15, -45.));
#14 = VECTOR('', #15, 44.4);
#15 = DIRECTION('', (0., -2.71871589410712E-15, 44.4));
#16 = ORIENTED_EDGE('', *, *, #17, .T.);
#17 = EDGE_CURVE('', #10, #10, #18, .T.);
#18 = CIRCLE('', #19, 6.);
#19 = AXIS2_PLACEMENT_3D('', #20, #21, #22);
#20 = CARTESIAN_POINT('', (1.47104550762833E-15, -5.55111512312578E-16, -0.600000000000001));
#21 = DIRECTION('', (-1.85037170770859E-17, 1.23176547656001E-16, -1.));
#22 = DIRECTION('', (-1., 1.59874159338534E-16, 1.85037170770859E-17));
#23 = ORIENTED_EDGE('', *, *, #7, .F.);
#24 = ORIENTED_EDGE('', *, *, #25, .F.);
#25 = EDGE_CURVE('', #8, #8, #26, .T.);
#26 = CIRCLE('', #27, 6.);
#27 = AXIS2_PLACEMENT_3D('', #28, #29, #30);
#28 = CARTESIAN_POINT('', (5.55111512312578E-16, 2.33146835171283E-15, -45.));
#29 = DIRECTION('', (0., 0., -1.));
#30 = DIRECTION('', (-1., 1.3189683101882E-16, 0.));
#31 = (
   BOUNDED_SURFACE ()
   B_SPLINE_SURFACE (1, 2, ((#32, #33, #34, #35, #36, #37, #38, #39, #40), (#41, #42, #43, #44, #45, #46, #47, #48, #49)), .UNSPECIFIED., .F., .T., .U.)
   B_SPLINE_SURFACE_WITH_KNOTS ((2, 2), (3, 2, 2, 2, 3), (0., 1.), (0., 9.42477796076938, 18.8495559215388, 28.2743338823081, 37.6991118430775), .UNSPECIFIED.)
   GEOMETRIC_REPRESENTATION_ITEM ()
   RATIONAL_B_SPLINE_SURFACE (((1., 0.707106781186548, 1., 0.707106781186548, 1., 0.707106781186548, 1., 0.707106781186548, 1.), (1., 0.707106781186548, 1., 0.707106781186548, 1., 0.707106781186548, 1., 0.707106781186548, 1.)))
   REPRESENTATION_ITEM ('')
   SURFACE ()
);
#32 = CARTESIAN_POINT('', (-6., -3.99557661314357E-17, -45.));
#33 = CARTESIAN_POINT('', (-6., 6., -45.));
#34 = CARTESIAN_POINT('', (1.24133138569272E-15, 6., -45.));
#35 = CARTESIAN_POINT('', (6., 6., -45.));
#36 = CARTESIAN_POINT('', (6., -1.22365759870543E-15, -45.));
#37 = CARTESIAN_POINT('', (6., -6., -45.));
#38 = CARTESIAN_POINT('', (7.92417632607129E-16, -6., -45.));
#39 = CARTESIAN_POINT('', (-6., -6., -45.));
#40 = CARTESIAN_POINT('', (-6., -3.99557661314357E-17, -45.));
#41 = CARTESIAN_POINT('', (-6., 4.04133443718627E-16, -0.600000000000001));
#42 = CARTESIAN_POINT('', (-6., 6., -0.600000000000001));
#43 = CARTESIAN_POINT('', (2.06289642391533E-15, 6., -0.600000000000001));
#44 = CARTESIAN_POINT('', (6., 6., -0.600000000000001));
#45 = CARTESIAN_POINT('', (6., -7.79568388855371E-16, -0.600000000000001));
#46 = CARTESIAN_POINT('', (6., -6., -0.600000000000001));
#47 = CARTESIAN_POINT('', (1.61398267082975E-15, -6., -0.600000000000001));
#48 = CARTESIAN_POINT('', (-6., -6., -0.600000000000001));
#49 = CARTESIAN_POINT('', (-6., 4.04133443718627E-16, -0.600000000000001));
#50 = ADVANCED_FACE('', (#51), #70, .T.);
#51 = FACE_OUTER_BOUND('', #52, .T.);
#52 = EDGE_LOOP('', (#53, #61, #68, #69));
#53 = ORIENTED_EDGE('', *, *, #54, .T.);
#54 = EDGE_CURVE('', #10, #55, #57, .T.);
#55 = VERTEX_POINT('', #56);
#56 = CARTESIAN_POINT('', (-5.4, 3.30654635769785E-16, 0.));
#57 = LINE('', #58, #59);
#58 = CARTESIAN_POINT('', (-6., 4.04133443718627E-16, -0.600000000000001));
#59 = VECTOR('', #60, 0.848528137423857);
#60 = DIRECTION('', (0.6, -7.3478807948842E-17, 0.600000000000001));
#61 = ORIENTED_EDGE('', *, *, #62, .T.);
#62 = EDGE_CURVE('', #55, #55, #63, .T.);
#63 = CIRCLE('', #64, 5.4);
#64 = AXIS2_PLACEMENT_3D('', #65, #66, #67);
#65 = CARTESIAN_POINT('', (1.84574577843932E-15, -2.55351295663786E-15, -1.4791141972894E-31));
#66 = DIRECTION('', (5.31350199692362E-33, 6.12323399573676E-17, -1.));
#67 = DIRECTION('', (-1., 5.34105109705119E-16, 2.73910036535073E-32));
#68 = ORIENTED_EDGE('', *, *, #54, .F.);
#69 = ORIENTED_EDGE('', *, *, #17, .F.);
#70 = (
   BOUNDED_SURFACE ()
   B_SPLINE_SURFACE (1, 2, ((#71, #72, #73, #74, #75, #76, #77, #78, #79), (#80, #81, #82, #83, #84, #85, #86, #87, #88)), .UNSPECIFIED., .F., .T., .U.)
   B_SPLINE_SURFACE_WITH_KNOTS ((2, 2), (3, 2, 2, 2, 3), (0., 1.), (0., 0.25, 0.5, 0.75, 1.), .UNSPECIFIED.)
   GEOMETRIC_REPRESENTATION_ITEM ()
   RATIONAL_B_SPLINE_SURFACE (((1., 0.707106781186548, 1., 0.707106781186548, 1., 0.707106781186548, 1., 0.707106781186548, 1.), (1., 0.707106781186548, 1., 0.707106781186548, 1., 0.707106781186548, 1., 0.707106781186548, 1.)))
   REPRESENTATION_ITEM ('')
   SURFACE ()
);
#71 = CARTESIAN_POINT('', (-6., 2.98258605330568E-15, -0.600000000000001));
#72 = CARTESIAN_POINT('', (-6., 6., -0.599999999999978));
#73 = CARTESIAN_POINT('', (4.68298239692583E-15, 6., -0.599999999999978));
#74 = CARTESIAN_POINT('', (6., 6., -0.599999999999978));
#75 = CARTESIAN_POINT('', (6., -2.69188718366733E-15, -0.600000000000001));
#76 = CARTESIAN_POINT('', (6., -6., -0.600000000000024));
#77 = CARTESIAN_POINT('', (-2.56702760558774E-16, -6., -0.600000000000024));
#78 = CARTESIAN_POINT('', (-6., -6., -0.600000000000024));
#79 = CARTESIAN_POINT('', (-6., 2.98258605330568E-15, -0.600000000000001));
#80 = CARTESIAN_POINT('', (-5.4, 3.30654635769784E-16, -6.56858655152258E-47));
#81 = CARTESIAN_POINT('', (-5.4, 5.4, 2.09832151654154E-14));
#82 = CARTESIAN_POINT('', (4.39925873507718E-15, 5.4, 2.09832151654154E-14));
#83 = CARTESIAN_POINT('', (5.4, 5.4, 2.09832151654154E-14));
#84 = CARTESIAN_POINT('', (5.4, -4.77637127750593E-15, 2.27387988935674E-30));
#85 = CARTESIAN_POINT('', (5.4, -5.40000000000001, -2.09832151654154E-14));
#86 = CARTESIAN_POINT('', (-4.64579066589654E-17, -5.4, -2.09832151654154E-14));
#87 = CARTESIAN_POINT('', (-5.4, -5.4, -2.09832151654154E-14));
#88 = CARTESIAN_POINT('', (-5.4, 3.30654635769784E-16, -6.56858655152258E-47));
#89 = ADVANCED_FACE('', (#90), #93, .T.);
#90 = FACE_OUTER_BOUND('', #91, .T.);
#91 = EDGE_LOOP('', (#92));
#92 = ORIENTED_EDGE('', *, *, #62, .F.);
#93 = B_SPLINE_SURFACE_WITH_KNOTS('', 1, 1, ((#94, #95), (#96, #97)), .UNSPECIFIED., .F., .F., .U., (2, 2), (2, 2), (0.0454545454545454, 0.954545454545454), (0.0454545454545454, 0.954545454545454), .UNSPECIFIED.);
#94 = CARTESIAN_POINT('', (5.4, -5.4, -3.30654635769785E-16));
#95 = CARTESIAN_POINT('', (-5.4, -5.4, -3.30654635769785E-16));
#96 = CARTESIAN_POINT('', (5.4, 5.4, 3.30654635769785E-16));
#97 = CARTESIAN_POINT('', (-5.4, 5.4, 3.30654635769785E-16));
#98 = ADVANCED_FACE('', (#99), #118, .T.);
#99 = FACE_OUTER_BOUND('', #100, .T.);
#100 = EDGE_LOOP('', (#101, #110, #116, #117));
#101 = ORIENTED_EDGE('', *, *, #102, .F.);
#102 = EDGE_CURVE('', #103, #103, #105, .T.);
#103 = VERTEX_POINT('', #104);
#104 = CARTESIAN_POINT('', (-6., 4.89858719658941E-15, -74.));
#105 = CIRCLE('', #106, 6.);
#106 = AXIS2_PLACEMENT_3D('', #107, #108, #109);
#107 = CARTESIAN_POINT('', (1.88737914186277E-15, 2.55351295663786E-15, -74.));
#108 = DIRECTION('', (3.15068407172632E-30, 8.06119657463317E-15, -1.));
#109 = DIRECTION('', (-1., 3.90845706658592E-16, 0.));
#110 = ORIENTED_EDGE('', *, *, #111, .F.);
#111 = EDGE_CURVE('', #8, #103, #112, .T.);
#112 = LINE('', #113, #114);
#113 = CARTESIAN_POINT('', (-6., 3.12284933782575E-15, -45.));
#114 = VECTOR('', #115, 29.);
#115 = DIRECTION('', (0., 1.77573785876366E-15, -29.));
#116 = ORIENTED_EDGE('', *, *, #25, .T.);
#117 = ORIENTED_EDGE('', *, *, #111, .T.);
#118 = (
   BOUNDED_SURFACE ()
   B_SPLINE_SURFACE (2, 1, ((#119, #120), (#121, #122), (#123, #124), (#125, #126), (#127, #128), (#129, #130), (#131, #132), (#133, #134), (#135, #136)), .UNSPECIFIED., .T., .F., .U.)
   B_SPLINE_SURFACE_WITH_KNOTS ((3, 2, 2, 2, 3), (2, 2), (0., 9.42477796076938, 18.8495559215388, 28.2743338823081, 37.6991118430775), (0., 0.591836734693878), .UNSPECIFIED.)
   GEOMETRIC_REPRESENTATION_ITEM ()
   RATIONAL_B_SPLINE_SURFACE (((1., 1.), (0.707106781186548, 0.707106781186548), (1., 1.), (0.707106781186548, 0.707106781186548), (1., 1.), (0.707106781186548, 0.707106781186548), (1., 1.), (0.707106781186548, 0.707106781186548), (1., 1.)))
   REPRESENTATION_ITEM ('')
   SURFACE ()
);
#119 = CARTESIAN_POINT('', (-6., 3.12284933782575E-15, -45.));
#120 = CARTESIAN_POINT('', (-6., 2.45671552305066E-15, -74.));
#121 = CARTESIAN_POINT('', (-6., 6., -45.));
#122 = CARTESIAN_POINT('', (-6., 6., -74.));
#123 = CARTESIAN_POINT('', (4.61507886432868E-15, 6., -45.));
#124 = CARTESIAN_POINT('', (4.61507886432868E-15, 6., -74.));
#125 = CARTESIAN_POINT('', (6.00000000000001, 6., -45.));
#126 = CARTESIAN_POINT('', (6.00000000000001, 6., -74.));
#127 = CARTESIAN_POINT('', (6., -4.38646270266262E-15, -45.));
#128 = CARTESIAN_POINT('', (6., -5.05259651743771E-15, -74.));
#129 = CARTESIAN_POINT('', (6., -6.00000000000001, -45.));
#130 = CARTESIAN_POINT('', (6., -6.00000000000001, -74.));
#131 = CARTESIAN_POINT('', (-2.15944509667128E-15, -6., -45.));
#132 = CARTESIAN_POINT('', (-2.15944509667128E-15, -6., -74.));
#133 = CARTESIAN_POINT('', (-6., -6., -45.));
#134 = CARTESIAN_POINT('', (-6., -6., -74.));
#135 = CARTESIAN_POINT('', (-6., 3.12284933782575E-15, -45.));
#136 = CARTESIAN_POINT('', (-6., 2.45671552305066E-15, -74.));
#137 = ADVANCED_FACE('', (#138), #141, .T.);
#138 = FACE_OUTER_BOUND('', #139, .T.);
#139 = EDGE_LOOP('', (#140));
#140 = ORIENTED_EDGE('', *, *, #102, .T.);
#141 = B_SPLINE_SURFACE_WITH_KNOTS('', 1, 1, ((#142, #143), (#144, #145)), .UNSPECIFIED., .F., .F., .U., (2, 2), (2, 2), (0.484619906563061, 0.543774129790512), (0.456225870209488, 0.515380093436939), .UNSPECIFIED.);
#142 = CARTESIAN_POINT('', (-6.00000000000003, 6.00000000000003, -74.));
#143 = CARTESIAN_POINT('', (-6.00000000000003, -5.99999999999997, -74.));
#144 = CARTESIAN_POINT('', (5.99999999999999, 6.00000000000003, -74.));
#145 = CARTESIAN_POINT('', (5.99999999999999, -5.99999999999997, -74.));
#146 = DRAUGHTING_MODEL('', (#154, #262, #302, #307, #312, #317, #322), #336);
#147 = PRESENTATION_STYLE_ASSIGNMENT((#148));
#148 = SURFACE_STYLE_USAGE(.POSITIVE., #149);
#149 = SURFACE_SIDE_STYLE('', (#150));
#150 = SURFACE_STYLE_FILL_AREA(#151);
#151 = FILL_AREA_STYLE('', (#152));
#152 = FILL_AREA_STYLE_COLOUR('', #153);
#153 = COLOUR_RGB('', 0.50196078431373, 0.50196078431373, 0.50196078431373);
#154 = STYLED_ITEM('', (#147), #1);
#155 = MANIFOLD_SOLID_BREP('CUT', #156);
#156 = CLOSED_SHELL('', (#157, #174, #213));
#157 = ADVANCED_FACE('', (#158), #169, .T.);
#158 = FACE_OUTER_BOUND('', #159, .T.);
#159 = EDGE_LOOP('', (#160));
#160 = ORIENTED_EDGE('', *, *, #161, .F.);
#161 = EDGE_CURVE('', #162, #162, #164, .T.);
#162 = VERTEX_POINT('', #163);
#163 = CARTESIAN_POINT('', (-6., 4.89858719658941E-15, -74.));
#164 = CIRCLE('', #165, 6.);
#165 = AXIS2_PLACEMENT_3D('', #166, #167, #168);
#166 = CARTESIAN_POINT('', (1.88737914186277E-15, 2.55351295663786E-15, -74.));
#167 = DIRECTION('', (3.15068407172632E-30, 8.06119657463317E-15, -1.));
#168 = DIRECTION('', (-1., 3.90845706658592E-16, 0.));
#169 = B_SPLINE_SURFACE_WITH_KNOTS('', 1, 1, ((#170, #171), (#172, #173)), .UNSPECIFIED., .F., .F., .U., (2, 2), (2, 2), (0.456225870209488, 0.515380093436939), (0.484619906563061, 0.543774129790512), .UNSPECIFIED.);
#170 = CARTESIAN_POINT('', (-6., 6.00000000000001, -74.));
#171 = CARTESIAN_POINT('', (6.00000000000001, 6.00000000000001, -74.));
#172 = CARTESIAN_POINT('', (-6., -6., -74.));
#173 = CARTESIAN_POINT('', (6.00000000000001, -6., -74.));
#174 = ADVANCED_FACE('', (#175), #194, .T.);
#175 = FACE_OUTER_BOUND('', #176, .T.);
#176 = EDGE_LOOP('', (#177, #178, #186, #193));
#177 = ORIENTED_EDGE('', *, *, #161, .T.);
#178 = ORIENTED_EDGE('', *, *, #179, .T.);
#179 = EDGE_CURVE('', #162, #180, #182, .T.);
#180 = VERTEX_POINT('', #181);
#181 = CARTESIAN_POINT('', (-6., 6.12323399573677E-15, -94.));
#182 = LINE('', #183, #184);
#183 = CARTESIAN_POINT('', (-6., 4.89858719658941E-15, -74.));
#184 = VECTOR('', #185, 20.);
#185 = DIRECTION('', (0., 1.22464679914736E-15, -20.));
#186 = ORIENTED_EDGE('', *, *, #187, .F.);
#187 = EDGE_CURVE('', #180, #180, #188, .T.);
#188 = CIRCLE('', #189, 6.);
#189 = AXIS2_PLACEMENT_3D('', #190, #191, #192);
#190 = CARTESIAN_POINT('', (1.41553435639707E-15, 7.7715611723761E-16, -94.));
#191 = DIRECTION('', (2.36847578586699E-15, -7.70540152533508E-15, -1.));
#192 = DIRECTION('', (-1., 8.9101297974986E-16, -2.368475785867E-15));
#193 = ORIENTED_EDGE('', *, *, #179, .F.);
#194 = (
   BOUNDED_SURFACE ()
   B_SPLINE_SURFACE (2, 1, ((#195, #196), (#197, #198), (#199, #200), (#201, #202), (#203, #204), (#205, #206), (#207, #208), (#209, #210), (#211, #212)), .UNSPECIFIED., .T., .F., .U.)
   B_SPLINE_SURFACE_WITH_KNOTS ((3, 2, 2, 2, 3), (2, 2), (0., 9.42477796076938, 18.8495559215388, 28.2743338823081, 37.6991118430775), (0.591836734693878, 1.), .UNSPECIFIED.)
   GEOMETRIC_REPRESENTATION_ITEM ()
   RATIONAL_B_SPLINE_SURFACE (((1., 1.), (0.707106781186548, 0.707106781186548), (1., 1.), (0.707106781186548, 0.707106781186548), (1., 1.), (0.707106781186548, 0.707106781186548), (1., 1.), (0.707106781186548, 0.707106781186548), (1., 1.)))
   REPRESENTATION_ITEM ('')
   SURFACE ()
);
#195 = CARTESIAN_POINT('', (-6., 4.89858719658941E-15, -74.));
#196 = CARTESIAN_POINT('', (-5.99999999999995, 7.3410778507647E-15, -94.));
#197 = CARTESIAN_POINT('', (-5.99999999999999, 6.00000000000001, -74.));
#198 = CARTESIAN_POINT('', (-5.99999999999995, 6.00000000000001, -94.));
#199 = CARTESIAN_POINT('', (7.39001744525498E-15, 6., -74.));
#200 = CARTESIAN_POINT('', (5.4759533162595E-14, 6., -94.));
#201 = CARTESIAN_POINT('', (6.00000000000001, 5.99999999999999, -74.));
#202 = CARTESIAN_POINT('', (6.00000000000006, 6., -94.));
#203 = CARTESIAN_POINT('', (6., -7.49446819097647E-15, -74.));
#204 = CARTESIAN_POINT('', (6.00000000000005, -5.05197753680117E-15, -94.));
#205 = CARTESIAN_POINT('', (6., -6.00000000000001, -74.));
#206 = CARTESIAN_POINT('', (6.00000000000004, -6.00000000000001, -94.));
#207 = CARTESIAN_POINT('', (-4.26824986282248E-15, -6., -74.));
#208 = CARTESIAN_POINT('', (4.31012658545175E-14, -6., -94.));
#209 = CARTESIAN_POINT('', (-6.00000000000001, -6., -74.));
#210 = CARTESIAN_POINT('', (-5.99999999999996, -6., -94.));
#211 = CARTESIAN_POINT('', (-6., 4.89858719658941E-15, -74.));
#212 = CARTESIAN_POINT('', (-5.99999999999995, 7.3410778507647E-15, -94.));
#213 = ADVANCED_FACE('', (#214), #227, .T.);
#214 = FACE_OUTER_BOUND('', #215, .T.);
#215 = EDGE_LOOP('', (#216, #225, #226));
#216 = ORIENTED_EDGE('', *, *, #217, .F.);
#217 = EDGE_CURVE('', #180, #218, #220, .T.);
#218 = VERTEX_POINT('', #219);
#219 = CARTESIAN_POINT('', (1.10218211923262E-15, 6.12323399573677E-15, -100.));
#220 = CIRCLE('', #221, 5.99999999999997);
#221 = AXIS2_PLACEMENT_3D('', #222, #223, #224);
#222 = CARTESIAN_POINT('', (-3.73034936274053E-14, 5.75583995599258E-15, -94.));
#223 = DIRECTION('', (-6.12323399573663E-17, -1., -6.12323399573664E-17));
#224 = DIRECTION('', (-1., 6.12323399573661E-17, 2.36847578586702E-15));
#225 = ORIENTED_EDGE('', *, *, #187, .T.);
#226 = ORIENTED_EDGE('', *, *, #217, .T.);
#227 = (
   BOUNDED_SURFACE ()
   B_SPLINE_SURFACE (2, 2, ((#228, #229, #230), (#231, #232, #233), (#234, #235, #236), (#237, #238, #239), (#240, #241, #242), (#243, #244, #245), (#246, #247, #248), (#249, #250, #251), (#252, #253, #254)), .UNSPECIFIED., .T., .F., .U.)
   B_SPLINE_SURFACE_WITH_KNOTS ((3, 2, 2, 2, 3), (3, 3), (0., 0.25, 0.5, 0.75, 1.), (0., 1.), .UNSPECIFIED.)
   GEOMETRIC_REPRESENTATION_ITEM ()
   RATIONAL_B_SPLINE_SURFACE (((1., 0.707106781186548, 1.), (0.707106781186548, 0.5, 0.707106781186548), (1., 0.707106781186548, 1.), (0.707106781186548, 0.5, 0.707106781186548), (1., 0.707106781186548, 1.), (0.707106781186548, 0.5, 0.707106781186548), (1., 0.707106781186548, 1.), (0.707106781186548, 0.5, 0.707106781186548), (1., 0.707106781186548, 1.)))
   REPRESENTATION_ITEM ('')
   SURFACE ()
);
#228 = CARTESIAN_POINT('', (-6., 6.12323399573677E-15, -94.));
#229 = CARTESIAN_POINT('', (-6., 6.49062803548097E-15, -100.));
#230 = CARTESIAN_POINT('', (1.10218211923262E-15, 6.12323399573677E-15, -100.));
#231 = CARTESIAN_POINT('', (-6., 5.99999999999997, -94.));
#232 = CARTESIAN_POINT('', (-6., 5.99999999999997, -100.));
#233 = CARTESIAN_POINT('', (1.10218211923262E-15, 6.12323399573677E-15, -100.));
#234 = CARTESIAN_POINT('', (-3.73034936274053E-14, 5.99999999999997, -94.));
#235 = CARTESIAN_POINT('', (-3.69360995876611E-14, 5.99999999999997, -100.));
#236 = CARTESIAN_POINT('', (1.10218211923262E-15, 6.12323399573677E-15, -100.));
#237 = CARTESIAN_POINT('', (5.99999999999993, 5.99999999999997, -94.));
#238 = CARTESIAN_POINT('', (5.99999999999993, 5.99999999999997, -100.));
#239 = CARTESIAN_POINT('', (1.10218211923262E-15, 6.12323399573677E-15, -100.));
#240 = CARTESIAN_POINT('', (5.99999999999993, 6.12323399573679E-15, -94.));
#241 = CARTESIAN_POINT('', (5.99999999999993, 5.75583995599259E-15, -100.));
#242 = CARTESIAN_POINT('', (1.10218211923262E-15, 6.12323399573677E-15, -100.));
#243 = CARTESIAN_POINT('', (5.99999999999993, -5.99999999999996, -94.));
#244 = CARTESIAN_POINT('', (5.99999999999993, -5.99999999999996, -100.));
#245 = CARTESIAN_POINT('', (1.10218211923262E-15, 6.12323399573677E-15, -100.));
#246 = CARTESIAN_POINT('', (-3.65687055479168E-14, -5.99999999999996, -94.));
#247 = CARTESIAN_POINT('', (-3.6936099587661E-14, -5.99999999999996, -100.));
#248 = CARTESIAN_POINT('', (1.10218211923262E-15, 6.12323399573677E-15, -100.));
#249 = CARTESIAN_POINT('', (-6., -5.99999999999996, -94.));
#250 = CARTESIAN_POINT('', (-6., -5.99999999999996, -100.));
#251 = CARTESIAN_POINT('', (1.10218211923262E-15, 6.12323399573677E-15, -100.));
#252 = CARTESIAN_POINT('', (-6., 6.12323399573677E-15, -94.));
#253 = CARTESIAN_POINT('', (-6., 6.49062803548097E-15, -100.));
#254 = CARTESIAN_POINT('', (1.10218211923262E-15, 6.12323399573677E-15, -100.));
#255 = PRESENTATION_STYLE_ASSIGNMENT((#256));
#256 = SURFACE_STYLE_USAGE(.POSITIVE., #257);
#257 = SURFACE_SIDE_STYLE('', (#258));
#258 = SURFACE_STYLE_FILL_AREA(#259);
#259 = FILL_AREA_STYLE('', (#260));
#260 = FILL_AREA_STYLE_COLOUR('', #261);
#261 = COLOUR_RGB('', 0.8, 0.8, 0.8);
#262 = STYLED_ITEM('', (#255), #155);
#263 = TRIMMED_CURVE('cutting part line', #264, (#269), (#270), .T., .CARTESIAN.);
#264 = CIRCLE('', #265, 5.99999999999996);
#265 = AXIS2_PLACEMENT_3D('', #266, #267, #268);
#266 = CARTESIAN_POINT('', (-2.73114864057789E-14, 0., -94.));
#267 = DIRECTION('', (0., -1., 0.));
#268 = DIRECTION('', (-1.33689355881947E-15, 0., -1.));
#269 = CARTESIAN_POINT('', (-3.53328477586956E-14, 0., -100.));
#270 = CARTESIAN_POINT('', (5.99999999999993, 0., -94.));
#271 = TRIMMED_CURVE('cutting part line', #272, (#276), (#277), .T., .CARTESIAN.);
#272 = LINE('', #273, #274);
#273 = CARTESIAN_POINT('', (6.00000000000005, 3.2688306920545E-15, -94.));
#274 = VECTOR('', #275, 20.);
#275 = DIRECTION('', (-4.70734562441066E-14, -3.2688306920545E-15, 20.));
#276 = CARTESIAN_POINT('', (6.00000000000005, 3.2688306920545E-15, -94.));
#277 = CARTESIAN_POINT('', (6., 0., -74.));
#278 = TRIMMED_CURVE('cutting part line', #279, (#283), (#284), .T., .CARTESIAN.);
#279 = LINE('', #280, #281);
#280 = CARTESIAN_POINT('', (6., 0., -74.));
#281 = VECTOR('', #282, 6.);
#282 = DIRECTION('', (-6., 0., 0.));
#283 = CARTESIAN_POINT('', (6., 0., -74.));
#284 = CARTESIAN_POINT('', (1.38777878078145E-17, 0., -74.));
#285 = TRIMMED_CURVE('cutting part line', #286, (#290), (#291), .T., .CARTESIAN.);
#286 = LINE('', #287, #288);
#287 = CARTESIAN_POINT('', (0., 0., -74.));
#288 = VECTOR('', #289, 26.);
#289 = DIRECTION('', (0., 0., -26.));
#290 = CARTESIAN_POINT('', (0., 0., -74.));
#291 = CARTESIAN_POINT('', (0., 0., -100.));
#292 = COMPOSITE_CURVE('cutting part line', (#293, #294, #295, #296), .U.);
#293 = COMPOSITE_CURVE_SEGMENT(.CONTINUOUS., .T., #263);
#294 = COMPOSITE_CURVE_SEGMENT(.CONTINUOUS., .T., #271);
#295 = COMPOSITE_CURVE_SEGMENT(.CONTINUOUS., .T., #278);
#296 = COMPOSITE_CURVE_SEGMENT(.CONTINUOUS., .T., #285);
#297 = GEOMETRIC_SET('', (#292, #335));
#298 = PRESENTATION_STYLE_ASSIGNMENT((#299));
#299 = CURVE_STYLE('', #301, POSITIVE_LENGTH_MEASURE(1.E-6), #300);
#300 = COLOUR_RGB('', 0., 0., 1.);
#301 = DRAUGHTING_PRE_DEFINED_CURVE_FONT('continuous');
#302 = STYLED_ITEM('', (#298), #292);
#303 = PRESENTATION_STYLE_ASSIGNMENT((#304));
#304 = CURVE_STYLE('', #306, POSITIVE_LENGTH_MEASURE(1.E-6), #305);
#305 = COLOUR_RGB('', 0., 0., 1.);
#306 = DRAUGHTING_PRE_DEFINED_CURVE_FONT('continuous');
#307 = OVER_RIDING_STYLED_ITEM('', (#303), #263, #302);
#308 = PRESENTATION_STYLE_ASSIGNMENT((#309));
#309 = CURVE_STYLE('', #311, POSITIVE_LENGTH_MEASURE(1.E-6), #310);
#310 = COLOUR_RGB('', 0., 0., 1.);
#311 = DRAUGHTING_PRE_DEFINED_CURVE_FONT('continuous');
#312 = OVER_RIDING_STYLED_ITEM('', (#308), #271, #302);
#313 = PRESENTATION_STYLE_ASSIGNMENT((#314));
#314 = CURVE_STYLE('', #316, POSITIVE_LENGTH_MEASURE(1.E-6), #315);
#315 = COLOUR_RGB('', 0., 0., 1.);
#316 = DRAUGHTING_PRE_DEFINED_CURVE_FONT('continuous');
#317 = OVER_RIDING_STYLED_ITEM('', (#313), #278, #302);
#318 = PRESENTATION_STYLE_ASSIGNMENT((#319));
#319 = CURVE_STYLE('', #321, POSITIVE_LENGTH_MEASURE(1.E-6), #320);
#320 = COLOUR_RGB('', 0., 0., 1.);
#321 = DRAUGHTING_PRE_DEFINED_CURVE_FONT('continuous');
#322 = OVER_RIDING_STYLED_ITEM('', (#318), #285, #302);
#323 = AXIS2_PLACEMENT_3D('MCS', #324, #325, #326);
#324 = CARTESIAN_POINT('', (0., 0., -45.));
#325 = DIRECTION('', (0., 0., 1.));
#326 = DIRECTION('', (1., 0., 0.));
#327 = AXIS2_PLACEMENT_3D('PCS', #328, #329, #330);
#328 = CARTESIAN_POINT('', (0., 0., 0.));
#329 = DIRECTION('', (0., 0., 1.));
#330 = DIRECTION('', (1., 0., 0.));
#331 = AXIS2_PLACEMENT_3D('CIP', #332, #333, #334);
#332 = CARTESIAN_POINT('', (0., 0., -100.));
#333 = DIRECTION('', (0., 0., 1.));
#334 = DIRECTION('', (1., 0., 0.));
#335 = CARTESIAN_POINT('CRP', (6.00000000000005, 0., -100.));
#336 = (
   GEOMETRIC_REPRESENTATION_CONTEXT (3)
   GLOBAL_UNCERTAINTY_ASSIGNED_CONTEXT ((#338))
   GLOBAL_UNIT_ASSIGNED_CONTEXT ((#337, #339, #340))
   REPRESENTATION_CONTEXT ('', '3D')
);
#337 = (
   LENGTH_UNIT ()
   NAMED_UNIT (*)
   SI_UNIT (.MILLI., .METRE.)
);
#338 = UNCERTAINTY_MEASURE_WITH_UNIT(LENGTH_MEASURE(1.E-6), #337, 'DISTANCE_ACCURACY_VALUE', '');
#339 = (
   NAMED_UNIT (*)
   SI_UNIT ($, .STERADIAN.)
   SOLID_ANGLE_UNIT ()
);
#340 = (
   NAMED_UNIT (*)
   PLANE_ANGLE_UNIT ()
   SI_UNIT ($, .RADIAN.)
);
#341 = SHAPE_REPRESENTATION('', (), #336);
#342 = PRODUCT_DEFINITION_SHAPE('', '', #343);
#343 = PRODUCT_DEFINITION('', '', #346, #350);
#344 = APPLICATION_CONTEXT('configuration controlled 3D designs of mechanical parts and assemblies');
#345 = APPLICATION_PROTOCOL_DEFINITION('International Standard', 'automotive_design', 2002, #344);
#346 = PRODUCT_DEFINITION_FORMATION_WITH_SPECIFIED_SOURCE('', '', #347, .NOT_KNOWN.);
#347 = PRODUCT('product-name', '1B240-1200-XA       1630', '', (#348));
#348 = PRODUCT_CONTEXT('', #344, 'mechanical');
#349 = PRODUCT_RELATED_PRODUCT_CATEGORY('detail', '', (#347));
#350 = PRODUCT_DEFINITION_CONTEXT('part definition', #344, 'design');
#351 = SHAPE_DEFINITION_REPRESENTATION(#342, #341);
#352 = CONSTRUCTIVE_GEOMETRY_REPRESENTATION('supplemental geometry', (#323, #327, #331), #336);
#353 = CONSTRUCTIVE_GEOMETRY_REPRESENTATION_RELATIONSHIP('', '', #341, #352);
#354 = SHAPE_REPRESENTATION_RELATIONSHIP('', '', #341, #355);
#355 = SHAPE_REPRESENTATION('', (#297), #336);
#356 = SHAPE_REPRESENTATION_RELATIONSHIP('', '', #341, #357);
#357 = ADVANCED_BREP_SHAPE_REPRESENTATION('', (#1, #155), #336);
ENDSEC;
END-ISO-10303-21;
