ISO-10303-21;
HEADER;
FILE_DESCRIPTION(('STEP'), '1');
FILE_NAME('C:\\Users\\ds2002\\OneDrive - Sandvik\\HomeShare\\Documents\\Batchrepair\\CorSRT2\\NEW_MILBN_SLD\\Output3\\MOD000000000000000020082228500000.stp', '2018-11-27T13:11:58', (''), (''), 'Express v3.0.0.0', 'Express Tool', 'Unknown');
FILE_SCHEMA(('AUTOMOTIVE_DESIGN'));
ENDSEC;

DATA;
#1 = MANIFOLD_SOLID_BREP('NOCUT', #2);
#2 = CLOSED_SHELL('', (#3, #50, #59, #98));
#3 = ADVANCED_FACE('', (#4), #31, .T.);
#4 = FACE_OUTER_BOUND('', #5, .T.);
#5 = EDGE_LOOP('', (#6, #16, #23, #24));
#6 = ORIENTED_EDGE('', *, *, #7, .T.);
#7 = EDGE_CURVE('', #8, #10, #12, .T.);
#8 = VERTEX_POINT('', #9);
#9 = CARTESIAN_POINT('', (-4.7625, 3.2078092095166E-16, -0.47625));
#10 = VERTEX_POINT('', #11);
#11 = CARTESIAN_POINT('', (-4.28625, 2.62457117142267E-16, 0.));
#12 = LINE('', #13, #14);
#13 = CARTESIAN_POINT('', (-4.7625, 3.2078092095166E-16, -0.47625));
#14 = VECTOR('', #15, 0.673519209080187);
#15 = DIRECTION('', (0.47625, -5.8323803809393E-17, 0.47625));
#16 = ORIENTED_EDGE('', *, *, #17, .T.);
#17 = EDGE_CURVE('', #10, #10, #18, .T.);
#18 = CIRCLE('', #19, 4.28625);
#19 = AXIS2_PLACEMENT_3D('', #20, #21, #22);
#20 = CARTESIAN_POINT('', (2.08166817117217E-16, 2.22044604925031E-15, 1.41748443906901E-31));
#21 = DIRECTION('', (5.09914260327735E-33, 6.12323399573676E-17, -1.));
#22 = DIRECTION('', (-1., -7.01736343115104E-16, -4.80681009253414E-32));
#23 = ORIENTED_EDGE('', *, *, #7, .F.);
#24 = ORIENTED_EDGE('', *, *, #25, .F.);
#25 = EDGE_CURVE('', #8, #8, #26, .T.);
#26 = CIRCLE('', #27, 4.7625);
#27 = AXIS2_PLACEMENT_3D('', #28, #29, #30);
#28 = CARTESIAN_POINT('', (1.11022302462516E-16, -8.88178419700125E-16, -0.47625));
#29 = DIRECTION('', (-2.3311769545935E-17, 1.55183052165052E-16, -1.));
#30 = DIRECTION('', (-1., 8.92037049111416E-18, 2.3311769545935E-17));
#31 = (
   BOUNDED_SURFACE ()
   B_SPLINE_SURFACE (1, 2, ((#32, #33, #34, #35, #36, #37, #38, #39, #40), (#41, #42, #43, #44, #45, #46, #47, #48, #49)), .UNSPECIFIED., .F., .T., .U.)
   B_SPLINE_SURFACE_WITH_KNOTS ((2, 2), (3, 2, 2, 2, 3), (0., 1.), (0., 0.25, 0.5, 0.75, 1.), .UNSPECIFIED.)
   GEOMETRIC_REPRESENTATION_ITEM ()
   RATIONAL_B_SPLINE_SURFACE (((1., 0.707106781186548, 1., 0.707106781186548, 1., 0.707106781186548, 1., 0.707106781186548, 1.), (1., 0.707106781186548, 1., 0.707106781186548, 1., 0.707106781186548, 1., 0.707106781186548, 1.)))
   REPRESENTATION_ITEM ('')
   SURFACE ()
);
#32 = CARTESIAN_POINT('', (-4.7625, 1.85826706490691E-15, -0.47625));
#33 = CARTESIAN_POINT('', (-4.7625, 4.7625, -0.476249999999988));
#34 = CARTESIAN_POINT('', (1.91359274105531E-15, 4.7625, -0.476249999999988));
#35 = CARTESIAN_POINT('', (4.7625, 4.7625, -0.476249999999988));
#36 = CARTESIAN_POINT('', (4.7625, -5.04978731053851E-15, -0.47625));
#37 = CARTESIAN_POINT('', (4.7625, -4.76250000000001, -0.476250000000012));
#38 = CARTESIAN_POINT('', (-4.41122359629619E-15, -4.7625, -0.476250000000012));
#39 = CARTESIAN_POINT('', (-4.76250000000001, -4.7625, -0.476250000000012));
#40 = CARTESIAN_POINT('', (-4.7625, 1.85826706490691E-15, -0.47625));
#41 = CARTESIAN_POINT('', (-4.28625, 2.62457117142269E-16, 1.09476442525376E-46));
#42 = CARTESIAN_POINT('', (-4.28625, 4.28625, 1.09912079437891E-14));
#43 = CARTESIAN_POINT('', (1.56819002228304E-15, 4.28625, 1.09912079437891E-14));
#44 = CARTESIAN_POINT('', (4.28625, 4.28625, 1.09912079437891E-14));
#45 = CARTESIAN_POINT('', (4.28625, -5.95479182075861E-15, 9.76256213390072E-31));
#46 = CARTESIAN_POINT('', (4.28625, -4.28625000000001, -1.09912079437891E-14));
#47 = CARTESIAN_POINT('', (-4.12414468133331E-15, -4.28625, -1.09912079437891E-14));
#48 = CARTESIAN_POINT('', (-4.28625000000001, -4.28625, -1.09912079437891E-14));
#49 = CARTESIAN_POINT('', (-4.28625, 2.62457117142269E-16, 1.09476442525376E-46));
#50 = ADVANCED_FACE('', (#51), #54, .T.);
#51 = FACE_OUTER_BOUND('', #52, .T.);
#52 = EDGE_LOOP('', (#53));
#53 = ORIENTED_EDGE('', *, *, #17, .F.);
#54 = B_SPLINE_SURFACE_WITH_KNOTS('', 1, 1, ((#55, #56), (#57, #58)), .UNSPECIFIED., .F., .F., .U., (2, 2), (2, 2), (2.38159016989385, 10.9540901698938), (2.38159016989385, 10.9540901698938), .UNSPECIFIED.);
#55 = CARTESIAN_POINT('', (4.28625, -4.28625, 1.39483975980597E-14));
#56 = CARTESIAN_POINT('', (-4.28625, -4.28625, -2.62457117142288E-16));
#57 = CARTESIAN_POINT('', (4.28625, 4.28625, 1.44733118323442E-14));
#58 = CARTESIAN_POINT('', (-4.28625, 4.28625, 2.62457117142244E-16));
#59 = ADVANCED_FACE('', (#60), #79, .T.);
#60 = FACE_OUTER_BOUND('', #61, .T.);
#61 = EDGE_LOOP('', (#62, #71, #77, #78));
#62 = ORIENTED_EDGE('', *, *, #63, .F.);
#63 = EDGE_CURVE('', #64, #64, #66, .T.);
#64 = VERTEX_POINT('', #65);
#65 = CARTESIAN_POINT('', (-4.7625, 4.56869796506909E-15, -69.85));
#66 = CIRCLE('', #67, 4.7625);
#67 = AXIS2_PLACEMENT_3D('', #68, #69, #70);
#68 = CARTESIAN_POINT('', (1.94289029309402E-16, 2.1094237467878E-15, -69.85));
#69 = DIRECTION('', (0., 0., -1.));
#70 = DIRECTION('', (-1., 5.16383037959329E-16, 0.));
#71 = ORIENTED_EDGE('', *, *, #72, .F.);
#72 = EDGE_CURVE('', #8, #64, #73, .T.);
#73 = LINE('', #74, #75);
#74 = CARTESIAN_POINT('', (-4.7625, 3.2078092095166E-16, -0.47625));
#75 = VECTOR('', #76, 69.37375);
#76 = DIRECTION('', (0., 4.24791704411744E-15, -69.37375));
#77 = ORIENTED_EDGE('', *, *, #25, .T.);
#78 = ORIENTED_EDGE('', *, *, #72, .T.);
#79 = (
   BOUNDED_SURFACE ()
   B_SPLINE_SURFACE (1, 2, ((#80, #81, #82, #83, #84, #85, #86, #87, #88), (#89, #90, #91, #92, #93, #94, #95, #96, #97)), .UNSPECIFIED., .F., .T., .U.)
   B_SPLINE_SURFACE_WITH_KNOTS ((2, 2), (3, 2, 2, 2, 3), (-0.768666942859875, 1.), (0., 0.25, 0.5, 0.75, 1.), .UNSPECIFIED.)
   GEOMETRIC_REPRESENTATION_ITEM ()
   RATIONAL_B_SPLINE_SURFACE (((1., 0.707106781186548, 1., 0.707106781186548, 1., 0.707106781186548, 1., 0.707106781186548, 1.), (1., 0.707106781186548, 1., 0.707106781186548, 1., 0.707106781186548, 1., 0.707106781186548, 1.)))
   REPRESENTATION_ITEM ('')
   SURFACE ()
);
#80 = CARTESIAN_POINT('', (-4.7625, 8.98052051302788E-15, -69.85));
#81 = CARTESIAN_POINT('', (-4.7625, 4.76250000000001, -69.85));
#82 = CARTESIAN_POINT('', (8.6460472793513E-16, 4.7625, -69.85));
#83 = CARTESIAN_POINT('', (4.7625, 4.7625, -69.85));
#84 = CARTESIAN_POINT('', (4.7625, 5.36948303041799E-15, -69.85));
#85 = CARTESIAN_POINT('', (4.7625, -4.76249999999999, -69.85));
#86 = CARTESIAN_POINT('', (-2.16319471658083E-15, -4.76249999999999, -69.85));
#87 = CARTESIAN_POINT('', (-4.7625, -4.76249999999999, -69.85));
#88 = CARTESIAN_POINT('', (-4.7625, 8.98052051302788E-15, -69.85));
#89 = CARTESIAN_POINT('', (-4.7625, 3.20780920951658E-16, -0.47625));
#90 = CARTESIAN_POINT('', (-4.76249999999999, 4.7625, -0.476249999999999));
#91 = CARTESIAN_POINT('', (3.29044203674109E-15, 4.7625, -0.47625));
#92 = CARTESIAN_POINT('', (4.7625, 4.76249999999999, -0.47625));
#93 = CARTESIAN_POINT('', (4.7625, -3.29025656165823E-15, -0.47625));
#94 = CARTESIAN_POINT('', (4.7625, -4.7625, -0.476250000000001));
#95 = CARTESIAN_POINT('', (2.62642592225128E-16, -4.7625, -0.476250000000001));
#96 = CARTESIAN_POINT('', (-4.7625, -4.7625, -0.476250000000001));
#97 = CARTESIAN_POINT('', (-4.7625, 3.20780920951658E-16, -0.47625));
#98 = ADVANCED_FACE('', (#99), #102, .T.);
#99 = FACE_OUTER_BOUND('', #100, .T.);
#100 = EDGE_LOOP('', (#101));
#101 = ORIENTED_EDGE('', *, *, #63, .T.);
#102 = B_SPLINE_SURFACE_WITH_KNOTS('', 1, 1, ((#103, #104), (#105, #106)), .UNSPECIFIED., .F., .F., .U., (2, 2), (2, 2), (87.9435712958955, 97.4685712958955), (82.4206902559359, 91.9456902559359), .UNSPECIFIED.);
#103 = CARTESIAN_POINT('', (-4.7625, 4.76250000000002, -69.85));
#104 = CARTESIAN_POINT('', (-4.7625, -4.7625, -69.85));
#105 = CARTESIAN_POINT('', (4.7625, 4.76250000000002, -69.85));
#106 = CARTESIAN_POINT('', (4.7625, -4.7625, -69.85));
#107 = DRAUGHTING_MODEL('', (#115, #223, #263, #268, #273, #278, #283), #297);
#108 = PRESENTATION_STYLE_ASSIGNMENT((#109));
#109 = SURFACE_STYLE_USAGE(.POSITIVE., #110);
#110 = SURFACE_SIDE_STYLE('', (#111));
#111 = SURFACE_STYLE_FILL_AREA(#112);
#112 = FILL_AREA_STYLE('', (#113));
#113 = FILL_AREA_STYLE_COLOUR('', #114);
#114 = COLOUR_RGB('', 0.50196078431373, 0.50196078431373, 0.50196078431373);
#115 = STYLED_ITEM('', (#108), #1);
#116 = MANIFOLD_SOLID_BREP('CUT', #117);
#117 = CLOSED_SHELL('', (#118, #135, #174));
#118 = ADVANCED_FACE('', (#119), #130, .T.);
#119 = FACE_OUTER_BOUND('', #120, .T.);
#120 = EDGE_LOOP('', (#121));
#121 = ORIENTED_EDGE('', *, *, #122, .F.);
#122 = EDGE_CURVE('', #123, #123, #125, .T.);
#123 = VERTEX_POINT('', #124);
#124 = CARTESIAN_POINT('', (-4.7625, 4.56869796506909E-15, -69.85));
#125 = CIRCLE('', #126, 4.7625);
#126 = AXIS2_PLACEMENT_3D('', #127, #128, #129);
#127 = CARTESIAN_POINT('', (1.94289029309402E-16, 2.1094237467878E-15, -69.85));
#128 = DIRECTION('', (0., 0., -1.));
#129 = DIRECTION('', (-1., 5.16383037959329E-16, 0.));
#130 = B_SPLINE_SURFACE_WITH_KNOTS('', 1, 1, ((#131, #132), (#133, #134)), .UNSPECIFIED., .F., .F., .U., (2, 2), (2, 2), (82.4206902559359, 91.9456902559359), (87.9435712958955, 97.4685712958955), .UNSPECIFIED.);
#131 = CARTESIAN_POINT('', (-4.7625, 4.76250000000002, -69.85));
#132 = CARTESIAN_POINT('', (4.7625, 4.76250000000002, -69.85));
#133 = CARTESIAN_POINT('', (-4.7625, -4.7625, -69.85));
#134 = CARTESIAN_POINT('', (4.7625, -4.7625, -69.85));
#135 = ADVANCED_FACE('', (#136), #155, .T.);
#136 = FACE_OUTER_BOUND('', #137, .T.);
#137 = EDGE_LOOP('', (#138, #139, #147, #154));
#138 = ORIENTED_EDGE('', *, *, #122, .T.);
#139 = ORIENTED_EDGE('', *, *, #140, .T.);
#140 = EDGE_CURVE('', #123, #141, #143, .T.);
#141 = VERTEX_POINT('', #142);
#142 = CARTESIAN_POINT('', (-4.7625, 5.43929859815723E-15, -84.0679873200057));
#143 = LINE('', #144, #145);
#144 = CARTESIAN_POINT('', (-4.7625, 4.5686979650691E-15, -69.85));
#145 = VECTOR('', #146, 14.2179873200057);
#146 = DIRECTION('', (0., 8.7060063308813E-16, -14.2179873200057));
#147 = ORIENTED_EDGE('', *, *, #148, .F.);
#148 = EDGE_CURVE('', #141, #141, #149, .T.);
#149 = CIRCLE('', #150, 4.7625);
#150 = AXIS2_PLACEMENT_3D('', #151, #152, #153);
#151 = CARTESIAN_POINT('', (1.02695629777827E-15, 3.21964677141295E-15, -84.0679873200057));
#152 = DIRECTION('', (0., 0., -1.));
#153 = DIRECTION('', (-1., 4.66068625038168E-16, 0.));
#154 = ORIENTED_EDGE('', *, *, #140, .F.);
#155 = (
   BOUNDED_SURFACE ()
   B_SPLINE_SURFACE (1, 2, ((#156, #157, #158, #159, #160, #161, #162, #163, #164), (#165, #166, #167, #168, #169, #170, #171, #172, #173)), .UNSPECIFIED., .F., .T., .U.)
   B_SPLINE_SURFACE_WITH_KNOTS ((2, 2), (3, 2, 2, 2, 3), (-1.13115108371856, -0.768666942859875), (0., 0.25, 0.5, 0.75, 1.), .UNSPECIFIED.)
   GEOMETRIC_REPRESENTATION_ITEM ()
   RATIONAL_B_SPLINE_SURFACE (((1., 0.707106781186548, 1., 0.707106781186548, 1., 0.707106781186548, 1., 0.707106781186548, 1.), (1., 0.707106781186548, 1., 0.707106781186548, 1., 0.707106781186548, 1., 0.707106781186548, 1.)))
   REPRESENTATION_ITEM ('')
   SURFACE ()
);
#156 = CARTESIAN_POINT('', (-4.7625, 4.90176487245665E-15, -84.0679873200057));
#157 = CARTESIAN_POINT('', (-4.7625, 4.7625, -84.0679873200057));
#158 = CARTESIAN_POINT('', (-3.07814859211953E-15, 4.76250000000001, -84.0679873200057));
#159 = CARTESIAN_POINT('', (4.76249999999999, 4.76250000000001, -84.0679873200057));
#160 = CARTESIAN_POINT('', (4.7625, 1.01143724857643E-14, -84.0679873200057));
#161 = CARTESIAN_POINT('', (4.7625, -4.76249999999999, -84.0679873200057));
#162 = CARTESIAN_POINT('', (2.71769705928207E-15, -4.76249999999999, -84.0679873200057));
#163 = CARTESIAN_POINT('', (-4.7625, -4.76249999999999, -84.0679873200057));
#164 = CARTESIAN_POINT('', (-4.7625, 4.90176487245665E-15, -84.0679873200057));
#165 = CARTESIAN_POINT('', (-4.7625, 4.5686979650691E-15, -69.85));
#166 = CARTESIAN_POINT('', (-4.7625, 4.7625, -69.85));
#167 = CARTESIAN_POINT('', (-3.07814859211952E-15, 4.76250000000001, -69.85));
#168 = CARTESIAN_POINT('', (4.76249999999999, 4.76250000000001, -69.85));
#169 = CARTESIAN_POINT('', (4.7625, 9.78130557837677E-15, -69.85));
#170 = CARTESIAN_POINT('', (4.7625, -4.76249999999999, -69.85));
#171 = CARTESIAN_POINT('', (2.71769705928207E-15, -4.76249999999999, -69.85));
#172 = CARTESIAN_POINT('', (-4.7625, -4.76249999999999, -69.85));
#173 = CARTESIAN_POINT('', (-4.7625, 4.5686979650691E-15, -69.85));
#174 = ADVANCED_FACE('', (#175), #188, .T.);
#175 = FACE_OUTER_BOUND('', #176, .T.);
#176 = EDGE_LOOP('', (#177, #186, #187));
#177 = ORIENTED_EDGE('', *, *, #178, .F.);
#178 = EDGE_CURVE('', #141, #179, #181, .T.);
#179 = VERTEX_POINT('', #180);
#180 = CARTESIAN_POINT('', (-4.57966997657877E-16, 5.44355502220999E-15, -88.9));
#181 = CIRCLE('', #182, 4.76299999999995);
#182 = AXIS2_PLACEMENT_3D('', #183, #184, #185);
#183 = CARTESIAN_POINT('', (-4.79616346638068E-14, 5.15190538699305E-15, -84.137));
#184 = DIRECTION('', (-6.12323399573674E-17, -1., -6.12323399573657E-17));
#185 = DIRECTION('', (-0.999895024144447, 6.03386964442955E-17, 0.0144893302528543));
#186 = ORIENTED_EDGE('', *, *, #148, .T.);
#187 = ORIENTED_EDGE('', *, *, #178, .T.);
#188 = (
   BOUNDED_SURFACE ()
   B_SPLINE_SURFACE (2, 2, ((#189, #190, #191), (#192, #193, #194), (#195, #196, #197), (#198, #199, #200), (#201, #202, #203), (#204, #205, #206), (#207, #208, #209), (#210, #211, #212), (#213, #214, #215)), .UNSPECIFIED., .T., .F., .U.)
   B_SPLINE_SURFACE_WITH_KNOTS ((3, 2, 2, 2, 3), (3, 3), (0., 0.25, 0.5, 0.75, 1.), (0., 1.), .UNSPECIFIED.)
   GEOMETRIC_REPRESENTATION_ITEM ()
   RATIONAL_B_SPLINE_SURFACE (((1., 0.701965337373275, 1.), (0.707106781186548, 0.496364450214545, 0.707106781186548), (1., 0.701965337373275, 1.), (0.707106781186548, 0.496364450214545, 0.707106781186548), (1., 0.701965337373275, 1.), (0.707106781186548, 0.496364450214545, 0.707106781186548), (1., 0.701965337373275, 1.), (0.707106781186548, 0.496364450214545, 0.707106781186548), (1., 0.701965337373275, 1.)))
   REPRESENTATION_ITEM ('')
   SURFACE ()
);
#189 = CARTESIAN_POINT('', (-4.7625, 5.43929859815723E-15, -84.0679873200057));
#190 = CARTESIAN_POINT('', (-4.83251997791347, 5.73946152834835E-15, -88.9));
#191 = CARTESIAN_POINT('', (-4.57966997657877E-16, 5.44355502220999E-15, -88.9));
#192 = CARTESIAN_POINT('', (-4.7625, 4.76250000000005, -84.0679873200057));
#193 = CARTESIAN_POINT('', (-4.83251997791342, 4.83251997791353, -88.9));
#194 = CARTESIAN_POINT('', (-4.57966997657877E-16, 5.44355502220999E-15, -88.9));
#195 = CARTESIAN_POINT('', (3.90879287212312E-14, 4.76250000000005, -84.0679873200057));
#196 = CARTESIAN_POINT('', (1.00709288138424E-13, 4.83251997791348, -88.9));
#197 = CARTESIAN_POINT('', (-4.57966997657877E-16, 5.44355502220999E-15, -88.9));
#198 = CARTESIAN_POINT('', (4.76250000000008, 4.76250000000005, -84.0679873200057));
#199 = CARTESIAN_POINT('', (4.83251997791362, 4.83251997791344, -88.9));
#200 = CARTESIAN_POINT('', (-4.57966997657877E-16, 5.44355502220999E-15, -88.9));
#201 = CARTESIAN_POINT('', (4.76250000000008, 6.78764415961213E-15, -84.0679873200057));
#202 = CARTESIAN_POINT('', (4.83251997791358, -8.73183636385818E-14, -88.9));
#203 = CARTESIAN_POINT('', (-4.57966997657877E-16, 5.44355502220999E-15, -88.9));
#204 = CARTESIAN_POINT('', (4.76250000000008, -4.76250000000003, -84.0679873200056));
#205 = CARTESIAN_POINT('', (4.83251997791353, -4.83251997791361, -88.8999999999999));
#206 = CARTESIAN_POINT('', (-4.57966997657877E-16, 5.44355502220999E-15, -88.9));
#207 = CARTESIAN_POINT('', (4.10195123207798E-14, -4.76250000000003, -84.0679873200056));
#208 = CARTESIAN_POINT('', (8.2432759837701E-15, -4.83251997791356, -88.8999999999999));
#209 = CARTESIAN_POINT('', (-4.57966997657877E-16, 5.44355502220999E-15, -88.9));
#210 = CARTESIAN_POINT('', (-4.7625, -4.76250000000003, -84.0679873200057));
#211 = CARTESIAN_POINT('', (-4.83251997791352, -4.83251997791352, -88.9));
#212 = CARTESIAN_POINT('', (-4.57966997657877E-16, 5.44355502220999E-15, -88.9));
#213 = CARTESIAN_POINT('', (-4.7625, 5.43929859815723E-15, -84.0679873200057));
#214 = CARTESIAN_POINT('', (-4.83251997791347, 5.73946152834835E-15, -88.9));
#215 = CARTESIAN_POINT('', (-4.57966997657877E-16, 5.44355502220999E-15, -88.9));
#216 = PRESENTATION_STYLE_ASSIGNMENT((#217));
#217 = SURFACE_STYLE_USAGE(.POSITIVE., #218);
#218 = SURFACE_SIDE_STYLE('', (#219));
#219 = SURFACE_STYLE_FILL_AREA(#220);
#220 = FILL_AREA_STYLE('', (#221));
#221 = FILL_AREA_STYLE_COLOUR('', #222);
#222 = COLOUR_RGB('', 0.8, 0.8, 0.8);
#223 = STYLED_ITEM('', (#216), #116);
#224 = TRIMMED_CURVE('cutting part line', #225, (#229), (#230), .T., .CARTESIAN.);
#225 = LINE('', #226, #227);
#226 = CARTESIAN_POINT('', (-7.85686656141981E-31, -4.27707894602213E-15, -69.85));
#227 = VECTOR('', #228, 4.7625);
#228 = DIRECTION('', (4.7625, -8.74857057140887E-16, 0.));
#229 = CARTESIAN_POINT('', (-7.85686656141981E-31, -4.27707894602213E-15, -69.85));
#230 = CARTESIAN_POINT('', (4.7625, -5.15193600316302E-15, -69.85));
#231 = TRIMMED_CURVE('cutting part line', #232, (#236), (#237), .T., .CARTESIAN.);
#232 = LINE('', #233, #234);
#233 = CARTESIAN_POINT('', (4.7625, -5.15193600316302E-15, -69.85));
#234 = VECTOR('', #235, 14.2179873200057);
#235 = DIRECTION('', (0., -8.70600633088139E-16, -14.2179873200057));
#236 = CARTESIAN_POINT('', (4.7625, -5.15193600316302E-15, -69.85));
#237 = CARTESIAN_POINT('', (4.7625, -6.02253663625116E-15, -84.0679873200057));
#238 = TRIMMED_CURVE('cutting part line', #239, (#244), (#245), .T., .CARTESIAN.);
#239 = CIRCLE('', #240, 4.76299999999998);
#240 = AXIS2_PLACEMENT_3D('', #241, #242, #243);
#241 = CARTESIAN_POINT('', (1.33226762955019E-14, -5.15190538699305E-15, -84.137));
#242 = DIRECTION('', (1.83697019872103E-16, 1., -6.1232339957366E-17));
#243 = DIRECTION('', (0.999895024144447, -1.82790520524483E-16, 0.0144893302528482));
#244 = CARTESIAN_POINT('', (4.7625, -6.02253663625116E-15, -84.0679873200057));
#245 = CARTESIAN_POINT('', (3.49720252756924E-15, -5.44355502220998E-15, -88.9));
#246 = TRIMMED_CURVE('cutting part line', #247, (#251), (#252), .T., .CARTESIAN.);
#247 = LINE('', #248, #249);
#248 = CARTESIAN_POINT('', (-9.99964835089794E-31, -5.44355502220999E-15, -88.9));
#249 = VECTOR('', #250, 19.05);
#250 = DIRECTION('', (2.14278178947814E-31, 1.16647607618786E-15, 19.05));
#251 = CARTESIAN_POINT('', (-9.99964835089794E-31, -5.44355502220999E-15, -88.9));
#252 = CARTESIAN_POINT('', (-7.85686656141981E-31, -4.27707894602213E-15, -69.85));
#253 = COMPOSITE_CURVE('cutting part line', (#254, #255, #256, #257), .U.);
#254 = COMPOSITE_CURVE_SEGMENT(.CONTINUOUS., .T., #224);
#255 = COMPOSITE_CURVE_SEGMENT(.CONTINUOUS., .T., #231);
#256 = COMPOSITE_CURVE_SEGMENT(.CONTINUOUS., .T., #238);
#257 = COMPOSITE_CURVE_SEGMENT(.CONTINUOUS., .T., #246);
#258 = GEOMETRIC_SET('', (#253, #296));
#259 = PRESENTATION_STYLE_ASSIGNMENT((#260));
#260 = CURVE_STYLE('', #262, POSITIVE_LENGTH_MEASURE(1.E-6), #261);
#261 = COLOUR_RGB('', 0., 0., 1.);
#262 = DRAUGHTING_PRE_DEFINED_CURVE_FONT('continuous');
#263 = STYLED_ITEM('', (#259), #253);
#264 = PRESENTATION_STYLE_ASSIGNMENT((#265));
#265 = CURVE_STYLE('', #267, POSITIVE_LENGTH_MEASURE(1.E-6), #266);
#266 = COLOUR_RGB('', 0., 0., 1.);
#267 = DRAUGHTING_PRE_DEFINED_CURVE_FONT('continuous');
#268 = OVER_RIDING_STYLED_ITEM('', (#264), #224, #263);
#269 = PRESENTATION_STYLE_ASSIGNMENT((#270));
#270 = CURVE_STYLE('', #272, POSITIVE_LENGTH_MEASURE(1.E-6), #271);
#271 = COLOUR_RGB('', 0., 0., 1.);
#272 = DRAUGHTING_PRE_DEFINED_CURVE_FONT('continuous');
#273 = OVER_RIDING_STYLED_ITEM('', (#269), #231, #263);
#274 = PRESENTATION_STYLE_ASSIGNMENT((#275));
#275 = CURVE_STYLE('', #277, POSITIVE_LENGTH_MEASURE(1.E-6), #276);
#276 = COLOUR_RGB('', 0., 0., 1.);
#277 = DRAUGHTING_PRE_DEFINED_CURVE_FONT('continuous');
#278 = OVER_RIDING_STYLED_ITEM('', (#274), #238, #263);
#279 = PRESENTATION_STYLE_ASSIGNMENT((#280));
#280 = CURVE_STYLE('', #282, POSITIVE_LENGTH_MEASURE(1.E-6), #281);
#281 = COLOUR_RGB('', 0., 0., 1.);
#282 = DRAUGHTING_PRE_DEFINED_CURVE_FONT('continuous');
#283 = OVER_RIDING_STYLED_ITEM('', (#279), #246, #263);
#284 = AXIS2_PLACEMENT_3D('CIP', #285, #286, #287);
#285 = CARTESIAN_POINT('', (3.33321611696598E-31, 5.44355502220999E-15, -88.9));
#286 = DIRECTION('', (-3.74939945665465E-33, -6.12323399573677E-17, 1.));
#287 = DIRECTION('', (1., -6.12323399573677E-17, 0.));
#288 = AXIS2_PLACEMENT_3D('MCS', #289, #290, #291);
#289 = CARTESIAN_POINT('', (1.48851158429189E-31, 2.4309238963075E-15, -39.7));
#290 = DIRECTION('', (-3.74939945665465E-33, -6.12323399573677E-17, 1.));
#291 = DIRECTION('', (1., -6.12323399573677E-17, 0.));
#292 = AXIS2_PLACEMENT_3D('PCS', #293, #294, #295);
#293 = CARTESIAN_POINT('', (0., 0., 0.));
#294 = DIRECTION('', (0., 0., 1.));
#295 = DIRECTION('', (1., 0., 0.));
#296 = CARTESIAN_POINT('CRP', (4.763, 0., -88.9));
#297 = (
   GEOMETRIC_REPRESENTATION_CONTEXT (3)
   GLOBAL_UNCERTAINTY_ASSIGNED_CONTEXT ((#299))
   GLOBAL_UNIT_ASSIGNED_CONTEXT ((#298, #300, #301))
   REPRESENTATION_CONTEXT ('', '3D')
);
#298 = (
   LENGTH_UNIT ()
   NAMED_UNIT (*)
   SI_UNIT (.MILLI., .METRE.)
);
#299 = UNCERTAINTY_MEASURE_WITH_UNIT(LENGTH_MEASURE(1.E-6), #298, 'DISTANCE_ACCURACY_VALUE', '');
#300 = (
   NAMED_UNIT (*)
   SI_UNIT ($, .STERADIAN.)
   SOLID_ANGLE_UNIT ()
);
#301 = (
   NAMED_UNIT (*)
   PLANE_ANGLE_UNIT ()
   SI_UNIT ($, .RADIAN.)
);
#302 = SHAPE_REPRESENTATION('', (), #297);
#303 = PRODUCT_DEFINITION_SHAPE('', '', #304);
#304 = PRODUCT_DEFINITION('', '', #307, #311);
#305 = APPLICATION_CONTEXT('configuration controlled 3D designs of mechanical parts and assemblies');
#306 = APPLICATION_PROTOCOL_DEFINITION('International Standard', 'automotive_design', 2002, #305);
#307 = PRODUCT_DEFINITION_FORMATION_WITH_SPECIFIED_SOURCE('', '', #308, .NOT_KNOWN.);
#308 = PRODUCT('NONE', '1B240-0953-XA       1630', '', (#309));
#309 = PRODUCT_CONTEXT('', #305, 'mechanical');
#310 = PRODUCT_RELATED_PRODUCT_CATEGORY('detail', '', (#308));
#311 = PRODUCT_DEFINITION_CONTEXT('part definition', #305, 'design');
#312 = SHAPE_DEFINITION_REPRESENTATION(#303, #302);
#313 = CONSTRUCTIVE_GEOMETRY_REPRESENTATION('supplemental geometry', (#284, #288, #292), #297);
#314 = CONSTRUCTIVE_GEOMETRY_REPRESENTATION_RELATIONSHIP('', '', #302, #313);
#315 = SHAPE_REPRESENTATION_RELATIONSHIP('', '', #302, #316);
#316 = SHAPE_REPRESENTATION('', (#258), #297);
#317 = SHAPE_REPRESENTATION_RELATIONSHIP('', '', #302, #318);
#318 = ADVANCED_BREP_SHAPE_REPRESENTATION('', (#1, #116), #297);
ENDSEC;
END-ISO-10303-21;
