ISO-10303-21;
HEADER;
FILE_DESCRIPTION(('STEP'), '1');
FILE_NAME('C:\\Users\\ds2002\\OneDrive - Sandvik\\HomeShare\\Documents\\Batchrepair\\CorSRT2\\NEW_MILBN_SLD\\Output2\\MOD000000000000000020082228400000.stp', '2018-11-23T12:39:33', (''), (''), 'Express v3.0.0.0', 'Express Tool', 'Unknown');
FILE_SCHEMA(('AUTOMOTIVE_DESIGN'));
ENDSEC;

DATA;
#1 = MANIFOLD_SOLID_BREP('NOCUT', #2);
#2 = CLOSED_SHELL('', (#3, #50, #89, #98, #137));
#3 = ADVANCED_FACE('', (#4), #31, .T.);
#4 = FACE_OUTER_BOUND('', #5, .T.);
#5 = EDGE_LOOP('', (#6, #16, #23, #24));
#6 = ORIENTED_EDGE('', *, *, #7, .T.);
#7 = EDGE_CURVE('', #8, #10, #12, .T.);
#8 = VERTEX_POINT('', #9);
#9 = CARTESIAN_POINT('', (-4., 2.44929359829471E-15, -36.));
#10 = VERTEX_POINT('', #11);
#11 = CARTESIAN_POINT('', (-4., 2.69422295812418E-16, -0.399999999999999));
#12 = LINE('', #13, #14);
#13 = CARTESIAN_POINT('', (-4., 2.44929359829471E-15, -36.));
#14 = VECTOR('', #15, 35.6);
#15 = DIRECTION('', (0., -2.17987130248229E-15, 35.6));
#16 = ORIENTED_EDGE('', *, *, #17, .T.);
#17 = EDGE_CURVE('', #10, #10, #18, .T.);
#18 = CIRCLE('', #19, 4.);
#19 = AXIS2_PLACEMENT_3D('', #20, #21, #22);
#20 = CARTESIAN_POINT('', (1.08246744900953E-15, -1.22124532708767E-15, -0.399999999999999));
#21 = DIRECTION('', (4.16333634234434E-17, 6.25420985093971E-18, -1.));
#22 = DIRECTION('', (-1., 3.72666905725022E-16, -4.16333634234434E-17));
#23 = ORIENTED_EDGE('', *, *, #7, .F.);
#24 = ORIENTED_EDGE('', *, *, #25, .F.);
#25 = EDGE_CURVE('', #8, #8, #26, .T.);
#26 = CIRCLE('', #27, 4.);
#27 = AXIS2_PLACEMENT_3D('', #28, #29, #30);
#28 = CARTESIAN_POINT('', (4.30211422042248E-16, -5.55111512312578E-16, -36.));
#29 = DIRECTION('', (0., 0., -1.));
#30 = DIRECTION('', (-1., 7.51101277651822E-16, 0.));
#31 = (
   BOUNDED_SURFACE ()
   B_SPLINE_SURFACE (1, 2, ((#32, #33, #34, #35, #36, #37, #38, #39, #40), (#41, #42, #43, #44, #45, #46, #47, #48, #49)), .UNSPECIFIED., .F., .T., .U.)
   B_SPLINE_SURFACE_WITH_KNOTS ((2, 2), (3, 2, 2, 2, 3), (0., 1.), (0., 6.28318530717957, 12.5663706143591, 18.8495559215387, 25.1327412287183), .UNSPECIFIED.)
   GEOMETRIC_REPRESENTATION_ITEM ()
   RATIONAL_B_SPLINE_SURFACE (((1., 0.707106781186548, 1., 0.707106781186548, 1., 0.707106781186548, 1., 0.707106781186548, 1.), (1., 0.707106781186548, 1., 0.707106781186548, 1., 0.707106781186548, 1., 0.707106781186548, 1.)))
   REPRESENTATION_ITEM ('')
   SURFACE ()
);
#32 = CARTESIAN_POINT('', (-4., 8.24533808124995E-16, -36.));
#33 = CARTESIAN_POINT('', (-4., 4., -36.));
#34 = CARTESIAN_POINT('', (3.81035344995473E-15, 4., -36.));
#35 = CARTESIAN_POINT('', (4., 4., -36.));
#36 = CARTESIAN_POINT('', (4., -1.66694271801624E-15, -36.));
#37 = CARTESIAN_POINT('', (4., -4., -36.));
#38 = CARTESIAN_POINT('', (1.80873564347243E-15, -4., -36.));
#39 = CARTESIAN_POINT('', (-4., -4., -36.));
#40 = CARTESIAN_POINT('', (-4., 8.24533808124995E-16, -36.));
#41 = CARTESIAN_POINT('', (-4., 2.69422295812418E-16, -0.399999999999999));
#42 = CARTESIAN_POINT('', (-4., 4., -0.399999999999999));
#43 = CARTESIAN_POINT('', (2.32820571208015E-15, 4., -0.399999999999999));
#44 = CARTESIAN_POINT('', (4., 4., -0.399999999999999));
#45 = CARTESIAN_POINT('', (4., -2.22205423032882E-15, -0.399999999999999));
#46 = CARTESIAN_POINT('', (4., -4., -0.399999999999999));
#47 = CARTESIAN_POINT('', (3.2658790559785E-16, -4., -0.399999999999999));
#48 = CARTESIAN_POINT('', (-4., -4., -0.399999999999999));
#49 = CARTESIAN_POINT('', (-4., 2.69422295812418E-16, -0.399999999999999));
#50 = ADVANCED_FACE('', (#51), #70, .T.);
#51 = FACE_OUTER_BOUND('', #52, .T.);
#52 = EDGE_LOOP('', (#53, #61, #68, #69));
#53 = ORIENTED_EDGE('', *, *, #54, .T.);
#54 = EDGE_CURVE('', #10, #55, #57, .T.);
#55 = VERTEX_POINT('', #56);
#56 = CARTESIAN_POINT('', (-3.6, 2.20436423846524E-16, 0.));
#57 = LINE('', #58, #59);
#58 = CARTESIAN_POINT('', (-4., 2.69422295812418E-16, -0.399999999999999));
#59 = VECTOR('', #60, 0.565685424949237);
#60 = DIRECTION('', (0.4, -4.8985871965894E-17, 0.399999999999999));
#61 = ORIENTED_EDGE('', *, *, #62, .T.);
#62 = EDGE_CURVE('', #55, #55, #63, .T.);
#63 = CIRCLE('', #64, 3.6);
#64 = AXIS2_PLACEMENT_3D('', #65, #66, #67);
#65 = CARTESIAN_POINT('', (-4.16333634234434E-17, -3.33066907387547E-16, -1.84889274661175E-32));
#66 = DIRECTION('', (4.27871574431742E-33, 6.12323399573678E-17, -1.));
#67 = DIRECTION('', (-1., 1.53750925342797E-16, 5.13581318503263E-33));
#68 = ORIENTED_EDGE('', *, *, #54, .F.);
#69 = ORIENTED_EDGE('', *, *, #17, .F.);
#70 = (
   BOUNDED_SURFACE ()
   B_SPLINE_SURFACE (1, 2, ((#71, #72, #73, #74, #75, #76, #77, #78, #79), (#80, #81, #82, #83, #84, #85, #86, #87, #88)), .UNSPECIFIED., .F., .T., .U.)
   B_SPLINE_SURFACE_WITH_KNOTS ((2, 2), (3, 2, 2, 2, 3), (0., 1.), (0., 0.25, 0.5, 0.75, 1.), .UNSPECIFIED.)
   GEOMETRIC_REPRESENTATION_ITEM ()
   RATIONAL_B_SPLINE_SURFACE (((1., 0.707106781186548, 1., 0.707106781186548, 1., 0.707106781186548, 1., 0.707106781186548, 1.), (1., 0.707106781186548, 1., 0.707106781186548, 1., 0.707106781186548, 1., 0.707106781186548, 1.)))
   REPRESENTATION_ITEM ('')
   SURFACE ()
);
#71 = CARTESIAN_POINT('', (-4., -2.04953155772919E-15, -0.399999999999999));
#72 = CARTESIAN_POINT('', (-4., 4., -0.400000000000022));
#73 = CARTESIAN_POINT('', (3.28440978118275E-16, 4., -0.400000000000022));
#74 = CARTESIAN_POINT('', (4., 4., -0.400000000000022));
#75 = CARTESIAN_POINT('', (4., -2.78968024081262E-15, -0.399999999999999));
#76 = CARTESIAN_POINT('', (4., -4., -0.399999999999976));
#77 = CARTESIAN_POINT('', (7.81510146937783E-17, -4., -0.399999999999976));
#78 = CARTESIAN_POINT('', (-4., -4., -0.399999999999976));
#79 = CARTESIAN_POINT('', (-4., -2.04953155772919E-15, -0.399999999999999));
#80 = CARTESIAN_POINT('', (-3.6, 2.20436423846524E-16, 0.));
#81 = CARTESIAN_POINT('', (-3.6, 3.6, -2.09832151654155E-14));
#82 = CARTESIAN_POINT('', (2.91433543964104E-16, 3.6, -2.09832151654155E-14));
#83 = CARTESIAN_POINT('', (3.6, 3.6, -2.09832151654155E-14));
#84 = CARTESIAN_POINT('', (3.6, -4.45697390928571E-16, -2.60668058374687E-30));
#85 = CARTESIAN_POINT('', (3.6, -3.6, 2.09832151654155E-14));
#86 = CARTESIAN_POINT('', (6.61725768820564E-17, -3.6, 2.09832151654155E-14));
#87 = CARTESIAN_POINT('', (-3.6, -3.6, 2.09832151654155E-14));
#88 = CARTESIAN_POINT('', (-3.6, 2.20436423846524E-16, 0.));
#89 = ADVANCED_FACE('', (#90), #93, .T.);
#90 = FACE_OUTER_BOUND('', #91, .T.);
#91 = EDGE_LOOP('', (#92));
#92 = ORIENTED_EDGE('', *, *, #62, .F.);
#93 = B_SPLINE_SURFACE_WITH_KNOTS('', 1, 1, ((#94, #95), (#96, #97)), .UNSPECIFIED., .F., .F., .U., (2, 2), (2, 2), (0.0454545454545454, 0.954545454545455), (0.0454545454545454, 0.954545454545454), .UNSPECIFIED.);
#94 = CARTESIAN_POINT('', (3.6, -3.6, -2.20436423846524E-16));
#95 = CARTESIAN_POINT('', (-3.6, -3.6, -2.20436423846524E-16));
#96 = CARTESIAN_POINT('', (3.6, 3.6, 2.20436423846524E-16));
#97 = CARTESIAN_POINT('', (-3.6, 3.6, 2.20436423846524E-16));
#98 = ADVANCED_FACE('', (#99), #118, .T.);
#99 = FACE_OUTER_BOUND('', #100, .T.);
#100 = EDGE_LOOP('', (#101, #110, #116, #117));
#101 = ORIENTED_EDGE('', *, *, #102, .F.);
#102 = EDGE_CURVE('', #103, #103, #105, .T.);
#103 = VERTEX_POINT('', #104);
#104 = CARTESIAN_POINT('', (-4., 5.20474889637625E-15, -81.));
#105 = CIRCLE('', #106, 4.);
#106 = AXIS2_PLACEMENT_3D('', #107, #108, #109);
#107 = CARTESIAN_POINT('', (1.59594559789866E-15, 4.44089209850063E-15, -81.));
#108 = DIRECTION('', (-3.5527136788005E-15, 1.15581022880029E-14, -1.));
#109 = DIRECTION('', (-1., 1.90964199468906E-16, 3.5527136788005E-15));
#110 = ORIENTED_EDGE('', *, *, #111, .F.);
#111 = EDGE_CURVE('', #8, #103, #112, .T.);
#112 = LINE('', #113, #114);
#113 = CARTESIAN_POINT('', (-4., 2.44929359829471E-15, -36.));
#114 = VECTOR('', #115, 45.);
#115 = DIRECTION('', (0., 2.75545529808154E-15, -45.));
#116 = ORIENTED_EDGE('', *, *, #25, .T.);
#117 = ORIENTED_EDGE('', *, *, #111, .T.);
#118 = (
   BOUNDED_SURFACE ()
   B_SPLINE_SURFACE (2, 1, ((#119, #120), (#121, #122), (#123, #124), (#125, #126), (#127, #128), (#129, #130), (#131, #132), (#133, #134), (#135, #136)), .UNSPECIFIED., .T., .F., .U.)
   B_SPLINE_SURFACE_WITH_KNOTS ((3, 2, 2, 2, 3), (2, 2), (0., 6.28318530717957, 12.5663706143591, 18.8495559215387, 25.1327412287183), (0., 0.75), .UNSPECIFIED.)
   GEOMETRIC_REPRESENTATION_ITEM ()
   RATIONAL_B_SPLINE_SURFACE (((1., 1.), (0.707106781186548, 0.707106781186548), (1., 1.), (0.707106781186548, 0.707106781186548), (1., 1.), (0.707106781186548, 0.707106781186548), (1., 1.), (0.707106781186548, 0.707106781186548), (1., 1.)))
   REPRESENTATION_ITEM ('')
   SURFACE ()
);
#119 = CARTESIAN_POINT('', (-4., 2.44929359829471E-15, -36.));
#120 = CARTESIAN_POINT('', (-4., 3.67053892538238E-15, -81.));
#121 = CARTESIAN_POINT('', (-4., 4., -36.));
#122 = CARTESIAN_POINT('', (-4., 4., -81.));
#123 = CARTESIAN_POINT('', (4.10562116813582E-15, 4., -36.));
#124 = CARTESIAN_POINT('', (4.10562116813582E-15, 4., -81.));
#125 = CARTESIAN_POINT('', (4., 4., -36.));
#126 = CARTESIAN_POINT('', (4., 4., -81.));
#127 = CARTESIAN_POINT('', (4., -3.29170250818596E-15, -36.));
#128 = CARTESIAN_POINT('', (4., -2.07045718109828E-15, -81.));
#129 = CARTESIAN_POINT('', (4., -4., -36.));
#130 = CARTESIAN_POINT('', (4., -4., -81.));
#131 = CARTESIAN_POINT('', (-1.1455162186859E-15, -4., -36.));
#132 = CARTESIAN_POINT('', (-1.1455162186859E-15, -4., -81.));
#133 = CARTESIAN_POINT('', (-4., -4., -36.));
#134 = CARTESIAN_POINT('', (-4., -4., -81.));
#135 = CARTESIAN_POINT('', (-4., 2.44929359829471E-15, -36.));
#136 = CARTESIAN_POINT('', (-4., 3.67053892538238E-15, -81.));
#137 = ADVANCED_FACE('', (#138), #141, .T.);
#138 = FACE_OUTER_BOUND('', #139, .T.);
#139 = EDGE_LOOP('', (#140));
#140 = ORIENTED_EDGE('', *, *, #102, .T.);
#141 = B_SPLINE_SURFACE_WITH_KNOTS('', 1, 1, ((#142, #143), (#144, #145)), .UNSPECIFIED., .F., .F., .U., (2, 2), (2, 2), (0.492448184242786, 0.532194614490159), (0.467805385509841, 0.507551815757214), .UNSPECIFIED.);
#142 = CARTESIAN_POINT('', (-4.00000000000003, 4.00000000000001, -81.));
#143 = CARTESIAN_POINT('', (-4.00000000000003, -3.99999999999999, -81.));
#144 = CARTESIAN_POINT('', (4., 4.00000000000001, -81.));
#145 = CARTESIAN_POINT('', (4., -3.99999999999999, -81.));
#146 = DRAUGHTING_MODEL('', (#154, #262, #302, #307, #312, #317, #322), #336);
#147 = PRESENTATION_STYLE_ASSIGNMENT((#148));
#148 = SURFACE_STYLE_USAGE(.POSITIVE., #149);
#149 = SURFACE_SIDE_STYLE('', (#150));
#150 = SURFACE_STYLE_FILL_AREA(#151);
#151 = FILL_AREA_STYLE('', (#152));
#152 = FILL_AREA_STYLE_COLOUR('', #153);
#153 = COLOUR_RGB('', 0.50196078431373, 0.50196078431373, 0.50196078431373);
#154 = STYLED_ITEM('', (#147), #1);
#155 = MANIFOLD_SOLID_BREP('CUT', #156);
#156 = CLOSED_SHELL('', (#157, #174, #213));
#157 = ADVANCED_FACE('', (#158), #169, .T.);
#158 = FACE_OUTER_BOUND('', #159, .T.);
#159 = EDGE_LOOP('', (#160));
#160 = ORIENTED_EDGE('', *, *, #161, .F.);
#161 = EDGE_CURVE('', #162, #162, #164, .T.);
#162 = VERTEX_POINT('', #163);
#163 = CARTESIAN_POINT('', (-4., 5.20474889637625E-15, -81.));
#164 = CIRCLE('', #165, 4.);
#165 = AXIS2_PLACEMENT_3D('', #166, #167, #168);
#166 = CARTESIAN_POINT('', (1.59594559789866E-15, 4.44089209850063E-15, -81.));
#167 = DIRECTION('', (-3.5527136788005E-15, 1.15581022880029E-14, -1.));
#168 = DIRECTION('', (-1., 1.90964199468906E-16, 3.5527136788005E-15));
#169 = B_SPLINE_SURFACE_WITH_KNOTS('', 1, 1, ((#170, #171), (#172, #173)), .UNSPECIFIED., .F., .F., .U., (2, 2), (2, 2), (0.467805385509841, 0.507551815757214), (0.492448184242786, 0.532194614490159), .UNSPECIFIED.);
#170 = CARTESIAN_POINT('', (-4., 4.00000000000001, -81.));
#171 = CARTESIAN_POINT('', (4., 4.00000000000001, -81.));
#172 = CARTESIAN_POINT('', (-4., -4.00000000000001, -81.));
#173 = CARTESIAN_POINT('', (4., -4.00000000000001, -81.));
#174 = ADVANCED_FACE('', (#175), #194, .T.);
#175 = FACE_OUTER_BOUND('', #176, .T.);
#176 = EDGE_LOOP('', (#177, #178, #186, #193));
#177 = ORIENTED_EDGE('', *, *, #161, .T.);
#178 = ORIENTED_EDGE('', *, *, #179, .T.);
#179 = EDGE_CURVE('', #162, #180, #182, .T.);
#180 = VERTEX_POINT('', #181);
#181 = CARTESIAN_POINT('', (-4., 6.12323399573677E-15, -96.));
#182 = LINE('', #183, #184);
#183 = CARTESIAN_POINT('', (-4., 5.20474889637625E-15, -81.));
#184 = VECTOR('', #185, 15.);
#185 = DIRECTION('', (0., 9.1848509936052E-16, -15.));
#186 = ORIENTED_EDGE('', *, *, #187, .F.);
#187 = EDGE_CURVE('', #180, #180, #188, .T.);
#188 = CIRCLE('', #189, 4.);
#189 = AXIS2_PLACEMENT_3D('', #190, #191, #192);
#190 = CARTESIAN_POINT('', (-4.16333634234434E-16, 3.5527136788005E-15, -96.));
#191 = DIRECTION('', (0., 0., -1.));
#192 = DIRECTION('', (-1., 6.42630079234067E-16, 0.));
#193 = ORIENTED_EDGE('', *, *, #179, .F.);
#194 = (
   BOUNDED_SURFACE ()
   B_SPLINE_SURFACE (2, 1, ((#195, #196), (#197, #198), (#199, #200), (#201, #202), (#203, #204), (#205, #206), (#207, #208), (#209, #210), (#211, #212)), .UNSPECIFIED., .T., .F., .U.)
   B_SPLINE_SURFACE_WITH_KNOTS ((3, 2, 2, 2, 3), (2, 2), (0., 6.28318530717957, 12.5663706143592, 18.8495559215387, 25.1327412287183), (0.75, 1.), .UNSPECIFIED.)
   GEOMETRIC_REPRESENTATION_ITEM ()
   RATIONAL_B_SPLINE_SURFACE (((1., 1.), (0.707106781186548, 0.707106781186548), (1., 1.), (0.707106781186548, 0.707106781186548), (1., 1.), (0.707106781186548, 0.707106781186548), (1., 1.), (0.707106781186548, 0.707106781186548), (1., 1.)))
   REPRESENTATION_ITEM ('')
   SURFACE ()
);
#195 = CARTESIAN_POINT('', (-4., 5.20474889637625E-15, -81.));
#196 = CARTESIAN_POINT('', (-4., 8.42439566778921E-15, -96.));
#197 = CARTESIAN_POINT('', (-4., 4.00000000000001, -81.));
#198 = CARTESIAN_POINT('', (-4., 4.00000000000001, -96.));
#199 = CARTESIAN_POINT('', (4.62675262915923E-15, 4., -81.));
#200 = CARTESIAN_POINT('', (4.62675262915924E-15, 4.00000000000001, -96.));
#201 = CARTESIAN_POINT('', (4.00000000000001, 4., -81.));
#202 = CARTESIAN_POINT('', (4.00000000000001, 4., -96.));
#203 = CARTESIAN_POINT('', (4., -4.04875636194222E-15, -81.));
#204 = CARTESIAN_POINT('', (4., -8.29109590529263E-16, -96.));
#205 = CARTESIAN_POINT('', (4., -4.00000000000001, -81.));
#206 = CARTESIAN_POINT('', (4., -4., -96.));
#207 = CARTESIAN_POINT('', (-4.13689390950029E-15, -4., -81.));
#208 = CARTESIAN_POINT('', (-4.13689390950029E-15, -4., -96.));
#209 = CARTESIAN_POINT('', (-4.00000000000001, -4., -81.));
#210 = CARTESIAN_POINT('', (-4.00000000000001, -3.99999999999999, -96.));
#211 = CARTESIAN_POINT('', (-4., 5.20474889637625E-15, -81.));
#212 = CARTESIAN_POINT('', (-4., 8.42439566778921E-15, -96.));
#213 = ADVANCED_FACE('', (#214), #227, .T.);
#214 = FACE_OUTER_BOUND('', #215, .T.);
#215 = EDGE_LOOP('', (#216, #225, #226));
#216 = ORIENTED_EDGE('', *, *, #217, .F.);
#217 = EDGE_CURVE('', #180, #218, #220, .T.);
#218 = VERTEX_POINT('', #219);
#219 = CARTESIAN_POINT('', (1.17887728933848E-15, 6.12323399573677E-15, -100.));
#220 = CIRCLE('', #221, 3.99999999999993);
#221 = AXIS2_PLACEMENT_3D('', #222, #223, #224);
#222 = CARTESIAN_POINT('', (-6.21724893790088E-14, 5.87830463590731E-15, -96.));
#223 = DIRECTION('', (-6.12323399573662E-17, -1., -6.12323399573664E-17));
#224 = DIRECTION('', (-1., 6.12323399573656E-17, 1.06581410364017E-14));
#225 = ORIENTED_EDGE('', *, *, #187, .T.);
#226 = ORIENTED_EDGE('', *, *, #217, .T.);
#227 = (
   BOUNDED_SURFACE ()
   B_SPLINE_SURFACE (2, 2, ((#228, #229, #230), (#231, #232, #233), (#234, #235, #236), (#237, #238, #239), (#240, #241, #242), (#243, #244, #245), (#246, #247, #248), (#249, #250, #251), (#252, #253, #254)), .UNSPECIFIED., .T., .F., .U.)
   B_SPLINE_SURFACE_WITH_KNOTS ((3, 2, 2, 2, 3), (3, 3), (0., 0.25, 0.5, 0.75, 1.), (0., 1.), .UNSPECIFIED.)
   GEOMETRIC_REPRESENTATION_ITEM ()
   RATIONAL_B_SPLINE_SURFACE (((1., 0.707106781186548, 1.), (0.707106781186548, 0.5, 0.707106781186548), (1., 0.707106781186548, 1.), (0.707106781186548, 0.5, 0.707106781186548), (1., 0.707106781186548, 1.), (0.707106781186548, 0.5, 0.707106781186548), (1., 0.707106781186548, 1.), (0.707106781186548, 0.5, 0.707106781186548), (1., 0.707106781186548, 1.)))
   REPRESENTATION_ITEM ('')
   SURFACE ()
);
#228 = CARTESIAN_POINT('', (-4., 6.12323399573677E-15, -96.));
#229 = CARTESIAN_POINT('', (-4., 6.36816335556624E-15, -100.));
#230 = CARTESIAN_POINT('', (1.17887728933848E-15, 6.12323399573677E-15, -100.));
#231 = CARTESIAN_POINT('', (-4., 3.99999999999994, -96.));
#232 = CARTESIAN_POINT('', (-4., 3.99999999999994, -100.));
#233 = CARTESIAN_POINT('', (1.17887728933848E-15, 6.12323399573677E-15, -100.));
#234 = CARTESIAN_POINT('', (-6.21724893790088E-14, 3.99999999999994, -96.));
#235 = CARTESIAN_POINT('', (-6.19275600191793E-14, 3.99999999999994, -100.));
#236 = CARTESIAN_POINT('', (1.17887728933848E-15, 6.12323399573677E-15, -100.));
#237 = CARTESIAN_POINT('', (3.99999999999988, 3.99999999999994, -96.));
#238 = CARTESIAN_POINT('', (3.99999999999988, 3.99999999999994, -100.));
#239 = CARTESIAN_POINT('', (1.17887728933848E-15, 6.12323399573677E-15, -100.));
#240 = CARTESIAN_POINT('', (3.99999999999988, 6.12323399573679E-15, -96.));
#241 = CARTESIAN_POINT('', (3.99999999999988, 5.87830463590732E-15, -100.));
#242 = CARTESIAN_POINT('', (1.17887728933848E-15, 6.12323399573677E-15, -100.));
#243 = CARTESIAN_POINT('', (3.99999999999988, -3.99999999999993, -96.));
#244 = CARTESIAN_POINT('', (3.99999999999988, -3.99999999999993, -100.));
#245 = CARTESIAN_POINT('', (1.17887728933848E-15, 6.12323399573677E-15, -100.));
#246 = CARTESIAN_POINT('', (-6.16826306593498E-14, -3.99999999999993, -96.));
#247 = CARTESIAN_POINT('', (-6.19275600191793E-14, -3.99999999999993, -100.));
#248 = CARTESIAN_POINT('', (1.17887728933848E-15, 6.12323399573677E-15, -100.));
#249 = CARTESIAN_POINT('', (-4., -3.99999999999993, -96.));
#250 = CARTESIAN_POINT('', (-4., -3.99999999999993, -100.));
#251 = CARTESIAN_POINT('', (1.17887728933848E-15, 6.12323399573677E-15, -100.));
#252 = CARTESIAN_POINT('', (-4., 6.12323399573677E-15, -96.));
#253 = CARTESIAN_POINT('', (-4., 6.36816335556624E-15, -100.));
#254 = CARTESIAN_POINT('', (1.17887728933848E-15, 6.12323399573677E-15, -100.));
#255 = PRESENTATION_STYLE_ASSIGNMENT((#256));
#256 = SURFACE_STYLE_USAGE(.POSITIVE., #257);
#257 = SURFACE_SIDE_STYLE('', (#258));
#258 = SURFACE_STYLE_FILL_AREA(#259);
#259 = FILL_AREA_STYLE('', (#260));
#260 = FILL_AREA_STYLE_COLOUR('', #261);
#261 = COLOUR_RGB('', 0.8, 0.8, 0.8);
#262 = STYLED_ITEM('', (#255), #155);
#263 = TRIMMED_CURVE('cutting part line', #264, (#269), (#270), .T., .CARTESIAN.);
#264 = CIRCLE('', #265, 4.00000000000002);
#265 = AXIS2_PLACEMENT_3D('', #266, #267, #268);
#266 = CARTESIAN_POINT('', (-1.15241149956091E-13, 0., -96.));
#267 = DIRECTION('', (0., -1., 0.));
#268 = DIRECTION('', (1.16434639707563E-14, 0., -1.));
#269 = CARTESIAN_POINT('', (-6.86672940730659E-14, 0., -100.));
#270 = CARTESIAN_POINT('', (3.9999999999999, 0., -96.));
#271 = TRIMMED_CURVE('cutting part line', #272, (#276), (#277), .T., .CARTESIAN.);
#272 = LINE('', #273, #274);
#273 = CARTESIAN_POINT('', (4., 3.21915640361496E-15, -96.));
#274 = VECTOR('', #275, 15.);
#275 = DIRECTION('', (0., -3.21915640361496E-15, 15.));
#276 = CARTESIAN_POINT('', (4., 3.21915640361496E-15, -96.));
#277 = CARTESIAN_POINT('', (4., 0., -81.));
#278 = TRIMMED_CURVE('cutting part line', #279, (#283), (#284), .T., .CARTESIAN.);
#279 = LINE('', #280, #281);
#280 = CARTESIAN_POINT('', (4., 0., -81.));
#281 = VECTOR('', #282, 4.);
#282 = DIRECTION('', (-4., 0., 0.));
#283 = CARTESIAN_POINT('', (4., 0., -81.));
#284 = CARTESIAN_POINT('', (1.38777878078145E-17, 0., -81.));
#285 = TRIMMED_CURVE('cutting part line', #286, (#290), (#291), .T., .CARTESIAN.);
#286 = LINE('', #287, #288);
#287 = CARTESIAN_POINT('', (0., 0., -81.));
#288 = VECTOR('', #289, 19.);
#289 = DIRECTION('', (0., 0., -19.));
#290 = CARTESIAN_POINT('', (0., 0., -81.));
#291 = CARTESIAN_POINT('', (0., 0., -100.));
#292 = COMPOSITE_CURVE('cutting part line', (#293, #294, #295, #296), .U.);
#293 = COMPOSITE_CURVE_SEGMENT(.CONTINUOUS., .T., #263);
#294 = COMPOSITE_CURVE_SEGMENT(.CONTINUOUS., .T., #271);
#295 = COMPOSITE_CURVE_SEGMENT(.CONTINUOUS., .T., #278);
#296 = COMPOSITE_CURVE_SEGMENT(.CONTINUOUS., .T., #285);
#297 = GEOMETRIC_SET('', (#292, #335));
#298 = PRESENTATION_STYLE_ASSIGNMENT((#299));
#299 = CURVE_STYLE('', #301, POSITIVE_LENGTH_MEASURE(1.E-6), #300);
#300 = COLOUR_RGB('', 0., 0., 1.);
#301 = DRAUGHTING_PRE_DEFINED_CURVE_FONT('continuous');
#302 = STYLED_ITEM('', (#298), #292);
#303 = PRESENTATION_STYLE_ASSIGNMENT((#304));
#304 = CURVE_STYLE('', #306, POSITIVE_LENGTH_MEASURE(1.E-6), #305);
#305 = COLOUR_RGB('', 0., 0., 1.);
#306 = DRAUGHTING_PRE_DEFINED_CURVE_FONT('continuous');
#307 = OVER_RIDING_STYLED_ITEM('', (#303), #263, #302);
#308 = PRESENTATION_STYLE_ASSIGNMENT((#309));
#309 = CURVE_STYLE('', #311, POSITIVE_LENGTH_MEASURE(1.E-6), #310);
#310 = COLOUR_RGB('', 0., 0., 1.);
#311 = DRAUGHTING_PRE_DEFINED_CURVE_FONT('continuous');
#312 = OVER_RIDING_STYLED_ITEM('', (#308), #271, #302);
#313 = PRESENTATION_STYLE_ASSIGNMENT((#314));
#314 = CURVE_STYLE('', #316, POSITIVE_LENGTH_MEASURE(1.E-6), #315);
#315 = COLOUR_RGB('', 0., 0., 1.);
#316 = DRAUGHTING_PRE_DEFINED_CURVE_FONT('continuous');
#317 = OVER_RIDING_STYLED_ITEM('', (#313), #278, #302);
#318 = PRESENTATION_STYLE_ASSIGNMENT((#319));
#319 = CURVE_STYLE('', #321, POSITIVE_LENGTH_MEASURE(1.E-6), #320);
#320 = COLOUR_RGB('', 0., 0., 1.);
#321 = DRAUGHTING_PRE_DEFINED_CURVE_FONT('continuous');
#322 = OVER_RIDING_STYLED_ITEM('', (#318), #285, #302);
#323 = AXIS2_PLACEMENT_3D('MCS', #324, #325, #326);
#324 = CARTESIAN_POINT('', (0., 0., -36.));
#325 = DIRECTION('', (0., 0., 1.));
#326 = DIRECTION('', (1., 0., 0.));
#327 = AXIS2_PLACEMENT_3D('PCS', #328, #329, #330);
#328 = CARTESIAN_POINT('', (0., 0., 0.));
#329 = DIRECTION('', (0., 0., 1.));
#330 = DIRECTION('', (1., 0., 0.));
#331 = AXIS2_PLACEMENT_3D('CIP', #332, #333, #334);
#332 = CARTESIAN_POINT('', (0., 0., -100.));
#333 = DIRECTION('', (0., 0., 1.));
#334 = DIRECTION('', (1., 0., 0.));
#335 = CARTESIAN_POINT('CRP', (4., 0., -100.));
#336 = (
   GEOMETRIC_REPRESENTATION_CONTEXT (3)
   GLOBAL_UNCERTAINTY_ASSIGNED_CONTEXT ((#338))
   GLOBAL_UNIT_ASSIGNED_CONTEXT ((#337, #339, #340))
   REPRESENTATION_CONTEXT ('', '3D')
);
#337 = (
   LENGTH_UNIT ()
   NAMED_UNIT (*)
   SI_UNIT (.MILLI., .METRE.)
);
#338 = UNCERTAINTY_MEASURE_WITH_UNIT(LENGTH_MEASURE(1.E-6), #337, 'DISTANCE_ACCURACY_VALUE', '');
#339 = (
   NAMED_UNIT (*)
   SI_UNIT ($, .STERADIAN.)
   SOLID_ANGLE_UNIT ()
);
#340 = (
   NAMED_UNIT (*)
   PLANE_ANGLE_UNIT ()
   SI_UNIT ($, .RADIAN.)
);
#341 = SHAPE_REPRESENTATION('', (), #336);
#342 = PRODUCT_DEFINITION_SHAPE('', '', #343);
#343 = PRODUCT_DEFINITION('', '', #346, #350);
#344 = APPLICATION_CONTEXT('configuration controlled 3D designs of mechanical parts and assemblies');
#345 = APPLICATION_PROTOCOL_DEFINITION('International Standard', 'automotive_design', 2002, #344);
#346 = PRODUCT_DEFINITION_FORMATION_WITH_SPECIFIED_SOURCE('', '', #347, .NOT_KNOWN.);
#347 = PRODUCT('product-name', '1B240-0800-XA       1630', '', (#348));
#348 = PRODUCT_CONTEXT('', #344, 'mechanical');
#349 = PRODUCT_RELATED_PRODUCT_CATEGORY('detail', '', (#347));
#350 = PRODUCT_DEFINITION_CONTEXT('part definition', #344, 'design');
#351 = SHAPE_DEFINITION_REPRESENTATION(#342, #341);
#352 = CONSTRUCTIVE_GEOMETRY_REPRESENTATION('supplemental geometry', (#323, #327, #331), #336);
#353 = CONSTRUCTIVE_GEOMETRY_REPRESENTATION_RELATIONSHIP('', '', #341, #352);
#354 = SHAPE_REPRESENTATION_RELATIONSHIP('', '', #341, #355);
#355 = SHAPE_REPRESENTATION('', (#297), #336);
#356 = SHAPE_REPRESENTATION_RELATIONSHIP('', '', #341, #357);
#357 = ADVANCED_BREP_SHAPE_REPRESENTATION('', (#1, #155), #336);
ENDSEC;
END-ISO-10303-21;
