ISO-10303-21;
HEADER;
FILE_DESCRIPTION(('STEP'), '1');
FILE_NAME('C:\\Users\\ds2002\\OneDrive - Sandvik\\HomeShare\\Documents\\Batchrepair\\CorSRT2\\NEW_MILBN_SLD\\Output2\\MOD000000000000000020082228200000.stp', '2018-11-23T12:39:34', (''), (''), 'Express v3.0.0.0', 'Express Tool', 'Unknown');
FILE_SCHEMA(('AUTOMOTIVE_DESIGN'));
ENDSEC;

DATA;
#1 = MANIFOLD_SOLID_BREP('NOCUT', #2);
#2 = CLOSED_SHELL('', (#3, #50, #89, #128, #137, #176));
#3 = ADVANCED_FACE('', (#4), #31, .T.);
#4 = FACE_OUTER_BOUND('', #5, .T.);
#5 = EDGE_LOOP('', (#6, #16, #23, #24));
#6 = ORIENTED_EDGE('', *, *, #7, .F.);
#7 = EDGE_CURVE('', #8, #10, #12, .T.);
#8 = VERTEX_POINT('', #9);
#9 = CARTESIAN_POINT('', (-4., 4.71489017671731E-15, -73.));
#10 = VERTEX_POINT('', #11);
#11 = CARTESIAN_POINT('', (-3.5, 4.74550634669599E-15, -74.));
#12 = LINE('', #13, #14);
#13 = CARTESIAN_POINT('', (-4., 4.71489017671731E-15, -73.));
#14 = VECTOR('', #15, 1.11803398874989);
#15 = DIRECTION('', (0.5, 3.06161699786798E-17, -1.));
#16 = ORIENTED_EDGE('', *, *, #17, .T.);
#17 = EDGE_CURVE('', #8, #8, #18, .T.);
#18 = CIRCLE('', #19, 4.);
#19 = AXIS2_PLACEMENT_3D('', #20, #21, #22);
#20 = CARTESIAN_POINT('', (3.60822483003176E-16, 1.66533453693773E-15, -73.));
#21 = DIRECTION('', (9.21865030407916E-30, 1.20917948619498E-14, -1.));
#22 = DIRECTION('', (-1., 7.62388909944894E-16, 0.));
#23 = ORIENTED_EDGE('', *, *, #7, .T.);
#24 = ORIENTED_EDGE('', *, *, #25, .F.);
#25 = EDGE_CURVE('', #10, #10, #26, .T.);
#26 = CIRCLE('', #27, 3.5);
#27 = AXIS2_PLACEMENT_3D('', #28, #29, #30);
#28 = CARTESIAN_POINT('', (9.71445146547012E-17, 8.88178419700125E-16, -74.));
#29 = DIRECTION('', (1.52300466966543E-29, 1.38191941279426E-14, -1.));
#30 = DIRECTION('', (-1., 1.10209369342739E-15, 0.));
#31 = (
   BOUNDED_SURFACE ()
   B_SPLINE_SURFACE (2, 1, ((#32, #33), (#34, #35), (#36, #37), (#38, #39), (#40, #41), (#42, #43), (#44, #45), (#46, #47), (#48, #49)), .UNSPECIFIED., .T., .F., .U.)
   B_SPLINE_SURFACE_WITH_KNOTS ((3, 2, 2, 2, 3), (2, 2), (0., 0.25, 0.5, 0.75, 1.), (0., 1.), .UNSPECIFIED.)
   GEOMETRIC_REPRESENTATION_ITEM ()
   RATIONAL_B_SPLINE_SURFACE (((1., 1.), (0.707106781186548, 0.707106781186548), (1., 1.), (0.707106781186548, 0.707106781186548), (1., 1.), (0.707106781186548, 0.707106781186548), (1., 1.), (0.707106781186548, 0.707106781186548), (1., 1.)))
   REPRESENTATION_ITEM ('')
   SURFACE ()
);
#32 = CARTESIAN_POINT('', (-4., 4.71489017671731E-15, -73.));
#33 = CARTESIAN_POINT('', (-3.5, 3.55653960450725E-15, -74.));
#34 = CARTESIAN_POINT('', (-4., 4., -73.));
#35 = CARTESIAN_POINT('', (-3.5, 3.5, -74.));
#36 = CARTESIAN_POINT('', (3.16544876295328E-15, 4., -73.));
#37 = CARTESIAN_POINT('', (2.81487047795952E-15, 3.5, -74.));
#38 = CARTESIAN_POINT('', (4., 4., -73.));
#39 = CARTESIAN_POINT('', (3.5, 3.5, -74.));
#40 = CARTESIAN_POINT('', (4., -8.94362383182899E-16, -73.));
#41 = CARTESIAN_POINT('', (3.5, -1.35155638540543E-15, -74.));
#42 = CARTESIAN_POINT('', (4., -4., -73.));
#43 = CARTESIAN_POINT('', (3.5, -3.5, -74.));
#44 = CARTESIAN_POINT('', (-1.95394507728799E-15, -4., -73.));
#45 = CARTESIAN_POINT('', (-1.66459913225159E-15, -3.5, -74.));
#46 = CARTESIAN_POINT('', (-4., -4., -73.));
#47 = CARTESIAN_POINT('', (-3.5, -3.5, -74.));
#48 = CARTESIAN_POINT('', (-4., 4.71489017671731E-15, -73.));
#49 = CARTESIAN_POINT('', (-3.5, 3.55653960450725E-15, -74.));
#50 = ADVANCED_FACE('', (#51), #70, .T.);
#51 = FACE_OUTER_BOUND('', #52, .T.);
#52 = EDGE_LOOP('', (#53, #61, #68, #69));
#53 = ORIENTED_EDGE('', *, *, #54, .T.);
#54 = EDGE_CURVE('', #8, #55, #57, .T.);
#55 = VERTEX_POINT('', #56);
#56 = CARTESIAN_POINT('', (-4., 2.69422295812418E-16, -0.400000000000006));
#57 = LINE('', #58, #59);
#58 = CARTESIAN_POINT('', (-4., 4.71489017671731E-15, -73.));
#59 = VECTOR('', #60, 72.6);
#60 = DIRECTION('', (0., -4.44546788090489E-15, 72.6));
#61 = ORIENTED_EDGE('', *, *, #62, .T.);
#62 = EDGE_CURVE('', #55, #55, #63, .T.);
#63 = CIRCLE('', #64, 4.);
#64 = AXIS2_PLACEMENT_3D('', #65, #66, #67);
#65 = CARTESIAN_POINT('', (1.08246744900953E-15, -1.22124532708767E-15, -0.400000000000006));
#66 = DIRECTION('', (2.77555756156289E-17, 5.14030469134495E-17, -1.));
#67 = DIRECTION('', (-1., 3.72666905725022E-16, -2.77555756156289E-17));
#68 = ORIENTED_EDGE('', *, *, #54, .F.);
#69 = ORIENTED_EDGE('', *, *, #17, .F.);
#70 = (
   BOUNDED_SURFACE ()
   B_SPLINE_SURFACE (1, 2, ((#71, #72, #73, #74, #75, #76, #77, #78, #79), (#80, #81, #82, #83, #84, #85, #86, #87, #88)), .UNSPECIFIED., .F., .T., .U.)
   B_SPLINE_SURFACE_WITH_KNOTS ((2, 2), (3, 2, 2, 2, 3), (0., 1.), (0., 6.28318530717957, 12.5663706143591, 18.8495559215387, 25.1327412287183), .UNSPECIFIED.)
   GEOMETRIC_REPRESENTATION_ITEM ()
   RATIONAL_B_SPLINE_SURFACE (((1., 0.707106781186548, 1., 0.707106781186548, 1., 0.707106781186548, 1., 0.707106781186548, 1.), (1., 0.707106781186548, 1., 0.707106781186548, 1., 0.707106781186548, 1., 0.707106781186548, 1.)))
   REPRESENTATION_ITEM ('')
   SURFACE ()
);
#71 = CARTESIAN_POINT('', (-4., 1.71271222782512E-15, -73.));
#72 = CARTESIAN_POINT('', (-4., 4., -73.));
#73 = CARTESIAN_POINT('', (4.34326050177481E-15, 4., -73.));
#74 = CARTESIAN_POINT('', (4., 4., -73.));
#75 = CARTESIAN_POINT('', (4., -7.78764298316118E-16, -73.));
#76 = CARTESIAN_POINT('', (4., -4., -73.));
#77 = CARTESIAN_POINT('', (2.34164269529251E-15, -4., -73.));
#78 = CARTESIAN_POINT('', (-4., -4., -73.));
#79 = CARTESIAN_POINT('', (-4., 1.71271222782512E-15, -73.));
#80 = CARTESIAN_POINT('', (-4., 2.69422295812418E-16, -0.400000000000006));
#81 = CARTESIAN_POINT('', (-4., 4., -0.400000000000006));
#82 = CARTESIAN_POINT('', (2.32820571208015E-15, 4., -0.400000000000006));
#83 = CARTESIAN_POINT('', (4., 4., -0.400000000000006));
#84 = CARTESIAN_POINT('', (4., -2.22205423032882E-15, -0.400000000000006));
#85 = CARTESIAN_POINT('', (4., -4., -0.400000000000006));
#86 = CARTESIAN_POINT('', (3.2658790559785E-16, -4., -0.400000000000006));
#87 = CARTESIAN_POINT('', (-4., -4., -0.400000000000006));
#88 = CARTESIAN_POINT('', (-4., 2.69422295812418E-16, -0.400000000000006));
#89 = ADVANCED_FACE('', (#90), #109, .T.);
#90 = FACE_OUTER_BOUND('', #91, .T.);
#91 = EDGE_LOOP('', (#92, #100, #107, #108));
#92 = ORIENTED_EDGE('', *, *, #93, .T.);
#93 = EDGE_CURVE('', #55, #94, #96, .T.);
#94 = VERTEX_POINT('', #95);
#95 = CARTESIAN_POINT('', (-3.6, 2.20436423846524E-16, 0.));
#96 = LINE('', #97, #98);
#97 = CARTESIAN_POINT('', (-4., 2.69422295812418E-16, -0.400000000000006));
#98 = VECTOR('', #99, 0.565685424949242);
#99 = DIRECTION('', (0.4, -4.8985871965894E-17, 0.400000000000006));
#100 = ORIENTED_EDGE('', *, *, #101, .T.);
#101 = EDGE_CURVE('', #94, #94, #102, .T.);
#102 = CIRCLE('', #103, 3.6);
#103 = AXIS2_PLACEMENT_3D('', #104, #105, #106);
#104 = CARTESIAN_POINT('', (-4.16333634234434E-17, -3.33066907387547E-16, -1.84889274661175E-32));
#105 = DIRECTION('', (4.27871574431742E-33, 6.12323399573678E-17, -1.));
#106 = DIRECTION('', (-1., 1.53750925342797E-16, 5.13581318503263E-33));
#107 = ORIENTED_EDGE('', *, *, #93, .F.);
#108 = ORIENTED_EDGE('', *, *, #62, .F.);
#109 = (
   BOUNDED_SURFACE ()
   B_SPLINE_SURFACE (1, 2, ((#110, #111, #112, #113, #114, #115, #116, #117, #118), (#119, #120, #121, #122, #123, #124, #125, #126, #127)), .UNSPECIFIED., .F., .T., .U.)
   B_SPLINE_SURFACE_WITH_KNOTS ((2, 2), (3, 2, 2, 2, 3), (0., 1.), (0., 0.25, 0.5, 0.75, 1.), .UNSPECIFIED.)
   GEOMETRIC_REPRESENTATION_ITEM ()
   RATIONAL_B_SPLINE_SURFACE (((1., 0.707106781186548, 1., 0.707106781186548, 1., 0.707106781186548, 1., 0.707106781186548, 1.), (1., 0.707106781186548, 1., 0.707106781186548, 1., 0.707106781186548, 1., 0.707106781186548, 1.)))
   REPRESENTATION_ITEM ('')
   SURFACE ()
);
#110 = CARTESIAN_POINT('', (-4., -2.04953155772919E-15, -0.400000000000006));
#111 = CARTESIAN_POINT('', (-4., 4., -0.400000000000029));
#112 = CARTESIAN_POINT('', (3.28440978118276E-16, 4., -0.400000000000029));
#113 = CARTESIAN_POINT('', (4., 4., -0.400000000000029));
#114 = CARTESIAN_POINT('', (4., -2.78968024081263E-15, -0.400000000000006));
#115 = CARTESIAN_POINT('', (4., -4., -0.399999999999983));
#116 = CARTESIAN_POINT('', (7.81510146937775E-17, -4., -0.399999999999983));
#117 = CARTESIAN_POINT('', (-4., -4., -0.399999999999983));
#118 = CARTESIAN_POINT('', (-4., -2.04953155772919E-15, -0.400000000000006));
#119 = CARTESIAN_POINT('', (-3.6, 2.20436423846524E-16, 0.));
#120 = CARTESIAN_POINT('', (-3.6, 3.6, -2.09832151654152E-14));
#121 = CARTESIAN_POINT('', (2.91433543964104E-16, 3.6, -2.09832151654152E-14));
#122 = CARTESIAN_POINT('', (3.6, 3.6, -2.09832151654152E-14));
#123 = CARTESIAN_POINT('', (3.6, -4.45697390928571E-16, -2.60668058374682E-30));
#124 = CARTESIAN_POINT('', (3.6, -3.6, 2.09832151654151E-14));
#125 = CARTESIAN_POINT('', (6.61725768820564E-17, -3.6, 2.09832151654152E-14));
#126 = CARTESIAN_POINT('', (-3.6, -3.6, 2.09832151654152E-14));
#127 = CARTESIAN_POINT('', (-3.6, 2.20436423846524E-16, 0.));
#128 = ADVANCED_FACE('', (#129), #132, .T.);
#129 = FACE_OUTER_BOUND('', #130, .T.);
#130 = EDGE_LOOP('', (#131));
#131 = ORIENTED_EDGE('', *, *, #101, .F.);
#132 = B_SPLINE_SURFACE_WITH_KNOTS('', 1, 1, ((#133, #134), (#135, #136)), .UNSPECIFIED., .F., .F., .U., (2, 2), (2, 2), (0.0454545454545454, 0.954545454545455), (0.0454545454545454, 0.954545454545454), .UNSPECIFIED.);
#133 = CARTESIAN_POINT('', (3.6, -3.6, -2.20436423846524E-16));
#134 = CARTESIAN_POINT('', (-3.6, -3.6, -2.20436423846524E-16));
#135 = CARTESIAN_POINT('', (3.6, 3.6, 2.20436423846524E-16));
#136 = CARTESIAN_POINT('', (-3.6, 3.6, 2.20436423846524E-16));
#137 = ADVANCED_FACE('', (#138), #157, .T.);
#138 = FACE_OUTER_BOUND('', #139, .T.);
#139 = EDGE_LOOP('', (#140, #149, #155, #156));
#140 = ORIENTED_EDGE('', *, *, #141, .F.);
#141 = EDGE_CURVE('', #142, #142, #144, .T.);
#142 = VERTEX_POINT('', #143);
#143 = CARTESIAN_POINT('', (-3.5, 5.35782974626967E-15, -84.));
#144 = CIRCLE('', #145, 3.5);
#145 = AXIS2_PLACEMENT_3D('', #146, #147, #148);
#146 = CARTESIAN_POINT('', (3.19189119579733E-16, 3.33066907387547E-16, -84.));
#147 = DIRECTION('', (-1.98394780335383E-29, -1.38191941279426E-14, -1.));
#148 = DIRECTION('', (-1., 1.43564652539489E-15, 0.));
#149 = ORIENTED_EDGE('', *, *, #150, .F.);
#150 = EDGE_CURVE('', #10, #142, #151, .T.);
#151 = LINE('', #152, #153);
#152 = CARTESIAN_POINT('', (-3.5, 4.74550634669599E-15, -74.));
#153 = VECTOR('', #154, 10.);
#154 = DIRECTION('', (0., 6.1232339957368E-16, -10.));
#155 = ORIENTED_EDGE('', *, *, #25, .T.);
#156 = ORIENTED_EDGE('', *, *, #150, .T.);
#157 = (
   BOUNDED_SURFACE ()
   B_SPLINE_SURFACE (2, 1, ((#158, #159), (#160, #161), (#162, #163), (#164, #165), (#166, #167), (#168, #169), (#170, #171), (#172, #173), (#174, #175)), .UNSPECIFIED., .T., .F., .U.)
   B_SPLINE_SURFACE_WITH_KNOTS ((3, 2, 2, 2, 3), (2, 2), (0., 5.49778714378215, 10.9955742875643, 16.4933614313465, 21.9911485751286), (0., 0.444444444444444), .UNSPECIFIED.)
   GEOMETRIC_REPRESENTATION_ITEM ()
   RATIONAL_B_SPLINE_SURFACE (((1., 1.), (0.707106781186548, 0.707106781186548), (1., 1.), (0.707106781186548, 0.707106781186548), (1., 1.), (0.707106781186548, 0.707106781186548), (1., 1.), (0.707106781186548, 0.707106781186548), (1., 1.)))
   REPRESENTATION_ITEM ('')
   SURFACE ()
);
#158 = CARTESIAN_POINT('', (-3.5, 4.74550634669599E-15, -74.));
#159 = CARTESIAN_POINT('', (-3.5, 6.85493009348379E-15, -84.));
#160 = CARTESIAN_POINT('', (-3.5, 3.5, -74.));
#161 = CARTESIAN_POINT('', (-3.5, 3.50000000000001, -84.));
#162 = CARTESIAN_POINT('', (3.50423685906693E-15, 3.5, -74.));
#163 = CARTESIAN_POINT('', (3.50423685906694E-15, 3.5, -84.));
#164 = CARTESIAN_POINT('', (3.5, 3.5, -74.));
#165 = CARTESIAN_POINT('', (3.5, 3.5, -84.));
#166 = CARTESIAN_POINT('', (3.5, -9.86210893118947E-16, -74.));
#167 = CARTESIAN_POINT('', (3.5, 1.12321285366885E-15, -84.));
#168 = CARTESIAN_POINT('', (3.5, -3.5, -74.));
#169 = CARTESIAN_POINT('', (3.5, -3.5, -84.));
#170 = CARTESIAN_POINT('', (-1.79885400104643E-15, -3.5, -74.));
#171 = CARTESIAN_POINT('', (-1.79885400104643E-15, -3.5, -84.));
#172 = CARTESIAN_POINT('', (-3.5, -3.5, -74.));
#173 = CARTESIAN_POINT('', (-3.5, -3.49999999999999, -84.));
#174 = CARTESIAN_POINT('', (-3.5, 4.74550634669599E-15, -74.));
#175 = CARTESIAN_POINT('', (-3.5, 6.85493009348379E-15, -84.));
#176 = ADVANCED_FACE('', (#177), #180, .T.);
#177 = FACE_OUTER_BOUND('', #178, .T.);
#178 = EDGE_LOOP('', (#179));
#179 = ORIENTED_EDGE('', *, *, #141, .T.);
#180 = B_SPLINE_SURFACE_WITH_KNOTS('', 1, 1, ((#181, #182), (#183, #184)), .UNSPECIFIED., .F., .F., .U., (2, 2), (2, 2), (0.496124729601093, 0.530902856067544), (0.469097143932456, 0.503875270398907), .UNSPECIFIED.);
#181 = CARTESIAN_POINT('', (-3.50000000000001, 3.50000000000003, -84.));
#182 = CARTESIAN_POINT('', (-3.50000000000001, -3.49999999999997, -84.));
#183 = CARTESIAN_POINT('', (3.49999999999997, 3.50000000000003, -84.));
#184 = CARTESIAN_POINT('', (3.49999999999997, -3.49999999999997, -84.));
#185 = DRAUGHTING_MODEL('', (#193, #301, #341, #346, #351, #356, #361), #375);
#186 = PRESENTATION_STYLE_ASSIGNMENT((#187));
#187 = SURFACE_STYLE_USAGE(.POSITIVE., #188);
#188 = SURFACE_SIDE_STYLE('', (#189));
#189 = SURFACE_STYLE_FILL_AREA(#190);
#190 = FILL_AREA_STYLE('', (#191));
#191 = FILL_AREA_STYLE_COLOUR('', #192);
#192 = COLOUR_RGB('', 0.50196078431373, 0.50196078431373, 0.50196078431373);
#193 = STYLED_ITEM('', (#186), #1);
#194 = MANIFOLD_SOLID_BREP('CUT', #195);
#195 = CLOSED_SHELL('', (#196, #213, #252));
#196 = ADVANCED_FACE('', (#197), #208, .T.);
#197 = FACE_OUTER_BOUND('', #198, .T.);
#198 = EDGE_LOOP('', (#199));
#199 = ORIENTED_EDGE('', *, *, #200, .F.);
#200 = EDGE_CURVE('', #201, #201, #203, .T.);
#201 = VERTEX_POINT('', #202);
#202 = CARTESIAN_POINT('', (-3.5, 5.35782974626967E-15, -84.));
#203 = CIRCLE('', #204, 3.5);
#204 = AXIS2_PLACEMENT_3D('', #205, #206, #207);
#205 = CARTESIAN_POINT('', (3.19189119579733E-16, 3.33066907387547E-16, -84.));
#206 = DIRECTION('', (-1.98394780335383E-29, -1.38191941279426E-14, -1.));
#207 = DIRECTION('', (-1., 1.43564652539489E-15, 0.));
#208 = B_SPLINE_SURFACE_WITH_KNOTS('', 1, 1, ((#209, #210), (#211, #212)), .UNSPECIFIED., .F., .F., .U., (2, 2), (2, 2), (0.469097143932456, 0.503875270398907), (0.496124729601093, 0.530902856067544), .UNSPECIFIED.);
#209 = CARTESIAN_POINT('', (-3.5, 3.50000000000001, -84.));
#210 = CARTESIAN_POINT('', (3.49999999999999, 3.50000000000001, -84.));
#211 = CARTESIAN_POINT('', (-3.5, -3.49999999999999, -84.));
#212 = CARTESIAN_POINT('', (3.49999999999999, -3.49999999999999, -84.));
#213 = ADVANCED_FACE('', (#214), #233, .T.);
#214 = FACE_OUTER_BOUND('', #215, .T.);
#215 = EDGE_LOOP('', (#216, #217, #225, #232));
#216 = ORIENTED_EDGE('', *, *, #200, .T.);
#217 = ORIENTED_EDGE('', *, *, #218, .T.);
#218 = EDGE_CURVE('', #201, #219, #221, .T.);
#219 = VERTEX_POINT('', #220);
#220 = CARTESIAN_POINT('', (-3.5, 6.12323399573677E-15, -96.5));
#221 = LINE('', #222, #223);
#222 = CARTESIAN_POINT('', (-3.5, 5.35782974626967E-15, -84.));
#223 = VECTOR('', #224, 12.5);
#224 = DIRECTION('', (0., 7.654042494671E-16, -12.5));
#225 = ORIENTED_EDGE('', *, *, #226, .F.);
#226 = EDGE_CURVE('', #219, #219, #227, .T.);
#227 = CIRCLE('', #228, 3.5);
#228 = AXIS2_PLACEMENT_3D('', #229, #230, #231);
#229 = CARTESIAN_POINT('', (1.56819002228303E-15, 2.33146835171283E-15, -96.5));
#230 = DIRECTION('', (0., 0., -1.));
#231 = DIRECTION('', (-1., 1.08336161257827E-15, 0.));
#232 = ORIENTED_EDGE('', *, *, #218, .F.);
#233 = (
   BOUNDED_SURFACE ()
   B_SPLINE_SURFACE (2, 1, ((#234, #235), (#236, #237), (#238, #239), (#240, #241), (#242, #243), (#244, #245), (#246, #247), (#248, #249), (#250, #251)), .UNSPECIFIED., .T., .F., .U.)
   B_SPLINE_SURFACE_WITH_KNOTS ((3, 2, 2, 2, 3), (2, 2), (0., 5.49778714378215, 10.9955742875643, 16.4933614313465, 21.9911485751286), (0.444444444444444, 1.), .UNSPECIFIED.)
   GEOMETRIC_REPRESENTATION_ITEM ()
   RATIONAL_B_SPLINE_SURFACE (((1., 1.), (0.707106781186548, 0.707106781186548), (1., 1.), (0.707106781186548, 0.707106781186548), (1., 1.), (0.707106781186548, 0.707106781186548), (1., 1.), (0.707106781186548, 0.707106781186548), (1., 1.)))
   REPRESENTATION_ITEM ('')
   SURFACE ()
);
#234 = CARTESIAN_POINT('', (-3.5, 5.35782974626967E-15, -84.));
#235 = CARTESIAN_POINT('', (-3.5, 3.91453981425697E-15, -96.5));
#236 = CARTESIAN_POINT('', (-3.5, 3.50000000000001, -84.));
#237 = CARTESIAN_POINT('', (-3.5, 3.5, -96.5));
#238 = CARTESIAN_POINT('', (1.82672527035123E-15, 3.5, -84.));
#239 = CARTESIAN_POINT('', (1.82672527035123E-15, 3.5, -96.5));
#240 = CARTESIAN_POINT('', (3.5, 3.5, -84.));
#241 = CARTESIAN_POINT('', (3.5, 3.5, -96.5));
#242 = CARTESIAN_POINT('', (3.5, 2.62031320088297E-15, -84.));
#243 = CARTESIAN_POINT('', (3.5, 1.17702326887027E-15, -96.5));
#244 = CARTESIAN_POINT('', (3.5, -3.5, -84.));
#245 = CARTESIAN_POINT('', (3.5, -3.5, -96.5));
#246 = CARTESIAN_POINT('', (-4.821648953339E-16, -3.5, -84.));
#247 = CARTESIAN_POINT('', (-4.82164895333901E-16, -3.5, -96.5));
#248 = CARTESIAN_POINT('', (-3.5, -3.5, -84.));
#249 = CARTESIAN_POINT('', (-3.5, -3.5, -96.5));
#250 = CARTESIAN_POINT('', (-3.5, 5.35782974626967E-15, -84.));
#251 = CARTESIAN_POINT('', (-3.5, 3.91453981425697E-15, -96.5));
#252 = ADVANCED_FACE('', (#253), #266, .T.);
#253 = FACE_OUTER_BOUND('', #254, .T.);
#254 = EDGE_LOOP('', (#255, #264, #265));
#255 = ORIENTED_EDGE('', *, *, #256, .F.);
#256 = EDGE_CURVE('', #219, #257, #259, .T.);
#257 = VERTEX_POINT('', #258);
#258 = CARTESIAN_POINT('', (8.64984174477392E-16, 6.12323399573677E-15, -100.));
#259 = CIRCLE('', #260, 3.50000000000002);
#260 = AXIS2_PLACEMENT_3D('', #261, #262, #263);
#261 = CARTESIAN_POINT('', (1.46549439250521E-14, 5.90892080588598E-15, -96.5));
#262 = DIRECTION('', (-6.12323399573668E-17, -1., -6.12323399573664E-17));
#263 = DIRECTION('', (-1., 6.12323399573671E-17, -4.06024420434341E-15));
#264 = ORIENTED_EDGE('', *, *, #226, .T.);
#265 = ORIENTED_EDGE('', *, *, #256, .T.);
#266 = (
   BOUNDED_SURFACE ()
   B_SPLINE_SURFACE (2, 2, ((#267, #268, #269), (#270, #271, #272), (#273, #274, #275), (#276, #277, #278), (#279, #280, #281), (#282, #283, #284), (#285, #286, #287), (#288, #289, #290), (#291, #292, #293)), .UNSPECIFIED., .T., .F., .U.)
   B_SPLINE_SURFACE_WITH_KNOTS ((3, 2, 2, 2, 3), (3, 3), (0., 0.25, 0.5, 0.75, 1.), (0., 1.), .UNSPECIFIED.)
   GEOMETRIC_REPRESENTATION_ITEM ()
   RATIONAL_B_SPLINE_SURFACE (((1., 0.707106781186548, 1.), (0.707106781186548, 0.5, 0.707106781186548), (1., 0.707106781186548, 1.), (0.707106781186548, 0.5, 0.707106781186548), (1., 0.707106781186548, 1.), (0.707106781186548, 0.5, 0.707106781186548), (1., 0.707106781186548, 1.), (0.707106781186548, 0.5, 0.707106781186548), (1., 0.707106781186548, 1.)))
   REPRESENTATION_ITEM ('')
   SURFACE ()
);
#267 = CARTESIAN_POINT('', (-3.5, 6.12323399573677E-15, -96.5));
#268 = CARTESIAN_POINT('', (-3.5, 6.33754718558755E-15, -100.));
#269 = CARTESIAN_POINT('', (8.64984174477392E-16, 6.12323399573677E-15, -100.));
#270 = CARTESIAN_POINT('', (-3.5, 3.50000000000002, -96.5));
#271 = CARTESIAN_POINT('', (-3.5, 3.50000000000002, -100.));
#272 = CARTESIAN_POINT('', (8.64984174477392E-16, 6.12323399573677E-15, -100.));
#273 = CARTESIAN_POINT('', (1.46549439250521E-14, 3.50000000000002, -96.5));
#274 = CARTESIAN_POINT('', (1.48692571149028E-14, 3.50000000000002, -100.));
#275 = CARTESIAN_POINT('', (8.64984174477392E-16, 6.12323399573677E-15, -100.));
#276 = CARTESIAN_POINT('', (3.50000000000003, 3.50000000000002, -96.5));
#277 = CARTESIAN_POINT('', (3.50000000000003, 3.50000000000002, -100.));
#278 = CARTESIAN_POINT('', (8.64984174477392E-16, 6.12323399573677E-15, -100.));
#279 = CARTESIAN_POINT('', (3.50000000000003, 6.12323399573677E-15, -96.5));
#280 = CARTESIAN_POINT('', (3.50000000000003, 5.90892080588599E-15, -100.));
#281 = CARTESIAN_POINT('', (8.64984174477392E-16, 6.12323399573677E-15, -100.));
#282 = CARTESIAN_POINT('', (3.50000000000003, -3.50000000000001, -96.5));
#283 = CARTESIAN_POINT('', (3.50000000000003, -3.50000000000001, -100.));
#284 = CARTESIAN_POINT('', (8.64984174477392E-16, 6.12323399573677E-15, -100.));
#285 = CARTESIAN_POINT('', (1.50835703047536E-14, -3.50000000000001, -96.5));
#286 = CARTESIAN_POINT('', (1.48692571149029E-14, -3.50000000000001, -100.));
#287 = CARTESIAN_POINT('', (8.64984174477392E-16, 6.12323399573677E-15, -100.));
#288 = CARTESIAN_POINT('', (-3.5, -3.50000000000001, -96.5));
#289 = CARTESIAN_POINT('', (-3.5, -3.50000000000001, -100.));
#290 = CARTESIAN_POINT('', (8.64984174477392E-16, 6.12323399573677E-15, -100.));
#291 = CARTESIAN_POINT('', (-3.5, 6.12323399573677E-15, -96.5));
#292 = CARTESIAN_POINT('', (-3.5, 6.33754718558755E-15, -100.));
#293 = CARTESIAN_POINT('', (8.64984174477392E-16, 6.12323399573677E-15, -100.));
#294 = PRESENTATION_STYLE_ASSIGNMENT((#295));
#295 = SURFACE_STYLE_USAGE(.POSITIVE., #296);
#296 = SURFACE_SIDE_STYLE('', (#297));
#297 = SURFACE_STYLE_FILL_AREA(#298);
#298 = FILL_AREA_STYLE('', (#299));
#299 = FILL_AREA_STYLE_COLOUR('', #300);
#300 = COLOUR_RGB('', 0.8, 0.8, 0.8);
#301 = STYLED_ITEM('', (#294), #194);
#302 = TRIMMED_CURVE('cutting part line', #303, (#308), (#309), .T., .CARTESIAN.);
#303 = CIRCLE('', #304, 3.49999999999997);
#304 = AXIS2_PLACEMENT_3D('', #305, #306, #307);
#305 = CARTESIAN_POINT('', (6.3726801613484E-14, 0., -96.5));
#306 = DIRECTION('', (0., -1., 0.));
#307 = DIRECTION('', (-1.48056170498227E-14, 0., -1.));
#308 = CARTESIAN_POINT('', (1.19071419391049E-14, 0., -100.));
#309 = CARTESIAN_POINT('', (3.50000000000003, 0., -96.5));
#310 = TRIMMED_CURVE('cutting part line', #311, (#315), (#316), .T., .CARTESIAN.);
#311 = LINE('', #312, #313);
#312 = CARTESIAN_POINT('', (3.5, -1.44307011196533E-15, -96.5));
#313 = VECTOR('', #314, 12.5);
#314 = DIRECTION('', (0., 1.44307011196533E-15, 12.5));
#315 = CARTESIAN_POINT('', (3.5, -1.44307011196533E-15, -96.5));
#316 = CARTESIAN_POINT('', (3.5, 0., -84.));
#317 = TRIMMED_CURVE('cutting part line', #318, (#322), (#323), .T., .CARTESIAN.);
#318 = LINE('', #319, #320);
#319 = CARTESIAN_POINT('', (3.5, 0., -84.));
#320 = VECTOR('', #321, 3.5);
#321 = DIRECTION('', (-3.5, 0., 0.));
#322 = CARTESIAN_POINT('', (3.5, 0., -84.));
#323 = CARTESIAN_POINT('', (-6.93889390390723E-18, 0., -84.));
#324 = TRIMMED_CURVE('cutting part line', #325, (#329), (#330), .T., .CARTESIAN.);
#325 = LINE('', #326, #327);
#326 = CARTESIAN_POINT('', (0., 0., -84.));
#327 = VECTOR('', #328, 16.);
#328 = DIRECTION('', (0., 0., -16.));
#329 = CARTESIAN_POINT('', (0., 0., -84.));
#330 = CARTESIAN_POINT('', (0., 0., -100.));
#331 = COMPOSITE_CURVE('cutting part line', (#332, #333, #334, #335), .U.);
#332 = COMPOSITE_CURVE_SEGMENT(.CONTINUOUS., .T., #302);
#333 = COMPOSITE_CURVE_SEGMENT(.CONTINUOUS., .T., #310);
#334 = COMPOSITE_CURVE_SEGMENT(.CONTINUOUS., .T., #317);
#335 = COMPOSITE_CURVE_SEGMENT(.CONTINUOUS., .T., #324);
#336 = GEOMETRIC_SET('', (#331, #374));
#337 = PRESENTATION_STYLE_ASSIGNMENT((#338));
#338 = CURVE_STYLE('', #340, POSITIVE_LENGTH_MEASURE(1.E-6), #339);
#339 = COLOUR_RGB('', 0., 0., 1.);
#340 = DRAUGHTING_PRE_DEFINED_CURVE_FONT('continuous');
#341 = STYLED_ITEM('', (#337), #331);
#342 = PRESENTATION_STYLE_ASSIGNMENT((#343));
#343 = CURVE_STYLE('', #345, POSITIVE_LENGTH_MEASURE(1.E-6), #344);
#344 = COLOUR_RGB('', 0., 0., 1.);
#345 = DRAUGHTING_PRE_DEFINED_CURVE_FONT('continuous');
#346 = OVER_RIDING_STYLED_ITEM('', (#342), #302, #341);
#347 = PRESENTATION_STYLE_ASSIGNMENT((#348));
#348 = CURVE_STYLE('', #350, POSITIVE_LENGTH_MEASURE(1.E-6), #349);
#349 = COLOUR_RGB('', 0., 0., 1.);
#350 = DRAUGHTING_PRE_DEFINED_CURVE_FONT('continuous');
#351 = OVER_RIDING_STYLED_ITEM('', (#347), #310, #341);
#352 = PRESENTATION_STYLE_ASSIGNMENT((#353));
#353 = CURVE_STYLE('', #355, POSITIVE_LENGTH_MEASURE(1.E-6), #354);
#354 = COLOUR_RGB('', 0., 0., 1.);
#355 = DRAUGHTING_PRE_DEFINED_CURVE_FONT('continuous');
#356 = OVER_RIDING_STYLED_ITEM('', (#352), #317, #341);
#357 = PRESENTATION_STYLE_ASSIGNMENT((#358));
#358 = CURVE_STYLE('', #360, POSITIVE_LENGTH_MEASURE(1.E-6), #359);
#359 = COLOUR_RGB('', 0., 0., 1.);
#360 = DRAUGHTING_PRE_DEFINED_CURVE_FONT('continuous');
#361 = OVER_RIDING_STYLED_ITEM('', (#357), #324, #341);
#362 = AXIS2_PLACEMENT_3D('MCS', #363, #364, #365);
#363 = CARTESIAN_POINT('', (0., 0., -36.));
#364 = DIRECTION('', (0., 0., 1.));
#365 = DIRECTION('', (1., 0., 0.));
#366 = AXIS2_PLACEMENT_3D('PCS', #367, #368, #369);
#367 = CARTESIAN_POINT('', (0., 0., 0.));
#368 = DIRECTION('', (0., 0., 1.));
#369 = DIRECTION('', (1., 0., 0.));
#370 = AXIS2_PLACEMENT_3D('CIP', #371, #372, #373);
#371 = CARTESIAN_POINT('', (0., 0., -100.));
#372 = DIRECTION('', (0., 0., 1.));
#373 = DIRECTION('', (1., 0., 0.));
#374 = CARTESIAN_POINT('CRP', (3.50000000000003, 0., -100.));
#375 = (
   GEOMETRIC_REPRESENTATION_CONTEXT (3)
   GLOBAL_UNCERTAINTY_ASSIGNED_CONTEXT ((#377))
   GLOBAL_UNIT_ASSIGNED_CONTEXT ((#376, #378, #379))
   REPRESENTATION_CONTEXT ('', '3D')
);
#376 = (
   LENGTH_UNIT ()
   NAMED_UNIT (*)
   SI_UNIT (.MILLI., .METRE.)
);
#377 = UNCERTAINTY_MEASURE_WITH_UNIT(LENGTH_MEASURE(1.E-6), #376, 'DISTANCE_ACCURACY_VALUE', '');
#378 = (
   NAMED_UNIT (*)
   SI_UNIT ($, .STERADIAN.)
   SOLID_ANGLE_UNIT ()
);
#379 = (
   NAMED_UNIT (*)
   PLANE_ANGLE_UNIT ()
   SI_UNIT ($, .RADIAN.)
);
#380 = SHAPE_REPRESENTATION('', (), #375);
#381 = PRODUCT_DEFINITION_SHAPE('', '', #382);
#382 = PRODUCT_DEFINITION('', '', #385, #389);
#383 = APPLICATION_CONTEXT('configuration controlled 3D designs of mechanical parts and assemblies');
#384 = APPLICATION_PROTOCOL_DEFINITION('International Standard', 'automotive_design', 2002, #383);
#385 = PRODUCT_DEFINITION_FORMATION_WITH_SPECIFIED_SOURCE('', '', #386, .NOT_KNOWN.);
#386 = PRODUCT('product-name', '1B240-0700-XA       1630', '', (#387));
#387 = PRODUCT_CONTEXT('', #383, 'mechanical');
#388 = PRODUCT_RELATED_PRODUCT_CATEGORY('detail', '', (#386));
#389 = PRODUCT_DEFINITION_CONTEXT('part definition', #383, 'design');
#390 = SHAPE_DEFINITION_REPRESENTATION(#381, #380);
#391 = CONSTRUCTIVE_GEOMETRY_REPRESENTATION('supplemental geometry', (#362, #366, #370), #375);
#392 = CONSTRUCTIVE_GEOMETRY_REPRESENTATION_RELATIONSHIP('', '', #380, #391);
#393 = SHAPE_REPRESENTATION_RELATIONSHIP('', '', #380, #394);
#394 = SHAPE_REPRESENTATION('', (#336), #375);
#395 = SHAPE_REPRESENTATION_RELATIONSHIP('', '', #380, #396);
#396 = ADVANCED_BREP_SHAPE_REPRESENTATION('', (#1, #194), #375);
ENDSEC;
END-ISO-10303-21;
