ISO-10303-21;
HEADER;
FILE_DESCRIPTION(('STEP'), '1');
FILE_NAME('C:\\Users\\ds2002\\OneDrive - Sandvik\\HomeShare\\Documents\\Batchrepair\\CorSRT2\\NEW_MILBN_SLD\\Output2\\MOD000000000000000020082228000000.stp', '2018-11-23T12:39:32', (''), (''), 'Express v3.0.0.0', 'Express Tool', 'Unknown');
FILE_SCHEMA(('AUTOMOTIVE_DESIGN'));
ENDSEC;

DATA;
#1 = MANIFOLD_SOLID_BREP('NOCUT', #2);
#2 = CLOSED_SHELL('', (#3, #50, #89, #98, #137));
#3 = ADVANCED_FACE('', (#4), #31, .T.);
#4 = FACE_OUTER_BOUND('', #5, .T.);
#5 = EDGE_LOOP('', (#6, #16, #23, #24));
#6 = ORIENTED_EDGE('', *, *, #7, .T.);
#7 = EDGE_CURVE('', #8, #10, #12, .T.);
#8 = VERTEX_POINT('', #9);
#9 = CARTESIAN_POINT('', (-3., 2.38806125833734E-15, -36.));
#10 = VERTEX_POINT('', #11);
#11 = CARTESIAN_POINT('', (-3., 2.02066721859313E-16, -0.299999999999997));
#12 = LINE('', #13, #14);
#13 = CARTESIAN_POINT('', (-3., 2.38806125833734E-15, -36.));
#14 = VECTOR('', #15, 35.7);
#15 = DIRECTION('', (0., -2.18599453647803E-15, 35.7));
#16 = ORIENTED_EDGE('', *, *, #17, .T.);
#17 = EDGE_CURVE('', #10, #10, #18, .T.);
#18 = CIRCLE('', #19, 3.);
#19 = AXIS2_PLACEMENT_3D('', #20, #21, #22);
#20 = CARTESIAN_POINT('', (1.346145417358E-15, -1.88737914186277E-15, -0.299999999999997));
#21 = DIRECTION('', (-1.85037170770859E-17, 6.01984494166833E-17, -1.));
#22 = DIRECTION('', (-1., 6.96481954574026E-16, 1.85037170770859E-17));
#23 = ORIENTED_EDGE('', *, *, #7, .F.);
#24 = ORIENTED_EDGE('', *, *, #25, .F.);
#25 = EDGE_CURVE('', #8, #8, #26, .T.);
#26 = CIRCLE('', #27, 3.);
#27 = AXIS2_PLACEMENT_3D('', #28, #29, #30);
#28 = CARTESIAN_POINT('', (6.66133814775094E-16, 1.99840144432528E-15, -36.));
#29 = DIRECTION('', (0., 0., -1.));
#30 = DIRECTION('', (-1., 1.29886604670686E-16, 0.));
#31 = (
   BOUNDED_SURFACE ()
   B_SPLINE_SURFACE (1, 2, ((#32, #33, #34, #35, #36, #37, #38, #39, #40), (#41, #42, #43, #44, #45, #46, #47, #48, #49)), .UNSPECIFIED., .F., .T., .U.)
   B_SPLINE_SURFACE_WITH_KNOTS ((2, 2), (3, 2, 2, 2, 3), (0., 1.), (0., 4.7123889803847, 9.4247779607694, 14.1371669411541, 18.8495559215388), .UNSPECIFIED.)
   GEOMETRIC_REPRESENTATION_ITEM ()
   RATIONAL_B_SPLINE_SURFACE (((1., 0.707106781186548, 1., 0.707106781186548, 1., 0.707106781186548, 1., 0.707106781186548, 1.), (1., 0.707106781186548, 1., 0.707106781186548, 1., 0.707106781186548, 1., 0.707106781186548, 1.)))
   REPRESENTATION_ITEM ('')
   SURFACE ()
);
#32 = CARTESIAN_POINT('', (-3., 2.14495701495334E-15, -36.));
#33 = CARTESIAN_POINT('', (-3., 3., -36.));
#34 = CARTESIAN_POINT('', (2.59131156155601E-15, 3., -36.));
#35 = CARTESIAN_POINT('', (3., 3., -36.));
#36 = CARTESIAN_POINT('', (3., -1.66654067274662E-15, -36.));
#37 = CARTESIAN_POINT('', (3., -3., -36.));
#38 = CARTESIAN_POINT('', (-8.52792086399734E-16, -3., -36.));
#39 = CARTESIAN_POINT('', (-3., -3., -36.));
#40 = CARTESIAN_POINT('', (-3., 2.14495701495334E-15, -36.));
#41 = CARTESIAN_POINT('', (-3., 2.02066721859312E-16, -0.299999999999997));
#42 = CARTESIAN_POINT('', (-3., 3., -0.299999999999997));
#43 = CARTESIAN_POINT('', (3.25189426120798E-15, 3., -0.299999999999997));
#44 = CARTESIAN_POINT('', (3., 3., -0.299999999999997));
#45 = CARTESIAN_POINT('', (3., -3.60943096584064E-15, -0.299999999999997));
#46 = CARTESIAN_POINT('', (3., -3., -0.299999999999997));
#47 = CARTESIAN_POINT('', (-1.92209386747767E-16, -3., -0.299999999999997));
#48 = CARTESIAN_POINT('', (-3., -3., -0.299999999999997));
#49 = CARTESIAN_POINT('', (-3., 2.02066721859312E-16, -0.299999999999997));
#50 = ADVANCED_FACE('', (#51), #70, .T.);
#51 = FACE_OUTER_BOUND('', #52, .T.);
#52 = EDGE_LOOP('', (#53, #61, #68, #69));
#53 = ORIENTED_EDGE('', *, *, #54, .T.);
#54 = EDGE_CURVE('', #10, #55, #57, .T.);
#55 = VERTEX_POINT('', #56);
#56 = CARTESIAN_POINT('', (-2.7, 1.65327317884893E-16, 0.));
#57 = LINE('', #58, #59);
#58 = CARTESIAN_POINT('', (-3., 2.02066721859313E-16, -0.299999999999997));
#59 = VECTOR('', #60, 0.424264068711926);
#60 = DIRECTION('', (0.3, -3.673940397442E-17, 0.299999999999997));
#61 = ORIENTED_EDGE('', *, *, #62, .T.);
#62 = EDGE_CURVE('', #55, #55, #63, .T.);
#63 = CIRCLE('', #64, 2.7);
#64 = AXIS2_PLACEMENT_3D('', #65, #66, #67);
#65 = CARTESIAN_POINT('', (9.22872889219661E-16, -1.27675647831893E-15, -8.0118685686509E-32));
#66 = DIRECTION('', (3.03091835913145E-33, 6.12323399573678E-17, -1.));
#67 = DIRECTION('', (-1., 5.34105109705119E-16, 2.96735872912996E-32));
#68 = ORIENTED_EDGE('', *, *, #54, .F.);
#69 = ORIENTED_EDGE('', *, *, #17, .F.);
#70 = (
   BOUNDED_SURFACE ()
   B_SPLINE_SURFACE (1, 2, ((#71, #72, #73, #74, #75, #76, #77, #78, #79), (#80, #81, #82, #83, #84, #85, #86, #87, #88)), .UNSPECIFIED., .F., .T., .U.)
   B_SPLINE_SURFACE_WITH_KNOTS ((2, 2), (3, 2, 2, 2, 3), (0., 1.), (0., 0.25, 0.5, 0.75, 1.), .UNSPECIFIED.)
   GEOMETRIC_REPRESENTATION_ITEM ()
   RATIONAL_B_SPLINE_SURFACE (((1., 0.707106781186548, 1., 0.707106781186548, 1., 0.707106781186548, 1., 0.707106781186548, 1.), (1., 0.707106781186548, 1., 0.707106781186548, 1., 0.707106781186548, 1., 0.707106781186548, 1.)))
   REPRESENTATION_ITEM ('')
   SURFACE ()
);
#71 = CARTESIAN_POINT('', (-3., 1.49129302665284E-15, -0.299999999999997));
#72 = CARTESIAN_POINT('', (-3., 3., -0.299999999999985));
#73 = CARTESIAN_POINT('', (2.34149119846292E-15, 3., -0.299999999999985));
#74 = CARTESIAN_POINT('', (3., 3., -0.299999999999985));
#75 = CARTESIAN_POINT('', (3., -1.34594359183367E-15, -0.299999999999997));
#76 = CARTESIAN_POINT('', (3., -3., -0.300000000000009));
#77 = CARTESIAN_POINT('', (-1.28351380279387E-16, -3., -0.300000000000009));
#78 = CARTESIAN_POINT('', (-3., -3., -0.300000000000009));
#79 = CARTESIAN_POINT('', (-3., 1.49129302665284E-15, -0.299999999999997));
#80 = CARTESIAN_POINT('', (-2.7, 1.65327317884893E-16, -2.18952885050753E-47));
#81 = CARTESIAN_POINT('', (-2.7, 2.7, 1.04916075827078E-14));
#82 = CARTESIAN_POINT('', (2.19962936753859E-15, 2.7, 1.04916075827078E-14));
#83 = CARTESIAN_POINT('', (2.7, 2.7, 1.04916075827078E-14));
#84 = CARTESIAN_POINT('', (2.7, -2.38818563875297E-15, 1.12461399303431E-30));
#85 = CARTESIAN_POINT('', (2.7, -2.7, -1.04916075827078E-14));
#86 = CARTESIAN_POINT('', (-2.32289533294833E-17, -2.7, -1.04916075827078E-14));
#87 = CARTESIAN_POINT('', (-2.7, -2.7, -1.04916075827078E-14));
#88 = CARTESIAN_POINT('', (-2.7, 1.65327317884893E-16, -2.18952885050753E-47));
#89 = ADVANCED_FACE('', (#90), #93, .T.);
#90 = FACE_OUTER_BOUND('', #91, .T.);
#91 = EDGE_LOOP('', (#92));
#92 = ORIENTED_EDGE('', *, *, #62, .F.);
#93 = B_SPLINE_SURFACE_WITH_KNOTS('', 1, 1, ((#94, #95), (#96, #97)), .UNSPECIFIED., .F., .F., .U., (2, 2), (2, 2), (0.0454545454545454, 0.954545454545454), (0.0454545454545454, 0.954545454545454), .UNSPECIFIED.);
#94 = CARTESIAN_POINT('', (2.7, -2.7, -1.65327317884893E-16));
#95 = CARTESIAN_POINT('', (-2.7, -2.7, -1.65327317884893E-16));
#96 = CARTESIAN_POINT('', (2.7, 2.7, 1.65327317884893E-16));
#97 = CARTESIAN_POINT('', (-2.7, 2.7, 1.65327317884893E-16));
#98 = ADVANCED_FACE('', (#99), #118, .T.);
#99 = FACE_OUTER_BOUND('', #100, .T.);
#100 = EDGE_LOOP('', (#101, #110, #116, #117));
#101 = ORIENTED_EDGE('', *, *, #102, .F.);
#102 = EDGE_CURVE('', #103, #103, #105, .T.);
#103 = VERTEX_POINT('', #104);
#104 = CARTESIAN_POINT('', (-3., 4.28626379701574E-15, -67.));
#105 = CIRCLE('', #106, 3.);
#106 = AXIS2_PLACEMENT_3D('', #107, #108, #109);
#107 = CARTESIAN_POINT('', (1.01307850997046E-15, 3.60822483003176E-15, -67.));
#108 = DIRECTION('', (0., 0., -1.));
#109 = DIRECTION('', (-1., 2.2601298899466E-16, 0.));
#110 = ORIENTED_EDGE('', *, *, #111, .F.);
#111 = EDGE_CURVE('', #8, #103, #112, .T.);
#112 = LINE('', #113, #114);
#113 = CARTESIAN_POINT('', (-3., 2.38806125833734E-15, -36.));
#114 = VECTOR('', #115, 31.);
#115 = DIRECTION('', (0., 1.8982025386784E-15, -31.));
#116 = ORIENTED_EDGE('', *, *, #25, .T.);
#117 = ORIENTED_EDGE('', *, *, #111, .T.);
#118 = (
   BOUNDED_SURFACE ()
   B_SPLINE_SURFACE (2, 1, ((#119, #120), (#121, #122), (#123, #124), (#125, #126), (#127, #128), (#129, #130), (#131, #132), (#133, #134), (#135, #136)), .UNSPECIFIED., .T., .F., .U.)
   B_SPLINE_SURFACE_WITH_KNOTS ((3, 2, 2, 2, 3), (2, 2), (0., 4.7123889803847, 9.4247779607694, 14.1371669411541, 18.8495559215388), (0., 0.75609756097561), .UNSPECIFIED.)
   GEOMETRIC_REPRESENTATION_ITEM ()
   RATIONAL_B_SPLINE_SURFACE (((1., 1.), (0.707106781186548, 0.707106781186548), (1., 1.), (0.707106781186548, 0.707106781186548), (1., 1.), (0.707106781186548, 0.707106781186548), (1., 1.), (0.707106781186548, 0.707106781186548), (1., 1.)))
   REPRESENTATION_ITEM ('')
   SURFACE ()
);
#119 = CARTESIAN_POINT('', (-3., 2.38806125833734E-15, -36.));
#120 = CARTESIAN_POINT('', (-3., 2.77663931695614E-15, -67.));
#121 = CARTESIAN_POINT('', (-3., 3., -36.));
#122 = CARTESIAN_POINT('', (-3., 3., -67.));
#123 = CARTESIAN_POINT('', (2.06558636038709E-15, 3., -36.));
#124 = CARTESIAN_POINT('', (2.06558636038709E-15, 3., -67.));
#125 = CARTESIAN_POINT('', (3., 3., -36.));
#126 = CARTESIAN_POINT('', (3., 3., -67.));
#127 = CARTESIAN_POINT('', (3., -1.90964491613062E-15, -36.));
#128 = CARTESIAN_POINT('', (3., -1.52106685751181E-15, -67.));
#129 = CARTESIAN_POINT('', (3., -3., -36.));
#130 = CARTESIAN_POINT('', (3., -3., -67.));
#131 = CARTESIAN_POINT('', (-1.86472577433666E-15, -3., -36.));
#132 = CARTESIAN_POINT('', (-1.86472577433666E-15, -3., -67.));
#133 = CARTESIAN_POINT('', (-3., -3., -36.));
#134 = CARTESIAN_POINT('', (-3., -3., -67.));
#135 = CARTESIAN_POINT('', (-3., 2.38806125833734E-15, -36.));
#136 = CARTESIAN_POINT('', (-3., 2.77663931695614E-15, -67.));
#137 = ADVANCED_FACE('', (#138), #141, .T.);
#138 = FACE_OUTER_BOUND('', #139, .T.);
#139 = EDGE_LOOP('', (#140));
#140 = ORIENTED_EDGE('', *, *, #102, .T.);
#141 = B_SPLINE_SURFACE_WITH_KNOTS('', 1, 1, ((#142, #143), (#144, #145)), .UNSPECIFIED., .F., .F., .U., (2, 2), (2, 2), (0.493940249234827, 0.531231073337681), (0.468768926662319, 0.506059750765173), .UNSPECIFIED.);
#142 = CARTESIAN_POINT('', (-3.00000000000001, 3.00000000000003, -67.));
#143 = CARTESIAN_POINT('', (-3.00000000000001, -2.99999999999999, -67.));
#144 = CARTESIAN_POINT('', (2.99999999999999, 3.00000000000003, -67.));
#145 = CARTESIAN_POINT('', (2.99999999999999, -2.99999999999999, -67.));
#146 = DRAUGHTING_MODEL('', (#154, #262, #302, #307, #312, #317, #322), #336);
#147 = PRESENTATION_STYLE_ASSIGNMENT((#148));
#148 = SURFACE_STYLE_USAGE(.POSITIVE., #149);
#149 = SURFACE_SIDE_STYLE('', (#150));
#150 = SURFACE_STYLE_FILL_AREA(#151);
#151 = FILL_AREA_STYLE('', (#152));
#152 = FILL_AREA_STYLE_COLOUR('', #153);
#153 = COLOUR_RGB('', 0.50196078431373, 0.50196078431373, 0.50196078431373);
#154 = STYLED_ITEM('', (#147), #1);
#155 = MANIFOLD_SOLID_BREP('CUT', #156);
#156 = CLOSED_SHELL('', (#157, #174, #213));
#157 = ADVANCED_FACE('', (#158), #169, .T.);
#158 = FACE_OUTER_BOUND('', #159, .T.);
#159 = EDGE_LOOP('', (#160));
#160 = ORIENTED_EDGE('', *, *, #161, .F.);
#161 = EDGE_CURVE('', #162, #162, #164, .T.);
#162 = VERTEX_POINT('', #163);
#163 = CARTESIAN_POINT('', (-3., 4.28626379701574E-15, -67.));
#164 = CIRCLE('', #165, 3.);
#165 = AXIS2_PLACEMENT_3D('', #166, #167, #168);
#166 = CARTESIAN_POINT('', (1.01307850997046E-15, 3.60822483003176E-15, -67.));
#167 = DIRECTION('', (0., 0., -1.));
#168 = DIRECTION('', (-1., 2.26012988994657E-16, 0.));
#169 = B_SPLINE_SURFACE_WITH_KNOTS('', 1, 1, ((#170, #171), (#172, #173)), .UNSPECIFIED., .F., .F., .U., (2, 2), (2, 2), (0.468768926662319, 0.506059750765173), (0.493940249234827, 0.531231073337681), .UNSPECIFIED.);
#170 = CARTESIAN_POINT('', (-3., 3., -67.));
#171 = CARTESIAN_POINT('', (3., 3., -67.));
#172 = CARTESIAN_POINT('', (-3., -3., -67.));
#173 = CARTESIAN_POINT('', (3., -3., -67.));
#174 = ADVANCED_FACE('', (#175), #194, .T.);
#175 = FACE_OUTER_BOUND('', #176, .T.);
#176 = EDGE_LOOP('', (#177, #178, #186, #193));
#177 = ORIENTED_EDGE('', *, *, #161, .T.);
#178 = ORIENTED_EDGE('', *, *, #179, .T.);
#179 = EDGE_CURVE('', #162, #180, #182, .T.);
#180 = VERTEX_POINT('', #181);
#181 = CARTESIAN_POINT('', (-3., 4.89858719658941E-15, -77.));
#182 = LINE('', #183, #184);
#183 = CARTESIAN_POINT('', (-3., 4.28626379701574E-15, -67.));
#184 = VECTOR('', #185, 10.);
#185 = DIRECTION('', (0., 6.12323399573669E-16, -10.));
#186 = ORIENTED_EDGE('', *, *, #187, .F.);
#187 = EDGE_CURVE('', #180, #180, #188, .T.);
#188 = CIRCLE('', #189, 3.);
#189 = AXIS2_PLACEMENT_3D('', #190, #191, #192);
#190 = CARTESIAN_POINT('', (1.27675647831893E-15, 1.27675647831893E-15, -77.));
#191 = DIRECTION('', (0., 0., -1.));
#192 = DIRECTION('', (-1., 1.20727690609016E-15, 0.));
#193 = ORIENTED_EDGE('', *, *, #179, .F.);
#194 = (
   BOUNDED_SURFACE ()
   B_SPLINE_SURFACE (2, 1, ((#195, #196), (#197, #198), (#199, #200), (#201, #202), (#203, #204), (#205, #206), (#207, #208), (#209, #210), (#211, #212)), .UNSPECIFIED., .T., .F., .U.)
   B_SPLINE_SURFACE_WITH_KNOTS ((3, 2, 2, 2, 3), (2, 2), (0., 4.7123889803847, 9.4247779607694, 14.1371669411541, 18.8495559215388), (0.75609756097561, 1.), .UNSPECIFIED.)
   GEOMETRIC_REPRESENTATION_ITEM ()
   RATIONAL_B_SPLINE_SURFACE (((1., 1.), (0.707106781186548, 0.707106781186548), (1., 1.), (0.707106781186548, 0.707106781186548), (1., 1.), (0.707106781186548, 0.707106781186548), (1., 1.), (0.707106781186548, 0.707106781186548), (1., 1.)))
   REPRESENTATION_ITEM ('')
   SURFACE ()
);
#195 = CARTESIAN_POINT('', (-3., 4.28626379701574E-15, -67.));
#196 = CARTESIAN_POINT('', (-3., 5.11893106548461E-15, -77.));
#197 = CARTESIAN_POINT('', (-3., 3., -67.));
#198 = CARTESIAN_POINT('', (-3., 3.00000000000001, -77.));
#199 = CARTESIAN_POINT('', (3.71398871852483E-15, 3., -67.));
#200 = CARTESIAN_POINT('', (3.71398871852483E-15, 3., -77.));
#201 = CARTESIAN_POINT('', (3., 3., -67.));
#202 = CARTESIAN_POINT('', (3., 3., -77.));
#203 = CARTESIAN_POINT('', (3., -3.03069133757141E-15, -67.));
#204 = CARTESIAN_POINT('', (3., -2.19802406910254E-15, -77.));
#205 = CARTESIAN_POINT('', (3., -3., -67.));
#206 = CARTESIAN_POINT('', (3., -3., -77.));
#207 = CARTESIAN_POINT('', (-3.23557237631811E-15, -3., -67.));
#208 = CARTESIAN_POINT('', (-3.23557237631811E-15, -3., -77.));
#209 = CARTESIAN_POINT('', (-3., -3., -67.));
#210 = CARTESIAN_POINT('', (-3., -3., -77.));
#211 = CARTESIAN_POINT('', (-3., 4.28626379701574E-15, -67.));
#212 = CARTESIAN_POINT('', (-3., 5.11893106548461E-15, -77.));
#213 = ADVANCED_FACE('', (#214), #227, .T.);
#214 = FACE_OUTER_BOUND('', #215, .T.);
#215 = EDGE_LOOP('', (#216, #225, #226));
#216 = ORIENTED_EDGE('', *, *, #217, .F.);
#217 = EDGE_CURVE('', #180, #218, #220, .T.);
#218 = VERTEX_POINT('', #219);
#219 = CARTESIAN_POINT('', (5.51091059616309E-16, 4.89858719658941E-15, -80.));
#220 = CIRCLE('', #221, 3.00000000000001);
#221 = AXIS2_PLACEMENT_3D('', #222, #223, #224);
#222 = CARTESIAN_POINT('', (1.06581410364015E-14, 4.7148901767173E-15, -77.));
#223 = DIRECTION('', (-6.12323399573705E-17, -1., -6.12323399573702E-17));
#224 = DIRECTION('', (-1., 6.12323399573708E-17, -4.73695157173398E-15));
#225 = ORIENTED_EDGE('', *, *, #187, .T.);
#226 = ORIENTED_EDGE('', *, *, #217, .T.);
#227 = (
   BOUNDED_SURFACE ()
   B_SPLINE_SURFACE (2, 2, ((#228, #229, #230), (#231, #232, #233), (#234, #235, #236), (#237, #238, #239), (#240, #241, #242), (#243, #244, #245), (#246, #247, #248), (#249, #250, #251), (#252, #253, #254)), .UNSPECIFIED., .T., .F., .U.)
   B_SPLINE_SURFACE_WITH_KNOTS ((3, 2, 2, 2, 3), (3, 3), (0., 0.25, 0.5, 0.75, 1.), (0., 1.), .UNSPECIFIED.)
   GEOMETRIC_REPRESENTATION_ITEM ()
   RATIONAL_B_SPLINE_SURFACE (((1., 0.707106781186548, 1.), (0.707106781186548, 0.5, 0.707106781186548), (1., 0.707106781186548, 1.), (0.707106781186548, 0.5, 0.707106781186548), (1., 0.707106781186548, 1.), (0.707106781186548, 0.5, 0.707106781186548), (1., 0.707106781186548, 1.), (0.707106781186548, 0.5, 0.707106781186548), (1., 0.707106781186548, 1.)))
   REPRESENTATION_ITEM ('')
   SURFACE ()
);
#228 = CARTESIAN_POINT('', (-3., 4.89858719658941E-15, -77.));
#229 = CARTESIAN_POINT('', (-3., 5.08228421646152E-15, -80.));
#230 = CARTESIAN_POINT('', (5.51091059616309E-16, 4.89858719658941E-15, -80.));
#231 = CARTESIAN_POINT('', (-3., 3.00000000000002, -77.));
#232 = CARTESIAN_POINT('', (-3.00000000000005, 3.00000000000002, -80.));
#233 = CARTESIAN_POINT('', (5.51091059616309E-16, 4.89858719658941E-15, -80.));
#234 = CARTESIAN_POINT('', (1.06581410364013E-14, 3.00000000000002, -77.));
#235 = CARTESIAN_POINT('', (-3.75253413915256E-14, 3.00000000000006, -80.));
#236 = CARTESIAN_POINT('', (5.51091059616309E-16, 4.89858719658941E-15, -80.));
#237 = CARTESIAN_POINT('', (3.00000000000002, 3.00000000000002, -77.));
#238 = CARTESIAN_POINT('', (2.99999999999997, 3.00000000000011, -80.));
#239 = CARTESIAN_POINT('', (5.51091059616309E-16, 4.89858719658941E-15, -80.));
#240 = CARTESIAN_POINT('', (3.00000000000002, 4.89858719658985E-15, -77.));
#241 = CARTESIAN_POINT('', (3.00000000000002, 1.01449249072316E-13, -80.));
#242 = CARTESIAN_POINT('', (5.51091059616309E-16, 4.89858719658941E-15, -80.));
#243 = CARTESIAN_POINT('', (3.00000000000002, -3.00000000000001, -77.));
#244 = CARTESIAN_POINT('', (3.00000000000007, -2.99999999999991, -80.));
#245 = CARTESIAN_POINT('', (5.51091059616309E-16, 4.89858719658941E-15, -80.));
#246 = CARTESIAN_POINT('', (1.10255350761459E-14, -3.00000000000001, -77.));
#247 = CARTESIAN_POINT('', (5.92090175040729E-14, -2.99999999999996, -80.));
#248 = CARTESIAN_POINT('', (5.51091059616309E-16, 4.89858719658941E-15, -80.));
#249 = CARTESIAN_POINT('', (-3., -3.00000000000001, -77.));
#250 = CARTESIAN_POINT('', (-2.99999999999995, -3.00000000000001, -80.));
#251 = CARTESIAN_POINT('', (5.51091059616309E-16, 4.89858719658941E-15, -80.));
#252 = CARTESIAN_POINT('', (-3., 4.89858719658941E-15, -77.));
#253 = CARTESIAN_POINT('', (-3., 5.08228421646152E-15, -80.));
#254 = CARTESIAN_POINT('', (5.51091059616309E-16, 4.89858719658941E-15, -80.));
#255 = PRESENTATION_STYLE_ASSIGNMENT((#256));
#256 = SURFACE_STYLE_USAGE(.POSITIVE., #257);
#257 = SURFACE_SIDE_STYLE('', (#258));
#258 = SURFACE_STYLE_FILL_AREA(#259);
#259 = FILL_AREA_STYLE('', (#260));
#260 = FILL_AREA_STYLE_COLOUR('', #261);
#261 = COLOUR_RGB('', 0.8, 0.8, 0.8);
#262 = STYLED_ITEM('', (#255), #155);
#263 = TRIMMED_CURVE('cutting part line', #264, (#269), (#270), .T., .CARTESIAN.);
#264 = CIRCLE('', #265, 3.00000000000002);
#265 = AXIS2_PLACEMENT_3D('', #266, #267, #268);
#266 = CARTESIAN_POINT('', (6.32827124036339E-15, 0., -77.));
#267 = DIRECTION('', (0., -1., 0.));
#268 = DIRECTION('', (2.23663680169275E-15, 0., -1.));
#269 = CARTESIAN_POINT('', (1.30381816454417E-14, 0., -80.));
#270 = CARTESIAN_POINT('', (3.00000000000003, 0., -77.));
#271 = TRIMMED_CURVE('cutting part line', #272, (#276), (#277), .T., .CARTESIAN.);
#272 = LINE('', #273, #274);
#273 = CARTESIAN_POINT('', (3., 8.32540449210767E-16, -77.));
#274 = VECTOR('', #275, 10.);
#275 = DIRECTION('', (0., -8.32540449210767E-16, 10.));
#276 = CARTESIAN_POINT('', (3., 8.32540449210767E-16, -77.));
#277 = CARTESIAN_POINT('', (3., 0., -67.));
#278 = TRIMMED_CURVE('cutting part line', #279, (#283), (#284), .T., .CARTESIAN.);
#279 = LINE('', #280, #281);
#280 = CARTESIAN_POINT('', (3., 0., -67.));
#281 = VECTOR('', #282, 3.);
#282 = DIRECTION('', (-3., 0., 0.));
#283 = CARTESIAN_POINT('', (3., 0., -67.));
#284 = CARTESIAN_POINT('', (0., 0., -67.));
#285 = TRIMMED_CURVE('cutting part line', #286, (#290), (#291), .T., .CARTESIAN.);
#286 = LINE('', #287, #288);
#287 = CARTESIAN_POINT('', (0., 0., -67.));
#288 = VECTOR('', #289, 13.);
#289 = DIRECTION('', (0., 0., -13.));
#290 = CARTESIAN_POINT('', (0., 0., -67.));
#291 = CARTESIAN_POINT('', (0., 0., -80.));
#292 = COMPOSITE_CURVE('cutting part line', (#293, #294, #295, #296), .U.);
#293 = COMPOSITE_CURVE_SEGMENT(.CONTINUOUS., .T., #263);
#294 = COMPOSITE_CURVE_SEGMENT(.CONTINUOUS., .T., #271);
#295 = COMPOSITE_CURVE_SEGMENT(.CONTINUOUS., .T., #278);
#296 = COMPOSITE_CURVE_SEGMENT(.CONTINUOUS., .T., #285);
#297 = GEOMETRIC_SET('', (#292, #335));
#298 = PRESENTATION_STYLE_ASSIGNMENT((#299));
#299 = CURVE_STYLE('', #301, POSITIVE_LENGTH_MEASURE(1.E-6), #300);
#300 = COLOUR_RGB('', 0., 0., 1.);
#301 = DRAUGHTING_PRE_DEFINED_CURVE_FONT('continuous');
#302 = STYLED_ITEM('', (#298), #292);
#303 = PRESENTATION_STYLE_ASSIGNMENT((#304));
#304 = CURVE_STYLE('', #306, POSITIVE_LENGTH_MEASURE(1.E-6), #305);
#305 = COLOUR_RGB('', 0., 0., 1.);
#306 = DRAUGHTING_PRE_DEFINED_CURVE_FONT('continuous');
#307 = OVER_RIDING_STYLED_ITEM('', (#303), #263, #302);
#308 = PRESENTATION_STYLE_ASSIGNMENT((#309));
#309 = CURVE_STYLE('', #311, POSITIVE_LENGTH_MEASURE(1.E-6), #310);
#310 = COLOUR_RGB('', 0., 0., 1.);
#311 = DRAUGHTING_PRE_DEFINED_CURVE_FONT('continuous');
#312 = OVER_RIDING_STYLED_ITEM('', (#308), #271, #302);
#313 = PRESENTATION_STYLE_ASSIGNMENT((#314));
#314 = CURVE_STYLE('', #316, POSITIVE_LENGTH_MEASURE(1.E-6), #315);
#315 = COLOUR_RGB('', 0., 0., 1.);
#316 = DRAUGHTING_PRE_DEFINED_CURVE_FONT('continuous');
#317 = OVER_RIDING_STYLED_ITEM('', (#313), #278, #302);
#318 = PRESENTATION_STYLE_ASSIGNMENT((#319));
#319 = CURVE_STYLE('', #321, POSITIVE_LENGTH_MEASURE(1.E-6), #320);
#320 = COLOUR_RGB('', 0., 0., 1.);
#321 = DRAUGHTING_PRE_DEFINED_CURVE_FONT('continuous');
#322 = OVER_RIDING_STYLED_ITEM('', (#318), #285, #302);
#323 = AXIS2_PLACEMENT_3D('MCS', #324, #325, #326);
#324 = CARTESIAN_POINT('', (0., 0., -36.));
#325 = DIRECTION('', (0., 0., 1.));
#326 = DIRECTION('', (1., 0., 0.));
#327 = AXIS2_PLACEMENT_3D('PCS', #328, #329, #330);
#328 = CARTESIAN_POINT('', (0., 0., 0.));
#329 = DIRECTION('', (0., 0., 1.));
#330 = DIRECTION('', (1., 0., 0.));
#331 = AXIS2_PLACEMENT_3D('CIP', #332, #333, #334);
#332 = CARTESIAN_POINT('', (0., 0., -80.));
#333 = DIRECTION('', (0., 0., 1.));
#334 = DIRECTION('', (1., 0., 0.));
#335 = CARTESIAN_POINT('CRP', (3.00000000000003, 0., -80.));
#336 = (
   GEOMETRIC_REPRESENTATION_CONTEXT (3)
   GLOBAL_UNCERTAINTY_ASSIGNED_CONTEXT ((#338))
   GLOBAL_UNIT_ASSIGNED_CONTEXT ((#337, #339, #340))
   REPRESENTATION_CONTEXT ('', '3D')
);
#337 = (
   LENGTH_UNIT ()
   NAMED_UNIT (*)
   SI_UNIT (.MILLI., .METRE.)
);
#338 = UNCERTAINTY_MEASURE_WITH_UNIT(LENGTH_MEASURE(1.E-6), #337, 'DISTANCE_ACCURACY_VALUE', '');
#339 = (
   NAMED_UNIT (*)
   SI_UNIT ($, .STERADIAN.)
   SOLID_ANGLE_UNIT ()
);
#340 = (
   NAMED_UNIT (*)
   PLANE_ANGLE_UNIT ()
   SI_UNIT ($, .RADIAN.)
);
#341 = SHAPE_REPRESENTATION('', (), #336);
#342 = PRODUCT_DEFINITION_SHAPE('', '', #343);
#343 = PRODUCT_DEFINITION('', '', #346, #350);
#344 = APPLICATION_CONTEXT('configuration controlled 3D designs of mechanical parts and assemblies');
#345 = APPLICATION_PROTOCOL_DEFINITION('International Standard', 'automotive_design', 2002, #344);
#346 = PRODUCT_DEFINITION_FORMATION_WITH_SPECIFIED_SOURCE('', '', #347, .NOT_KNOWN.);
#347 = PRODUCT('product-name', '1B240-0600-XA       1630', '', (#348));
#348 = PRODUCT_CONTEXT('', #344, 'mechanical');
#349 = PRODUCT_RELATED_PRODUCT_CATEGORY('detail', '', (#347));
#350 = PRODUCT_DEFINITION_CONTEXT('part definition', #344, 'design');
#351 = SHAPE_DEFINITION_REPRESENTATION(#342, #341);
#352 = CONSTRUCTIVE_GEOMETRY_REPRESENTATION('supplemental geometry', (#323, #327, #331), #336);
#353 = CONSTRUCTIVE_GEOMETRY_REPRESENTATION_RELATIONSHIP('', '', #341, #352);
#354 = SHAPE_REPRESENTATION_RELATIONSHIP('', '', #341, #355);
#355 = SHAPE_REPRESENTATION('', (#297), #336);
#356 = SHAPE_REPRESENTATION_RELATIONSHIP('', '', #341, #357);
#357 = ADVANCED_BREP_SHAPE_REPRESENTATION('', (#1, #155), #336);
ENDSEC;
END-ISO-10303-21;
