ISO-10303-21;
HEADER;
FILE_DESCRIPTION(('STEP'), '1');
FILE_NAME('C:\\Users\\ds2002\\OneDrive - Sandvik\\HomeShare\\Documents\\Batchrepair\\CorSRT2\\NEW_MILBN_SLD\\Output2\\MOD000000000000000020082227400000.stp', '2018-11-23T12:39:27', (''), (''), 'Express v3.0.0.0', 'Express Tool', 'Unknown');
FILE_SCHEMA(('AUTOMOTIVE_DESIGN'));
ENDSEC;

DATA;
#1 = MANIFOLD_SOLID_BREP('NOCUT', #2);
#2 = CLOSED_SHELL('', (#3, #50, #89, #128, #137, #176));
#3 = ADVANCED_FACE('', (#4), #31, .T.);
#4 = FACE_OUTER_BOUND('', #5, .T.);
#5 = EDGE_LOOP('', (#6, #16, #23, #24));
#6 = ORIENTED_EDGE('', *, *, #7, .F.);
#7 = EDGE_CURVE('', #8, #10, #12, .T.);
#8 = VERTEX_POINT('', #9);
#9 = CARTESIAN_POINT('', (-3., 4.28626379701574E-15, -67.));
#10 = VERTEX_POINT('', #11);
#11 = CARTESIAN_POINT('', (-1.5, 4.35361937096884E-15, -69.6));
#12 = LINE('', #13, #14);
#13 = CARTESIAN_POINT('', (-3., 4.28626379701574E-15, -67.));
#14 = VECTOR('', #15, 3.00166620396072);
#15 = DIRECTION('', (1.5, 6.73555739531007E-17, -2.59999999999999));
#16 = ORIENTED_EDGE('', *, *, #17, .T.);
#17 = EDGE_CURVE('', #8, #8, #18, .T.);
#18 = CIRCLE('', #19, 3.);
#19 = AXIS2_PLACEMENT_3D('', #20, #21, #22);
#20 = CARTESIAN_POINT('', (5.55111512312578E-16, 1.16573417585641E-15, -67.));
#21 = DIRECTION('', (0., 0., -1.));
#22 = DIRECTION('', (-1., 1.04017654038644E-15, 0.));
#23 = ORIENTED_EDGE('', *, *, #7, .T.);
#24 = ORIENTED_EDGE('', *, *, #25, .F.);
#25 = EDGE_CURVE('', #10, #10, #26, .T.);
#26 = CIRCLE('', #27, 1.5);
#27 = AXIS2_PLACEMENT_3D('', #28, #29, #30);
#28 = CARTESIAN_POINT('', (3.81639164714898E-16, 1.41553435639707E-15, -69.6));
#29 = DIRECTION('', (0., 0., -1.));
#30 = DIRECTION('', (-1., 1.95872334304784E-15, 0.));
#31 = (
   BOUNDED_SURFACE ()
   B_SPLINE_SURFACE (2, 1, ((#32, #33), (#34, #35), (#36, #37), (#38, #39), (#40, #41), (#42, #43), (#44, #45), (#46, #47), (#48, #49)), .UNSPECIFIED., .T., .F., .U.)
   B_SPLINE_SURFACE_WITH_KNOTS ((3, 2, 2, 2, 3), (2, 2), (0., 0.25, 0.5, 0.75, 1.), (0., 1.), .UNSPECIFIED.)
   GEOMETRIC_REPRESENTATION_ITEM ()
   RATIONAL_B_SPLINE_SURFACE (((1., 1.), (0.707106781186548, 0.707106781186548), (1., 1.), (0.707106781186548, 0.707106781186548), (1., 1.), (0.707106781186548, 0.707106781186548), (1., 1.), (0.707106781186548, 0.707106781186548), (1., 1.)))
   REPRESENTATION_ITEM ('')
   SURFACE ()
);
#32 = CARTESIAN_POINT('', (-3., 4.28626379701574E-15, -67.));
#33 = CARTESIAN_POINT('', (-1.5, 2.97579916697674E-15, -69.6));
#34 = CARTESIAN_POINT('', (-3., 3., -67.));
#35 = CARTESIAN_POINT('', (-1.5, 1.5, -69.6));
#36 = CARTESIAN_POINT('', (3.4919441135998E-15, 3., -67.));
#37 = CARTESIAN_POINT('', (2.02352781295619E-15, 1.5, -69.6));
#38 = CARTESIAN_POINT('', (3., 3., -67.));
#39 = CARTESIAN_POINT('', (1.5, 1.5, -69.6));
#40 = CARTESIAN_POINT('', (3., -1.5874014055587E-15, -67.));
#41 = CARTESIAN_POINT('', (1.5, 3.89665656895156E-17, -69.6));
#42 = CARTESIAN_POINT('', (3., -3., -67.));
#43 = CARTESIAN_POINT('', (1.5, -1.5, -69.6));
#44 = CARTESIAN_POINT('', (-2.01432704923044E-15, -3., -67.));
#45 = CARTESIAN_POINT('', (-7.29607768458929E-16, -1.5, -69.6));
#46 = CARTESIAN_POINT('', (-3., -3., -67.));
#47 = CARTESIAN_POINT('', (-1.5, -1.5, -69.6));
#48 = CARTESIAN_POINT('', (-3., 4.28626379701574E-15, -67.));
#49 = CARTESIAN_POINT('', (-1.5, 2.97579916697674E-15, -69.6));
#50 = ADVANCED_FACE('', (#51), #70, .T.);
#51 = FACE_OUTER_BOUND('', #52, .T.);
#52 = EDGE_LOOP('', (#53, #61, #68, #69));
#53 = ORIENTED_EDGE('', *, *, #54, .T.);
#54 = EDGE_CURVE('', #8, #55, #57, .T.);
#55 = VERTEX_POINT('', #56);
#56 = CARTESIAN_POINT('', (-3., 2.02066721859313E-16, -0.299999999999997));
#57 = LINE('', #58, #59);
#58 = CARTESIAN_POINT('', (-3., 4.28626379701574E-15, -67.));
#59 = VECTOR('', #60, 66.7);
#60 = DIRECTION('', (0., -4.08419707515643E-15, 66.7));
#61 = ORIENTED_EDGE('', *, *, #62, .T.);
#62 = EDGE_CURVE('', #55, #55, #63, .T.);
#63 = CIRCLE('', #64, 3.);
#64 = AXIS2_PLACEMENT_3D('', #65, #66, #67);
#65 = CARTESIAN_POINT('', (1.346145417358E-15, -1.88737914186277E-15, -0.299999999999997));
#66 = DIRECTION('', (-1.85037170770859E-17, 6.01984494166833E-17, -1.));
#67 = DIRECTION('', (-1., 6.96481954574026E-16, 1.85037170770859E-17));
#68 = ORIENTED_EDGE('', *, *, #54, .F.);
#69 = ORIENTED_EDGE('', *, *, #17, .F.);
#70 = (
   BOUNDED_SURFACE ()
   B_SPLINE_SURFACE (1, 2, ((#71, #72, #73, #74, #75, #76, #77, #78, #79), (#80, #81, #82, #83, #84, #85, #86, #87, #88)), .UNSPECIFIED., .F., .T., .U.)
   B_SPLINE_SURFACE_WITH_KNOTS ((2, 2), (3, 2, 2, 2, 3), (0., 1.), (0., 4.7123889803847, 9.4247779607694, 14.1371669411541, 18.8495559215388), .UNSPECIFIED.)
   GEOMETRIC_REPRESENTATION_ITEM ()
   RATIONAL_B_SPLINE_SURFACE (((1., 0.707106781186548, 1., 0.707106781186548, 1., 0.707106781186548, 1., 0.707106781186548, 1.), (1., 0.707106781186548, 1., 0.707106781186548, 1., 0.707106781186548, 1., 0.707106781186548, 1.)))
   REPRESENTATION_ITEM ('')
   SURFACE ()
);
#71 = CARTESIAN_POINT('', (-3., 2.53353507357214E-15, -67.));
#72 = CARTESIAN_POINT('', (-3., 3., -67.));
#73 = CARTESIAN_POINT('', (2.01769633216635E-15, 3., -67.));
#74 = CARTESIAN_POINT('', (3., 3., -67.));
#75 = CARTESIAN_POINT('', (3., -1.27796261412781E-15, -67.));
#76 = CARTESIAN_POINT('', (3., -3., -67.));
#77 = CARTESIAN_POINT('', (-1.4264073157894E-15, -3., -67.));
#78 = CARTESIAN_POINT('', (-3., -3., -67.));
#79 = CARTESIAN_POINT('', (-3., 2.53353507357214E-15, -67.));
#80 = CARTESIAN_POINT('', (-3., 2.02066721859312E-16, -0.299999999999997));
#81 = CARTESIAN_POINT('', (-3., 3., -0.299999999999997));
#82 = CARTESIAN_POINT('', (3.25189426120798E-15, 3., -0.299999999999997));
#83 = CARTESIAN_POINT('', (3., 3., -0.299999999999997));
#84 = CARTESIAN_POINT('', (3., -3.60943096584064E-15, -0.299999999999997));
#85 = CARTESIAN_POINT('', (3., -3., -0.299999999999997));
#86 = CARTESIAN_POINT('', (-1.92209386747767E-16, -3., -0.299999999999997));
#87 = CARTESIAN_POINT('', (-3., -3., -0.299999999999997));
#88 = CARTESIAN_POINT('', (-3., 2.02066721859312E-16, -0.299999999999997));
#89 = ADVANCED_FACE('', (#90), #109, .T.);
#90 = FACE_OUTER_BOUND('', #91, .T.);
#91 = EDGE_LOOP('', (#92, #100, #107, #108));
#92 = ORIENTED_EDGE('', *, *, #93, .T.);
#93 = EDGE_CURVE('', #55, #94, #96, .T.);
#94 = VERTEX_POINT('', #95);
#95 = CARTESIAN_POINT('', (-2.7, 1.65327317884893E-16, 0.));
#96 = LINE('', #97, #98);
#97 = CARTESIAN_POINT('', (-3., 2.02066721859313E-16, -0.299999999999997));
#98 = VECTOR('', #99, 0.424264068711926);
#99 = DIRECTION('', (0.3, -3.673940397442E-17, 0.299999999999997));
#100 = ORIENTED_EDGE('', *, *, #101, .T.);
#101 = EDGE_CURVE('', #94, #94, #102, .T.);
#102 = CIRCLE('', #103, 2.7);
#103 = AXIS2_PLACEMENT_3D('', #104, #105, #106);
#104 = CARTESIAN_POINT('', (9.22872889219661E-16, -1.27675647831893E-15, -8.0118685686509E-32));
#105 = DIRECTION('', (3.03091835913145E-33, 6.12323399573678E-17, -1.));
#106 = DIRECTION('', (-1., 5.34105109705119E-16, 2.96735872912996E-32));
#107 = ORIENTED_EDGE('', *, *, #93, .F.);
#108 = ORIENTED_EDGE('', *, *, #62, .F.);
#109 = (
   BOUNDED_SURFACE ()
   B_SPLINE_SURFACE (1, 2, ((#110, #111, #112, #113, #114, #115, #116, #117, #118), (#119, #120, #121, #122, #123, #124, #125, #126, #127)), .UNSPECIFIED., .F., .T., .U.)
   B_SPLINE_SURFACE_WITH_KNOTS ((2, 2), (3, 2, 2, 2, 3), (0., 1.), (0., 0.25, 0.5, 0.75, 1.), .UNSPECIFIED.)
   GEOMETRIC_REPRESENTATION_ITEM ()
   RATIONAL_B_SPLINE_SURFACE (((1., 0.707106781186548, 1., 0.707106781186548, 1., 0.707106781186548, 1., 0.707106781186548, 1.), (1., 0.707106781186548, 1., 0.707106781186548, 1., 0.707106781186548, 1., 0.707106781186548, 1.)))
   REPRESENTATION_ITEM ('')
   SURFACE ()
);
#110 = CARTESIAN_POINT('', (-3., 1.49129302665284E-15, -0.299999999999997));
#111 = CARTESIAN_POINT('', (-3., 3., -0.299999999999985));
#112 = CARTESIAN_POINT('', (2.34149119846292E-15, 3., -0.299999999999985));
#113 = CARTESIAN_POINT('', (3., 3., -0.299999999999985));
#114 = CARTESIAN_POINT('', (3., -1.34594359183367E-15, -0.299999999999997));
#115 = CARTESIAN_POINT('', (3., -3., -0.300000000000009));
#116 = CARTESIAN_POINT('', (-1.28351380279387E-16, -3., -0.300000000000009));
#117 = CARTESIAN_POINT('', (-3., -3., -0.300000000000009));
#118 = CARTESIAN_POINT('', (-3., 1.49129302665284E-15, -0.299999999999997));
#119 = CARTESIAN_POINT('', (-2.7, 1.65327317884893E-16, -2.18952885050753E-47));
#120 = CARTESIAN_POINT('', (-2.7, 2.7, 1.04916075827078E-14));
#121 = CARTESIAN_POINT('', (2.19962936753859E-15, 2.7, 1.04916075827078E-14));
#122 = CARTESIAN_POINT('', (2.7, 2.7, 1.04916075827078E-14));
#123 = CARTESIAN_POINT('', (2.7, -2.38818563875297E-15, 1.12461399303431E-30));
#124 = CARTESIAN_POINT('', (2.7, -2.7, -1.04916075827078E-14));
#125 = CARTESIAN_POINT('', (-2.32289533294833E-17, -2.7, -1.04916075827078E-14));
#126 = CARTESIAN_POINT('', (-2.7, -2.7, -1.04916075827078E-14));
#127 = CARTESIAN_POINT('', (-2.7, 1.65327317884893E-16, -2.18952885050753E-47));
#128 = ADVANCED_FACE('', (#129), #132, .T.);
#129 = FACE_OUTER_BOUND('', #130, .T.);
#130 = EDGE_LOOP('', (#131));
#131 = ORIENTED_EDGE('', *, *, #101, .F.);
#132 = B_SPLINE_SURFACE_WITH_KNOTS('', 1, 1, ((#133, #134), (#135, #136)), .UNSPECIFIED., .F., .F., .U., (2, 2), (2, 2), (0.0454545454545454, 0.954545454545454), (0.0454545454545454, 0.954545454545454), .UNSPECIFIED.);
#133 = CARTESIAN_POINT('', (2.7, -2.7, -1.65327317884893E-16));
#134 = CARTESIAN_POINT('', (-2.7, -2.7, -1.65327317884893E-16));
#135 = CARTESIAN_POINT('', (2.7, 2.7, 1.65327317884893E-16));
#136 = CARTESIAN_POINT('', (-2.7, 2.7, 1.65327317884893E-16));
#137 = ADVANCED_FACE('', (#138), #157, .T.);
#138 = FACE_OUTER_BOUND('', #139, .T.);
#139 = EDGE_LOOP('', (#140, #149, #155, #156));
#140 = ORIENTED_EDGE('', *, *, #141, .F.);
#141 = EDGE_CURVE('', #142, #142, #144, .T.);
#142 = VERTEX_POINT('', #143);
#143 = CARTESIAN_POINT('', (-1.5, 4.50057698686652E-15, -72.));
#144 = CIRCLE('', #145, 1.5);
#145 = AXIS2_PLACEMENT_3D('', #146, #147, #148);
#146 = CARTESIAN_POINT('', (8.53483950180589E-16, 4.10782519111308E-15, -72.));
#147 = DIRECTION('', (0., 0., -1.));
#148 = DIRECTION('', (-1., 2.61834530502294E-16, 0.));
#149 = ORIENTED_EDGE('', *, *, #150, .F.);
#150 = EDGE_CURVE('', #10, #142, #151, .T.);
#151 = LINE('', #152, #153);
#152 = CARTESIAN_POINT('', (-1.5, 4.35361937096884E-15, -69.6));
#153 = VECTOR('', #154, 2.40000000000001);
#154 = DIRECTION('', (0., 1.46957615897679E-16, -2.40000000000001));
#155 = ORIENTED_EDGE('', *, *, #25, .T.);
#156 = ORIENTED_EDGE('', *, *, #150, .T.);
#157 = (
   BOUNDED_SURFACE ()
   B_SPLINE_SURFACE (2, 1, ((#158, #159), (#160, #161), (#162, #163), (#164, #165), (#166, #167), (#168, #169), (#170, #171), (#172, #173), (#174, #175)), .UNSPECIFIED., .T., .F., .U.)
   B_SPLINE_SURFACE_WITH_KNOTS ((3, 2, 2, 2, 3), (2, 2), (0., 2.35619449019235, 4.71238898038469, 7.06858347057704, 9.42477796076938), (0., 0.269662921348314), .UNSPECIFIED.)
   GEOMETRIC_REPRESENTATION_ITEM ()
   RATIONAL_B_SPLINE_SURFACE (((1., 1.), (0.707106781186548, 0.707106781186548), (1., 1.), (0.707106781186548, 0.707106781186548), (1., 1.), (0.707106781186548, 0.707106781186548), (1., 1.), (0.707106781186548, 0.707106781186548), (1., 1.)))
   REPRESENTATION_ITEM ('')
   SURFACE ()
);
#158 = CARTESIAN_POINT('', (-1.5, 4.35361937096884E-15, -69.6));
#159 = CARTESIAN_POINT('', (-1.50000000000002, 3.90953016111881E-15, -72.));
#160 = CARTESIAN_POINT('', (-1.5, 1.5, -69.6));
#161 = CARTESIAN_POINT('', (-1.50000000000002, 1.5, -72.));
#162 = CARTESIAN_POINT('', (2.87399208025134E-15, 1.5, -69.6));
#163 = CARTESIAN_POINT('', (-1.98633754640718E-14, 1.5, -72.));
#164 = CARTESIAN_POINT('', (1.5, 1.5, -69.6));
#165 = CARTESIAN_POINT('', (1.49999999999998, 1.5, -72.));
#166 = CARTESIAN_POINT('', (1.5, -3.95164067371204E-16, -69.6));
#167 = CARTESIAN_POINT('', (1.49999999999998, -8.3925327722123E-16, -72.));
#168 = CARTESIAN_POINT('', (1.5, -1.5, -69.6));
#169 = CARTESIAN_POINT('', (1.49999999999998, -1.5, -72.));
#170 = CARTESIAN_POINT('', (-1.6910943382166E-15, -1.5, -69.6));
#171 = CARTESIAN_POINT('', (-2.44284618825397E-14, -1.5, -72.));
#172 = CARTESIAN_POINT('', (-1.5, -1.5, -69.6));
#173 = CARTESIAN_POINT('', (-1.50000000000002, -1.5, -72.));
#174 = CARTESIAN_POINT('', (-1.5, 4.35361937096884E-15, -69.6));
#175 = CARTESIAN_POINT('', (-1.50000000000002, 3.90953016111881E-15, -72.));
#176 = ADVANCED_FACE('', (#177), #180, .T.);
#177 = FACE_OUTER_BOUND('', #178, .T.);
#178 = EDGE_LOOP('', (#179));
#179 = ORIENTED_EDGE('', *, *, #141, .T.);
#180 = B_SPLINE_SURFACE_WITH_KNOTS('', 1, 1, ((#181, #182), (#183, #184)), .UNSPECIFIED., .F., .F., .U., (2, 2), (2, 2), (0.505593633233353, 0.524239045284779), (0.47576095471522, 0.494406366766647), .UNSPECIFIED.);
#181 = CARTESIAN_POINT('', (-1.50000000000003, 1.50000000000003, -72.));
#182 = CARTESIAN_POINT('', (-1.50000000000003, -1.49999999999997, -72.));
#183 = CARTESIAN_POINT('', (1.49999999999999, 1.50000000000003, -72.));
#184 = CARTESIAN_POINT('', (1.49999999999999, -1.49999999999997, -72.));
#185 = DRAUGHTING_MODEL('', (#193, #301, #341, #346, #351, #356, #361), #375);
#186 = PRESENTATION_STYLE_ASSIGNMENT((#187));
#187 = SURFACE_STYLE_USAGE(.POSITIVE., #188);
#188 = SURFACE_SIDE_STYLE('', (#189));
#189 = SURFACE_STYLE_FILL_AREA(#190);
#190 = FILL_AREA_STYLE('', (#191));
#191 = FILL_AREA_STYLE_COLOUR('', #192);
#192 = COLOUR_RGB('', 0.50196078431373, 0.50196078431373, 0.50196078431373);
#193 = STYLED_ITEM('', (#186), #1);
#194 = MANIFOLD_SOLID_BREP('CUT', #195);
#195 = CLOSED_SHELL('', (#196, #213, #252));
#196 = ADVANCED_FACE('', (#197), #208, .T.);
#197 = FACE_OUTER_BOUND('', #198, .T.);
#198 = EDGE_LOOP('', (#199));
#199 = ORIENTED_EDGE('', *, *, #200, .F.);
#200 = EDGE_CURVE('', #201, #201, #203, .T.);
#201 = VERTEX_POINT('', #202);
#202 = CARTESIAN_POINT('', (-1.5, 4.50057698686652E-15, -72.));
#203 = CIRCLE('', #204, 1.5);
#204 = AXIS2_PLACEMENT_3D('', #205, #206, #207);
#205 = CARTESIAN_POINT('', (8.53483950180589E-16, 4.10782519111308E-15, -72.));
#206 = DIRECTION('', (0., 0., -1.));
#207 = DIRECTION('', (-1., 2.61834530502294E-16, 0.));
#208 = B_SPLINE_SURFACE_WITH_KNOTS('', 1, 1, ((#209, #210), (#211, #212)), .UNSPECIFIED., .F., .F., .U., (2, 2), (2, 2), (0.47576095471522, 0.494406366766647), (0.505593633233353, 0.52423904528478), .UNSPECIFIED.);
#209 = CARTESIAN_POINT('', (-1.5, 1.5, -72.));
#210 = CARTESIAN_POINT('', (1.5, 1.5, -72.));
#211 = CARTESIAN_POINT('', (-1.5, -1.5, -72.));
#212 = CARTESIAN_POINT('', (1.5, -1.5, -72.));
#213 = ADVANCED_FACE('', (#214), #233, .T.);
#214 = FACE_OUTER_BOUND('', #215, .T.);
#215 = EDGE_LOOP('', (#216, #217, #225, #232));
#216 = ORIENTED_EDGE('', *, *, #200, .T.);
#217 = ORIENTED_EDGE('', *, *, #218, .T.);
#218 = EDGE_CURVE('', #201, #219, #221, .T.);
#219 = VERTEX_POINT('', #220);
#220 = CARTESIAN_POINT('', (-1.5, 4.89858719658941E-15, -78.5));
#221 = LINE('', #222, #223);
#222 = CARTESIAN_POINT('', (-1.5, 4.50057698686652E-15, -72.));
#223 = VECTOR('', #224, 6.5);
#224 = DIRECTION('', (0., 3.9801020972289E-16, -6.5));
#225 = ORIENTED_EDGE('', *, *, #226, .F.);
#226 = EDGE_CURVE('', #219, #219, #227, .T.);
#227 = CIRCLE('', #228, 1.5);
#228 = AXIS2_PLACEMENT_3D('', #229, #230, #231);
#229 = CARTESIAN_POINT('', (7.91033905045424E-16, 1.83186799063151E-15, -78.5));
#230 = DIRECTION('', (-9.47390314346793E-15, 3.08216061013409E-14, -1.));
#231 = DIRECTION('', (-1., 2.0444794706386E-15, 9.473903143468E-15));
#232 = ORIENTED_EDGE('', *, *, #218, .F.);
#233 = (
   BOUNDED_SURFACE ()
   B_SPLINE_SURFACE (2, 1, ((#234, #235), (#236, #237), (#238, #239), (#240, #241), (#242, #243), (#244, #245), (#246, #247), (#248, #249), (#250, #251)), .UNSPECIFIED., .T., .F., .U.)
   B_SPLINE_SURFACE_WITH_KNOTS ((3, 2, 2, 2, 3), (2, 2), (0., 2.35619449019235, 4.71238898038469, 7.06858347057704, 9.42477796076938), (0.269662921348314, 1.), .UNSPECIFIED.)
   GEOMETRIC_REPRESENTATION_ITEM ()
   RATIONAL_B_SPLINE_SURFACE (((1., 1.), (0.707106781186548, 0.707106781186548), (1., 1.), (0.707106781186548, 0.707106781186548), (1., 1.), (0.707106781186548, 0.707106781186548), (1., 1.), (0.707106781186548, 0.707106781186548), (1., 1.)))
   REPRESENTATION_ITEM ('')
   SURFACE ()
);
#234 = CARTESIAN_POINT('', (-1.5, 4.50057698686652E-15, -72.));
#235 = CARTESIAN_POINT('', (-1.5, 4.88915504548532E-15, -78.5));
#236 = CARTESIAN_POINT('', (-1.5, 1.5, -72.));
#237 = CARTESIAN_POINT('', (-1.5, 1.5, -78.5));
#238 = CARTESIAN_POINT('', (3.55524452674988E-15, 1.5, -72.));
#239 = CARTESIAN_POINT('', (3.55524452674988E-15, 1.5, -78.5));
#240 = CARTESIAN_POINT('', (1.5, 1.5, -72.));
#241 = CARTESIAN_POINT('', (1.5, 1.5, -78.5));
#242 = CARTESIAN_POINT('', (1.5, -1.43030010296901E-15, -72.));
#243 = CARTESIAN_POINT('', (1.5, -1.0417220443502E-15, -78.5));
#244 = CARTESIAN_POINT('', (1.5, -1.5, -72.));
#245 = CARTESIAN_POINT('', (1.5, -1.5, -78.5));
#246 = CARTESIAN_POINT('', (-2.19193554321355E-15, -1.5, -72.));
#247 = CARTESIAN_POINT('', (-2.19193554321355E-15, -1.5, -78.5));
#248 = CARTESIAN_POINT('', (-1.5, -1.5, -72.));
#249 = CARTESIAN_POINT('', (-1.5, -1.5, -78.5));
#250 = CARTESIAN_POINT('', (-1.5, 4.50057698686652E-15, -72.));
#251 = CARTESIAN_POINT('', (-1.5, 4.88915504548532E-15, -78.5));
#252 = ADVANCED_FACE('', (#253), #266, .T.);
#253 = FACE_OUTER_BOUND('', #254, .T.);
#254 = EDGE_LOOP('', (#255, #264, #265));
#255 = ORIENTED_EDGE('', *, *, #256, .F.);
#256 = EDGE_CURVE('', #219, #257, #259, .T.);
#257 = VERTEX_POINT('', #258);
#258 = CARTESIAN_POINT('', (2.75545529808155E-16, 4.89858719658941E-15, -80.));
#259 = CIRCLE('', #260, 1.49999999999996);
#260 = AXIS2_PLACEMENT_3D('', #261, #262, #263);
#261 = CARTESIAN_POINT('', (-3.73034936274053E-14, 4.80673868665337E-15, -78.5));
#262 = DIRECTION('', (-6.1232339957364E-17, -1., -6.1232339957364E-17));
#263 = DIRECTION('', (-1., 6.12323399573628E-17, 1.89478062869365E-14));
#264 = ORIENTED_EDGE('', *, *, #226, .T.);
#265 = ORIENTED_EDGE('', *, *, #256, .T.);
#266 = (
   BOUNDED_SURFACE ()
   B_SPLINE_SURFACE (2, 2, ((#267, #268, #269), (#270, #271, #272), (#273, #274, #275), (#276, #277, #278), (#279, #280, #281), (#282, #283, #284), (#285, #286, #287), (#288, #289, #290), (#291, #292, #293)), .UNSPECIFIED., .T., .F., .U.)
   B_SPLINE_SURFACE_WITH_KNOTS ((3, 2, 2, 2, 3), (3, 3), (0., 0.25, 0.5, 0.75, 1.), (0., 1.), .UNSPECIFIED.)
   GEOMETRIC_REPRESENTATION_ITEM ()
   RATIONAL_B_SPLINE_SURFACE (((1., 0.707106781186548, 1.), (0.707106781186548, 0.5, 0.707106781186548), (1., 0.707106781186548, 1.), (0.707106781186548, 0.5, 0.707106781186548), (1., 0.707106781186548, 1.), (0.707106781186548, 0.5, 0.707106781186548), (1., 0.707106781186548, 1.), (0.707106781186548, 0.5, 0.707106781186548), (1., 0.707106781186548, 1.)))
   REPRESENTATION_ITEM ('')
   SURFACE ()
);
#267 = CARTESIAN_POINT('', (-1.5, 4.89858719658941E-15, -78.5));
#268 = CARTESIAN_POINT('', (-1.5, 4.99043570652546E-15, -80.));
#269 = CARTESIAN_POINT('', (2.75545529808155E-16, 4.89858719658941E-15, -80.));
#270 = CARTESIAN_POINT('', (-1.5, 1.49999999999997, -78.5));
#271 = CARTESIAN_POINT('', (-1.50000000000005, 1.49999999999997, -80.));
#272 = CARTESIAN_POINT('', (2.75545529808155E-16, 4.89858719658941E-15, -80.));
#273 = CARTESIAN_POINT('', (-3.73034936274044E-14, 1.49999999999997, -78.5));
#274 = CARTESIAN_POINT('', (-8.55788245652672E-14, 1.50000000000002, -80.));
#275 = CARTESIAN_POINT('', (2.75545529808155E-16, 4.89858719658941E-15, -80.));
#276 = CARTESIAN_POINT('', (1.49999999999993, 1.49999999999997, -78.5));
#277 = CARTESIAN_POINT('', (1.49999999999988, 1.50000000000006, -80.));
#278 = CARTESIAN_POINT('', (2.75545529808155E-16, 4.89858719658941E-15, -80.));
#279 = CARTESIAN_POINT('', (1.49999999999993, 4.89858719658759E-15, -78.5));
#280 = CARTESIAN_POINT('', (1.49999999999993, 1.0154109758225E-13, -80.));
#281 = CARTESIAN_POINT('', (2.75545529808155E-16, 4.89858719658941E-15, -80.));
#282 = CARTESIAN_POINT('', (1.49999999999993, -1.49999999999996, -78.5));
#283 = CARTESIAN_POINT('', (1.49999999999997, -1.49999999999986, -80.));
#284 = CARTESIAN_POINT('', (2.75545529808155E-16, 4.89858719658941E-15, -80.));
#285 = CARTESIAN_POINT('', (-3.71197966075341E-14, -1.49999999999996, -78.5));
#286 = CARTESIAN_POINT('', (1.1155534330329E-14, -1.49999999999991, -80.));
#287 = CARTESIAN_POINT('', (2.75545529808155E-16, 4.89858719658941E-15, -80.));
#288 = CARTESIAN_POINT('', (-1.5, -1.49999999999996, -78.5));
#289 = CARTESIAN_POINT('', (-1.49999999999995, -1.49999999999996, -80.));
#290 = CARTESIAN_POINT('', (2.75545529808155E-16, 4.89858719658941E-15, -80.));
#291 = CARTESIAN_POINT('', (-1.5, 4.89858719658941E-15, -78.5));
#292 = CARTESIAN_POINT('', (-1.5, 4.99043570652546E-15, -80.));
#293 = CARTESIAN_POINT('', (2.75545529808155E-16, 4.89858719658941E-15, -80.));
#294 = PRESENTATION_STYLE_ASSIGNMENT((#295));
#295 = SURFACE_STYLE_USAGE(.POSITIVE., #296);
#296 = SURFACE_SIDE_STYLE('', (#297));
#297 = SURFACE_STYLE_FILL_AREA(#298);
#298 = FILL_AREA_STYLE('', (#299));
#299 = FILL_AREA_STYLE_COLOUR('', #300);
#300 = COLOUR_RGB('', 0.8, 0.8, 0.8);
#301 = STYLED_ITEM('', (#294), #194);
#302 = TRIMMED_CURVE('cutting part line', #303, (#308), (#309), .T., .CARTESIAN.);
#303 = CIRCLE('', #304, 1.49999999999996);
#304 = AXIS2_PLACEMENT_3D('', #305, #306, #307);
#305 = CARTESIAN_POINT('', (-4.25770529943748E-14, 0., -78.5));
#306 = DIRECTION('', (0., -1., 0.));
#307 = DIRECTION('', (2.68650842312949E-15, 0., -1.));
#308 = CARTESIAN_POINT('', (-3.89146843994248E-14, 0., -80.));
#309 = CARTESIAN_POINT('', (1.49999999999992, 0., -78.5));
#310 = TRIMMED_CURVE('cutting part line', #311, (#315), (#316), .T., .CARTESIAN.);
#311 = LINE('', #312, #313);
#312 = CARTESIAN_POINT('', (1.5, 3.88518876298358E-16, -78.5));
#313 = VECTOR('', #314, 6.50000000000001);
#314 = DIRECTION('', (0., -3.88518876298358E-16, 6.50000000000001));
#315 = CARTESIAN_POINT('', (1.5, 3.88518876298358E-16, -78.5));
#316 = CARTESIAN_POINT('', (1.5, 0., -72.));
#317 = TRIMMED_CURVE('cutting part line', #318, (#322), (#323), .T., .CARTESIAN.);
#318 = LINE('', #319, #320);
#319 = CARTESIAN_POINT('', (1.5, 0., -72.));
#320 = VECTOR('', #321, 1.5);
#321 = DIRECTION('', (-1.5, 0., 0.));
#322 = CARTESIAN_POINT('', (1.5, 0., -72.));
#323 = CARTESIAN_POINT('', (0., 0., -72.));
#324 = TRIMMED_CURVE('cutting part line', #325, (#329), (#330), .T., .CARTESIAN.);
#325 = LINE('', #326, #327);
#326 = CARTESIAN_POINT('', (0., 0., -72.));
#327 = VECTOR('', #328, 7.99999999999999);
#328 = DIRECTION('', (0., 0., -7.99999999999999));
#329 = CARTESIAN_POINT('', (0., 0., -72.));
#330 = CARTESIAN_POINT('', (0., 0., -80.));
#331 = COMPOSITE_CURVE('cutting part line', (#332, #333, #334, #335), .U.);
#332 = COMPOSITE_CURVE_SEGMENT(.CONTINUOUS., .T., #302);
#333 = COMPOSITE_CURVE_SEGMENT(.CONTINUOUS., .T., #310);
#334 = COMPOSITE_CURVE_SEGMENT(.CONTINUOUS., .T., #317);
#335 = COMPOSITE_CURVE_SEGMENT(.CONTINUOUS., .T., #324);
#336 = GEOMETRIC_SET('', (#331, #374));
#337 = PRESENTATION_STYLE_ASSIGNMENT((#338));
#338 = CURVE_STYLE('', #340, POSITIVE_LENGTH_MEASURE(1.E-6), #339);
#339 = COLOUR_RGB('', 0., 0., 1.);
#340 = DRAUGHTING_PRE_DEFINED_CURVE_FONT('continuous');
#341 = STYLED_ITEM('', (#337), #331);
#342 = PRESENTATION_STYLE_ASSIGNMENT((#343));
#343 = CURVE_STYLE('', #345, POSITIVE_LENGTH_MEASURE(1.E-6), #344);
#344 = COLOUR_RGB('', 0., 0., 1.);
#345 = DRAUGHTING_PRE_DEFINED_CURVE_FONT('continuous');
#346 = OVER_RIDING_STYLED_ITEM('', (#342), #302, #341);
#347 = PRESENTATION_STYLE_ASSIGNMENT((#348));
#348 = CURVE_STYLE('', #350, POSITIVE_LENGTH_MEASURE(1.E-6), #349);
#349 = COLOUR_RGB('', 0., 0., 1.);
#350 = DRAUGHTING_PRE_DEFINED_CURVE_FONT('continuous');
#351 = OVER_RIDING_STYLED_ITEM('', (#347), #310, #341);
#352 = PRESENTATION_STYLE_ASSIGNMENT((#353));
#353 = CURVE_STYLE('', #355, POSITIVE_LENGTH_MEASURE(1.E-6), #354);
#354 = COLOUR_RGB('', 0., 0., 1.);
#355 = DRAUGHTING_PRE_DEFINED_CURVE_FONT('continuous');
#356 = OVER_RIDING_STYLED_ITEM('', (#352), #317, #341);
#357 = PRESENTATION_STYLE_ASSIGNMENT((#358));
#358 = CURVE_STYLE('', #360, POSITIVE_LENGTH_MEASURE(1.E-6), #359);
#359 = COLOUR_RGB('', 0., 0., 1.);
#360 = DRAUGHTING_PRE_DEFINED_CURVE_FONT('continuous');
#361 = OVER_RIDING_STYLED_ITEM('', (#357), #324, #341);
#362 = AXIS2_PLACEMENT_3D('MCS', #363, #364, #365);
#363 = CARTESIAN_POINT('', (0., 0., -36.));
#364 = DIRECTION('', (0., 0., 1.));
#365 = DIRECTION('', (1., 0., 0.));
#366 = AXIS2_PLACEMENT_3D('PCS', #367, #368, #369);
#367 = CARTESIAN_POINT('', (0., 0., 0.));
#368 = DIRECTION('', (0., 0., 1.));
#369 = DIRECTION('', (1., 0., 0.));
#370 = AXIS2_PLACEMENT_3D('CIP', #371, #372, #373);
#371 = CARTESIAN_POINT('', (0., 0., -80.));
#372 = DIRECTION('', (0., 0., 1.));
#373 = DIRECTION('', (1., 0., 0.));
#374 = CARTESIAN_POINT('CRP', (1.5, 0., -80.));
#375 = (
   GEOMETRIC_REPRESENTATION_CONTEXT (3)
   GLOBAL_UNCERTAINTY_ASSIGNED_CONTEXT ((#377))
   GLOBAL_UNIT_ASSIGNED_CONTEXT ((#376, #378, #379))
   REPRESENTATION_CONTEXT ('', '3D')
);
#376 = (
   LENGTH_UNIT ()
   NAMED_UNIT (*)
   SI_UNIT (.MILLI., .METRE.)
);
#377 = UNCERTAINTY_MEASURE_WITH_UNIT(LENGTH_MEASURE(1.E-6), #376, 'DISTANCE_ACCURACY_VALUE', '');
#378 = (
   NAMED_UNIT (*)
   SI_UNIT ($, .STERADIAN.)
   SOLID_ANGLE_UNIT ()
);
#379 = (
   NAMED_UNIT (*)
   PLANE_ANGLE_UNIT ()
   SI_UNIT ($, .RADIAN.)
);
#380 = SHAPE_REPRESENTATION('', (), #375);
#381 = PRODUCT_DEFINITION_SHAPE('', '', #382);
#382 = PRODUCT_DEFINITION('', '', #385, #389);
#383 = APPLICATION_CONTEXT('configuration controlled 3D designs of mechanical parts and assemblies');
#384 = APPLICATION_PROTOCOL_DEFINITION('International Standard', 'automotive_design', 2002, #383);
#385 = PRODUCT_DEFINITION_FORMATION_WITH_SPECIFIED_SOURCE('', '', #386, .NOT_KNOWN.);
#386 = PRODUCT('product-name', '1B240-0300-XA       1630', '', (#387));
#387 = PRODUCT_CONTEXT('', #383, 'mechanical');
#388 = PRODUCT_RELATED_PRODUCT_CATEGORY('detail', '', (#386));
#389 = PRODUCT_DEFINITION_CONTEXT('part definition', #383, 'design');
#390 = SHAPE_DEFINITION_REPRESENTATION(#381, #380);
#391 = CONSTRUCTIVE_GEOMETRY_REPRESENTATION('supplemental geometry', (#362, #366, #370), #375);
#392 = CONSTRUCTIVE_GEOMETRY_REPRESENTATION_RELATIONSHIP('', '', #380, #391);
#393 = SHAPE_REPRESENTATION_RELATIONSHIP('', '', #380, #394);
#394 = SHAPE_REPRESENTATION('', (#336), #375);
#395 = SHAPE_REPRESENTATION_RELATIONSHIP('', '', #380, #396);
#396 = ADVANCED_BREP_SHAPE_REPRESENTATION('', (#1, #194), #375);
ENDSEC;
END-ISO-10303-21;
