ISO-10303-21;
HEADER;
FILE_DESCRIPTION(('STEP'), '1');
FILE_NAME('C:\\Users\\ds2002\\OneDrive - Sandvik\\HomeShare\\Documents\\Batchrepair\\CorSRT2\\NEW_MILBN_SLD\\Output2\\MOD000000000000000020082225100000.stp', '2018-11-23T12:38:54', (''), (''), 'Express v3.0.0.0', 'Express Tool', 'Unknown');
FILE_SCHEMA(('AUTOMOTIVE_DESIGN'));
ENDSEC;

DATA;
#1 = MANIFOLD_SOLID_BREP('NOCUT', #2);
#2 = CLOSED_SHELL('', (#3, #50, #89, #98, #137));
#3 = ADVANCED_FACE('', (#4), #31, .T.);
#4 = FACE_OUTER_BOUND('', #5, .T.);
#5 = EDGE_LOOP('', (#6, #16, #23, #24));
#6 = ORIENTED_EDGE('', *, *, #7, .T.);
#7 = EDGE_CURVE('', #8, #10, #12, .T.);
#8 = VERTEX_POINT('', #9);
#9 = CARTESIAN_POINT('', (-10., 3.67394039744206E-15, -50.));
#10 = VERTEX_POINT('', #11);
#11 = CARTESIAN_POINT('', (-10., 6.73555739531044E-16, -1.));
#12 = LINE('', #13, #14);
#13 = CARTESIAN_POINT('', (-10., 3.67394039744206E-15, -50.));
#14 = VECTOR('', #15, 49.);
#15 = DIRECTION('', (0., -3.00038465791102E-15, 49.));
#16 = ORIENTED_EDGE('', *, *, #17, .T.);
#17 = EDGE_CURVE('', #10, #10, #18, .T.);
#18 = CIRCLE('', #19, 10.);
#19 = AXIS2_PLACEMENT_3D('', #20, #21, #22);
#20 = CARTESIAN_POINT('', (-3.10862446895044E-15, -3.99680288865056E-15, -1.));
#21 = DIRECTION('', (1.11022302462516E-17, 3.94546482371774E-17, -1.));
#22 = DIRECTION('', (-1., 4.67035862818161E-16, -1.11022302462516E-17));
#23 = ORIENTED_EDGE('', *, *, #7, .F.);
#24 = ORIENTED_EDGE('', *, *, #25, .F.);
#25 = EDGE_CURVE('', #8, #8, #26, .T.);
#26 = CIRCLE('', #27, 10.);
#27 = AXIS2_PLACEMENT_3D('', #28, #29, #30);
#28 = CARTESIAN_POINT('', (-1.11022302462516E-16, -1.06581410364015E-14, -50.));
#29 = DIRECTION('', (0., 0., -1.));
#30 = DIRECTION('', (-1., 1.43320814338436E-15, 0.));
#31 = (
   BOUNDED_SURFACE ()
   B_SPLINE_SURFACE (1, 2, ((#32, #33, #34, #35, #36, #37, #38, #39, #40), (#41, #42, #43, #44, #45, #46, #47, #48, #49)), .UNSPECIFIED., .F., .T., .U.)
   B_SPLINE_SURFACE_WITH_KNOTS ((2, 2), (3, 2, 2, 2, 3), (0., 1.), (0., 15.707963267949, 31.415926535898, 47.1238898038469, 62.8318530717959), .UNSPECIFIED.)
   GEOMETRIC_REPRESENTATION_ITEM ()
   RATIONAL_B_SPLINE_SURFACE (((1., 0.707106781186548, 1., 0.707106781186548, 1., 0.707106781186548, 1., 0.707106781186548, 1.), (1., 0.707106781186548, 1., 0.707106781186548, 1., 0.707106781186548, 1., 0.707106781186548, 1.)))
   REPRESENTATION_ITEM ('')
   SURFACE ()
);
#32 = CARTESIAN_POINT('', (-10., 4.22626941833155E-15, -50.));
#33 = CARTESIAN_POINT('', (-10., 10., -50.));
#34 = CARTESIAN_POINT('', (1.49342004172382E-15, 10., -50.));
#35 = CARTESIAN_POINT('', (10., 10., -50.));
#36 = CARTESIAN_POINT('', (10., -3.88980103888432E-15, -50.));
#37 = CARTESIAN_POINT('', (10., -10., -50.));
#38 = CARTESIAN_POINT('', (-5.39800361634469E-15, -10., -50.));
#39 = CARTESIAN_POINT('', (-10., -10., -50.));
#40 = CARTESIAN_POINT('', (-10., 4.22626941833155E-15, -50.));
#41 = CARTESIAN_POINT('', (-10., 6.73555739531046E-16, -1.));
#42 = CARTESIAN_POINT('', (-10., 10., -0.999999999999999));
#43 = CARTESIAN_POINT('', (9.49410759657495E-16, 10., -0.999999999999999));
#44 = CARTESIAN_POINT('', (10., 9.99999999999999, -0.999999999999999));
#45 = CARTESIAN_POINT('', (10., -7.44251471768482E-15, -1.));
#46 = CARTESIAN_POINT('', (9.99999999999999, -10., -1.));
#47 = CARTESIAN_POINT('', (-5.94201289841102E-15, -10., -1.));
#48 = CARTESIAN_POINT('', (-10., -10., -1.));
#49 = CARTESIAN_POINT('', (-10., 6.73555739531046E-16, -1.));
#50 = ADVANCED_FACE('', (#51), #70, .T.);
#51 = FACE_OUTER_BOUND('', #52, .T.);
#52 = EDGE_LOOP('', (#53, #61, #68, #69));
#53 = ORIENTED_EDGE('', *, *, #54, .T.);
#54 = EDGE_CURVE('', #10, #55, #57, .T.);
#55 = VERTEX_POINT('', #56);
#56 = CARTESIAN_POINT('', (-9., 5.51091059616309E-16, 0.));
#57 = LINE('', #58, #59);
#58 = CARTESIAN_POINT('', (-10., 6.73555739531044E-16, -1.));
#59 = VECTOR('', #60, 1.4142135623731);
#60 = DIRECTION('', (1., -1.22464679914735E-16, 1.));
#61 = ORIENTED_EDGE('', *, *, #62, .T.);
#62 = EDGE_CURVE('', #55, #55, #63, .T.);
#63 = CIRCLE('', #64, 9.);
#64 = AXIS2_PLACEMENT_3D('', #65, #66, #67);
#65 = CARTESIAN_POINT('', (4.57966997657877E-15, 0., 0.));
#66 = DIRECTION('', (3.74939945665464E-33, 6.12323399573677E-17, -1.));
#67 = DIRECTION('', (-1., 6.12323399573676E-17, 0.));
#68 = ORIENTED_EDGE('', *, *, #54, .F.);
#69 = ORIENTED_EDGE('', *, *, #17, .F.);
#70 = (
   BOUNDED_SURFACE ()
   B_SPLINE_SURFACE (1, 2, ((#71, #72, #73, #74, #75, #76, #77, #78, #79), (#80, #81, #82, #83, #84, #85, #86, #87, #88)), .UNSPECIFIED., .F., .T., .U.)
   B_SPLINE_SURFACE_WITH_KNOTS ((2, 2), (3, 2, 2, 2, 3), (0., 1.), (0., 0.25, 0.5, 0.75, 1.), .UNSPECIFIED.)
   GEOMETRIC_REPRESENTATION_ITEM ()
   RATIONAL_B_SPLINE_SURFACE (((1., 0.707106781186548, 1., 0.707106781186548, 1., 0.707106781186548, 1., 0.707106781186548, 1.), (1., 0.707106781186548, 1., 0.707106781186548, 1., 0.707106781186548, 1., 0.707106781186548, 1.)))
   REPRESENTATION_ITEM ('')
   SURFACE ()
);
#71 = CARTESIAN_POINT('', (-9.99999999999999, -5.38288093340217E-15, -1.));
#72 = CARTESIAN_POINT('', (-9.99999999999999, 9.99999999999999, -1.00000000000006));
#73 = CARTESIAN_POINT('', (4.57966997657877E-15, 9.99999999999999, -1.00000000000006));
#74 = CARTESIAN_POINT('', (10., 9.99999999999999, -1.00000000000006));
#75 = CARTESIAN_POINT('', (10., -5.38288093340217E-15, -1.));
#76 = CARTESIAN_POINT('', (10., -10., -0.99999999999994));
#77 = CARTESIAN_POINT('', (5.80431677572612E-15, -10., -0.99999999999994));
#78 = CARTESIAN_POINT('', (-9.99999999999999, -10., -0.99999999999994));
#79 = CARTESIAN_POINT('', (-9.99999999999999, -5.38288093340217E-15, -1.));
#80 = CARTESIAN_POINT('', (-9., 5.51091059616309E-16, 0.));
#81 = CARTESIAN_POINT('', (-9., 9., -5.39568389967826E-14));
#82 = CARTESIAN_POINT('', (4.57966997657877E-15, 9., -5.39568389967826E-14));
#83 = CARTESIAN_POINT('', (9.00000000000001, 9., -5.39568389967826E-14));
#84 = CARTESIAN_POINT('', (9.00000000000001, 5.51091059616309E-16, -6.60780701695189E-30));
#85 = CARTESIAN_POINT('', (9.00000000000001, -9., 5.39568389967826E-14));
#86 = CARTESIAN_POINT('', (5.68185209581139E-15, -9., 5.39568389967826E-14));
#87 = CARTESIAN_POINT('', (-8.99999999999999, -9., 5.39568389967826E-14));
#88 = CARTESIAN_POINT('', (-9., 5.51091059616309E-16, 0.));
#89 = ADVANCED_FACE('', (#90), #93, .T.);
#90 = FACE_OUTER_BOUND('', #91, .T.);
#91 = EDGE_LOOP('', (#92));
#92 = ORIENTED_EDGE('', *, *, #62, .F.);
#93 = B_SPLINE_SURFACE_WITH_KNOTS('', 1, 1, ((#94, #95), (#96, #97)), .UNSPECIFIED., .F., .F., .U., (2, 2), (2, 2), (0.0454545454545454, 0.954545454545454), (0.0454545454545454, 0.954545454545454), .UNSPECIFIED.);
#94 = CARTESIAN_POINT('', (9., -9., -5.51091059616309E-16));
#95 = CARTESIAN_POINT('', (-9., -9., -5.51091059616309E-16));
#96 = CARTESIAN_POINT('', (9., 9., 5.51091059616309E-16));
#97 = CARTESIAN_POINT('', (-9., 9., 5.51091059616309E-16));
#98 = ADVANCED_FACE('', (#99), #118, .T.);
#99 = FACE_OUTER_BOUND('', #100, .T.);
#100 = EDGE_LOOP('', (#101, #110, #116, #117));
#101 = ORIENTED_EDGE('', *, *, #102, .F.);
#102 = EDGE_CURVE('', #103, #103, #105, .T.);
#103 = VERTEX_POINT('', #104);
#104 = CARTESIAN_POINT('', (-10., 5.02105187650415E-15, -72.));
#105 = CIRCLE('', #106, 10.);
#106 = AXIS2_PLACEMENT_3D('', #107, #108, #109);
#107 = CARTESIAN_POINT('', (3.33066907387547E-16, -2.22044604925031E-15, -72.));
#108 = DIRECTION('', (0., 0., -1.));
#109 = DIRECTION('', (-1., 7.24149792575446E-16, 0.));
#110 = ORIENTED_EDGE('', *, *, #111, .F.);
#111 = EDGE_CURVE('', #8, #103, #112, .T.);
#112 = LINE('', #113, #114);
#113 = CARTESIAN_POINT('', (-10., 3.67394039744206E-15, -50.));
#114 = VECTOR('', #115, 22.);
#115 = DIRECTION('', (0., 1.34711147906209E-15, -22.));
#116 = ORIENTED_EDGE('', *, *, #25, .T.);
#117 = ORIENTED_EDGE('', *, *, #111, .T.);
#118 = (
   BOUNDED_SURFACE ()
   B_SPLINE_SURFACE (2, 1, ((#119, #120), (#121, #122), (#123, #124), (#125, #126), (#127, #128), (#129, #130), (#131, #132), (#133, #134), (#135, #136)), .UNSPECIFIED., .T., .F., .U.)
   B_SPLINE_SURFACE_WITH_KNOTS ((3, 2, 2, 2, 3), (2, 2), (0., 15.707963267949, 31.415926535898, 47.1238898038469, 62.8318530717959), (0., 0.5), .UNSPECIFIED.)
   GEOMETRIC_REPRESENTATION_ITEM ()
   RATIONAL_B_SPLINE_SURFACE (((1., 1.), (0.707106781186548, 0.707106781186548), (1., 1.), (0.707106781186548, 0.707106781186548), (1., 1.), (0.707106781186548, 0.707106781186548), (1., 1.), (0.707106781186548, 0.707106781186548), (1., 1.)))
   REPRESENTATION_ITEM ('')
   SURFACE ()
);
#119 = CARTESIAN_POINT('', (-10., 3.67394039744206E-15, -50.));
#120 = CARTESIAN_POINT('', (-10., 3.89598500236709E-15, -72.));
#121 = CARTESIAN_POINT('', (-10., 10., -50.));
#122 = CARTESIAN_POINT('', (-10., 10., -72.));
#123 = CARTESIAN_POINT('', (2.00690512447449E-15, 10., -50.));
#124 = CARTESIAN_POINT('', (2.00690512447449E-15, 10., -72.));
#125 = CARTESIAN_POINT('', (10., 10., -50.));
#126 = CARTESIAN_POINT('', (10., 10., -72.));
#127 = CARTESIAN_POINT('', (10., -3.33747201799483E-15, -50.));
#128 = CARTESIAN_POINT('', (10., -3.1154274130698E-15, -72.));
#129 = CARTESIAN_POINT('', (10., -10., -50.));
#130 = CARTESIAN_POINT('', (10., -10., -72.));
#131 = CARTESIAN_POINT('', (-3.77986049181506E-15, -10., -50.));
#132 = CARTESIAN_POINT('', (-3.77986049181506E-15, -10., -72.));
#133 = CARTESIAN_POINT('', (-10., -10., -50.));
#134 = CARTESIAN_POINT('', (-10., -10., -72.));
#135 = CARTESIAN_POINT('', (-10., 3.67394039744206E-15, -50.));
#136 = CARTESIAN_POINT('', (-10., 3.89598500236709E-15, -72.));
#137 = ADVANCED_FACE('', (#138), #141, .T.);
#138 = FACE_OUTER_BOUND('', #139, .T.);
#139 = EDGE_LOOP('', (#140));
#140 = ORIENTED_EDGE('', *, *, #102, .T.);
#141 = B_SPLINE_SURFACE_WITH_KNOTS('', 1, 1, ((#142, #143), (#144, #145)), .UNSPECIFIED., .F., .F., .U., (2, 2), (2, 2), (0.471451173159049, 0.564234871767063), (0.435765128232936, 0.528548826840951), .UNSPECIFIED.);
#142 = CARTESIAN_POINT('', (-10., 10., -72.));
#143 = CARTESIAN_POINT('', (-10., -9.99999999999999, -72.));
#144 = CARTESIAN_POINT('', (9.99999999999997, 10., -72.));
#145 = CARTESIAN_POINT('', (9.99999999999997, -9.99999999999999, -72.));
#146 = DRAUGHTING_MODEL('', (#154, #262, #302, #307, #312, #317, #322), #336);
#147 = PRESENTATION_STYLE_ASSIGNMENT((#148));
#148 = SURFACE_STYLE_USAGE(.POSITIVE., #149);
#149 = SURFACE_SIDE_STYLE('', (#150));
#150 = SURFACE_STYLE_FILL_AREA(#151);
#151 = FILL_AREA_STYLE('', (#152));
#152 = FILL_AREA_STYLE_COLOUR('', #153);
#153 = COLOUR_RGB('', 0.50196078431373, 0.50196078431373, 0.50196078431373);
#154 = STYLED_ITEM('', (#147), #1);
#155 = MANIFOLD_SOLID_BREP('CUT', #156);
#156 = CLOSED_SHELL('', (#157, #174, #213));
#157 = ADVANCED_FACE('', (#158), #169, .T.);
#158 = FACE_OUTER_BOUND('', #159, .T.);
#159 = EDGE_LOOP('', (#160));
#160 = ORIENTED_EDGE('', *, *, #161, .F.);
#161 = EDGE_CURVE('', #162, #162, #164, .T.);
#162 = VERTEX_POINT('', #163);
#163 = CARTESIAN_POINT('', (-10., 5.02105187650415E-15, -72.));
#164 = CIRCLE('', #165, 10.);
#165 = AXIS2_PLACEMENT_3D('', #166, #167, #168);
#166 = CARTESIAN_POINT('', (3.33066907387547E-16, -2.22044604925031E-15, -72.));
#167 = DIRECTION('', (0., 0., -1.));
#168 = DIRECTION('', (-1., 7.24149792575446E-16, 0.));
#169 = B_SPLINE_SURFACE_WITH_KNOTS('', 1, 1, ((#170, #171), (#172, #173)), .UNSPECIFIED., .F., .F., .U., (2, 2), (2, 2), (0.435765128232936, 0.528548826840951), (0.471451173159049, 0.564234871767063), .UNSPECIFIED.);
#170 = CARTESIAN_POINT('', (-10., 10., -72.));
#171 = CARTESIAN_POINT('', (9.99999999999999, 10., -72.));
#172 = CARTESIAN_POINT('', (-10., -10., -72.));
#173 = CARTESIAN_POINT('', (9.99999999999999, -10., -72.));
#174 = ADVANCED_FACE('', (#175), #194, .T.);
#175 = FACE_OUTER_BOUND('', #176, .T.);
#176 = EDGE_LOOP('', (#177, #178, #186, #193));
#177 = ORIENTED_EDGE('', *, *, #161, .T.);
#178 = ORIENTED_EDGE('', *, *, #179, .T.);
#179 = EDGE_CURVE('', #162, #180, #182, .T.);
#180 = VERTEX_POINT('', #181);
#181 = CARTESIAN_POINT('', (-10., 6.36816335556624E-15, -94.));
#182 = LINE('', #183, #184);
#183 = CARTESIAN_POINT('', (-10., 5.02105187650415E-15, -72.));
#184 = VECTOR('', #185, 22.);
#185 = DIRECTION('', (0., 1.34711147906209E-15, -22.));
#186 = ORIENTED_EDGE('', *, *, #187, .F.);
#187 = EDGE_CURVE('', #180, #180, #188, .T.);
#188 = CIRCLE('', #189, 10.);
#189 = AXIS2_PLACEMENT_3D('', #190, #191, #192);
#190 = CARTESIAN_POINT('', (-3.21964677141295E-15, 1.33226762955019E-15, -94.));
#191 = DIRECTION('', (2.43572072260626E-30, 4.83671794477997E-15, -1.));
#192 = DIRECTION('', (-1., 5.03589572601605E-16, 0.));
#193 = ORIENTED_EDGE('', *, *, #179, .F.);
#194 = (
   BOUNDED_SURFACE ()
   B_SPLINE_SURFACE (2, 1, ((#195, #196), (#197, #198), (#199, #200), (#201, #202), (#203, #204), (#205, #206), (#207, #208), (#209, #210), (#211, #212)), .UNSPECIFIED., .T., .F., .U.)
   B_SPLINE_SURFACE_WITH_KNOTS ((3, 2, 2, 2, 3), (2, 2), (0., 15.707963267949, 31.415926535898, 47.1238898038469, 62.8318530717959), (0.5, 1.), .UNSPECIFIED.)
   GEOMETRIC_REPRESENTATION_ITEM ()
   RATIONAL_B_SPLINE_SURFACE (((1., 1.), (0.707106781186548, 0.707106781186548), (1., 1.), (0.707106781186548, 0.707106781186548), (1., 1.), (0.707106781186548, 0.707106781186548), (1., 1.), (0.707106781186548, 0.707106781186548), (1., 1.)))
   REPRESENTATION_ITEM ('')
   SURFACE ()
);
#195 = CARTESIAN_POINT('', (-10., 5.02105187650415E-15, -72.));
#196 = CARTESIAN_POINT('', (-10., 5.68718569127925E-15, -94.));
#197 = CARTESIAN_POINT('', (-10., 10., -72.));
#198 = CARTESIAN_POINT('', (-10., 10., -94.));
#199 = CARTESIAN_POINT('', (4.11925588279911E-16, 10., -72.));
#200 = CARTESIAN_POINT('', (4.11925588279911E-16, 10., -94.));
#201 = CARTESIAN_POINT('', (10., 10., -72.));
#202 = CARTESIAN_POINT('', (10., 10., -94.));
#203 = CARTESIAN_POINT('', (10., -2.46413744780661E-15, -72.));
#204 = CARTESIAN_POINT('', (10., -1.79800363303152E-15, -94.));
#205 = CARTESIAN_POINT('', (9.99999999999999, -10., -72.));
#206 = CARTESIAN_POINT('', (9.99999999999999, -10., -94.));
#207 = CARTESIAN_POINT('', (-5.8486169368835E-15, -10., -72.));
#208 = CARTESIAN_POINT('', (-5.8486169368835E-15, -10., -94.));
#209 = CARTESIAN_POINT('', (-10., -10., -72.));
#210 = CARTESIAN_POINT('', (-10., -10., -94.));
#211 = CARTESIAN_POINT('', (-10., 5.02105187650415E-15, -72.));
#212 = CARTESIAN_POINT('', (-10., 5.68718569127925E-15, -94.));
#213 = ADVANCED_FACE('', (#214), #227, .T.);
#214 = FACE_OUTER_BOUND('', #215, .T.);
#215 = EDGE_LOOP('', (#216, #225, #226));
#216 = ORIENTED_EDGE('', *, *, #217, .F.);
#217 = EDGE_CURVE('', #180, #218, #220, .T.);
#218 = VERTEX_POINT('', #219);
#219 = CARTESIAN_POINT('', (3.61332703812128E-15, 6.36816335556624E-15, -104.));
#220 = CIRCLE('', #221, 9.99999999999998);
#221 = AXIS2_PLACEMENT_3D('', #222, #223, #224);
#222 = CARTESIAN_POINT('', (-1.24344978758018E-14, 5.75583995599257E-15, -94.));
#223 = DIRECTION('', (-6.12323399573673E-17, -1., -6.12323399573672E-17));
#224 = DIRECTION('', (-1., 6.12323399573673E-17, 1.4210854715202E-15));
#225 = ORIENTED_EDGE('', *, *, #187, .T.);
#226 = ORIENTED_EDGE('', *, *, #217, .T.);
#227 = (
   BOUNDED_SURFACE ()
   B_SPLINE_SURFACE (2, 2, ((#228, #229, #230), (#231, #232, #233), (#234, #235, #236), (#237, #238, #239), (#240, #241, #242), (#243, #244, #245), (#246, #247, #248), (#249, #250, #251), (#252, #253, #254)), .UNSPECIFIED., .T., .F., .U.)
   B_SPLINE_SURFACE_WITH_KNOTS ((3, 2, 2, 2, 3), (3, 3), (0., 0.25, 0.5, 0.75, 1.), (0., 1.), .UNSPECIFIED.)
   GEOMETRIC_REPRESENTATION_ITEM ()
   RATIONAL_B_SPLINE_SURFACE (((1., 0.707106781186548, 1.), (0.707106781186548, 0.5, 0.707106781186548), (1., 0.707106781186548, 1.), (0.707106781186548, 0.5, 0.707106781186548), (1., 0.707106781186548, 1.), (0.707106781186548, 0.5, 0.707106781186548), (1., 0.707106781186548, 1.), (0.707106781186548, 0.5, 0.707106781186548), (1., 0.707106781186548, 1.)))
   REPRESENTATION_ITEM ('')
   SURFACE ()
);
#228 = CARTESIAN_POINT('', (-10., 6.36816335556624E-15, -94.));
#229 = CARTESIAN_POINT('', (-10., 6.98048675513991E-15, -104.));
#230 = CARTESIAN_POINT('', (3.61332703812128E-15, 6.36816335556624E-15, -104.));
#231 = CARTESIAN_POINT('', (-10., 9.99999999999999, -94.));
#232 = CARTESIAN_POINT('', (-10., 9.99999999999999, -104.));
#233 = CARTESIAN_POINT('', (3.61332703812128E-15, 6.36816335556624E-15, -104.));
#234 = CARTESIAN_POINT('', (-1.24344978758018E-14, 9.99999999999999, -94.));
#235 = CARTESIAN_POINT('', (-1.18221744762281E-14, 9.99999999999999, -104.));
#236 = CARTESIAN_POINT('', (3.61332703812128E-15, 6.36816335556624E-15, -104.));
#237 = CARTESIAN_POINT('', (9.99999999999998, 9.99999999999999, -94.));
#238 = CARTESIAN_POINT('', (9.99999999999998, 9.99999999999999, -104.));
#239 = CARTESIAN_POINT('', (3.61332703812128E-15, 6.36816335556624E-15, -104.));
#240 = CARTESIAN_POINT('', (9.99999999999998, 6.36816335556625E-15, -94.));
#241 = CARTESIAN_POINT('', (9.99999999999998, 5.75583995599258E-15, -104.));
#242 = CARTESIAN_POINT('', (3.61332703812128E-15, 6.36816335556624E-15, -104.));
#243 = CARTESIAN_POINT('', (9.99999999999998, -9.99999999999998, -94.));
#244 = CARTESIAN_POINT('', (9.99999999999998, -9.99999999999998, -104.));
#245 = CARTESIAN_POINT('', (3.61332703812128E-15, 6.36816335556624E-15, -104.));
#246 = CARTESIAN_POINT('', (-1.12098510766544E-14, -9.99999999999998, -94.));
#247 = CARTESIAN_POINT('', (-1.18221744762281E-14, -9.99999999999998, -104.));
#248 = CARTESIAN_POINT('', (3.61332703812128E-15, 6.36816335556624E-15, -104.));
#249 = CARTESIAN_POINT('', (-10., -9.99999999999998, -94.));
#250 = CARTESIAN_POINT('', (-10., -9.99999999999998, -104.));
#251 = CARTESIAN_POINT('', (3.61332703812128E-15, 6.36816335556624E-15, -104.));
#252 = CARTESIAN_POINT('', (-10., 6.36816335556624E-15, -94.));
#253 = CARTESIAN_POINT('', (-10., 6.98048675513991E-15, -104.));
#254 = CARTESIAN_POINT('', (3.61332703812128E-15, 6.36816335556624E-15, -104.));
#255 = PRESENTATION_STYLE_ASSIGNMENT((#256));
#256 = SURFACE_STYLE_USAGE(.POSITIVE., #257);
#257 = SURFACE_SIDE_STYLE('', (#258));
#258 = SURFACE_STYLE_FILL_AREA(#259);
#259 = FILL_AREA_STYLE('', (#260));
#260 = FILL_AREA_STYLE_COLOUR('', #261);
#261 = COLOUR_RGB('', 0.8, 0.8, 0.8);
#262 = STYLED_ITEM('', (#255), #155);
#263 = TRIMMED_CURVE('cutting part line', #264, (#269), (#270), .T., .CARTESIAN.);
#264 = CIRCLE('', #265, 10.);
#265 = AXIS2_PLACEMENT_3D('', #266, #267, #268);
#266 = CARTESIAN_POINT('', (-3.68594044175552E-14, 0., -94.));
#267 = DIRECTION('', (0., -1., 0.));
#268 = DIRECTION('', (2.38697950294408E-15, 0., -1.));
#269 = CARTESIAN_POINT('', (-1.29896093881143E-14, 0., -104.));
#270 = CARTESIAN_POINT('', (9.99999999999999, 0., -94.));
#271 = TRIMMED_CURVE('cutting part line', #272, (#276), (#277), .T., .CARTESIAN.);
#272 = LINE('', #273, #274);
#273 = CARTESIAN_POINT('', (10., 6.66032359368612E-16, -94.));
#274 = VECTOR('', #275, 22.);
#275 = DIRECTION('', (0., -6.66032359368612E-16, 22.));
#276 = CARTESIAN_POINT('', (10., 6.66032359368612E-16, -94.));
#277 = CARTESIAN_POINT('', (10., 0., -72.));
#278 = TRIMMED_CURVE('cutting part line', #279, (#283), (#284), .T., .CARTESIAN.);
#279 = LINE('', #280, #281);
#280 = CARTESIAN_POINT('', (10., 0., -72.));
#281 = VECTOR('', #282, 10.);
#282 = DIRECTION('', (-10., 0., 0.));
#283 = CARTESIAN_POINT('', (10., 0., -72.));
#284 = CARTESIAN_POINT('', (-2.77555756156289E-17, 0., -72.));
#285 = TRIMMED_CURVE('cutting part line', #286, (#290), (#291), .T., .CARTESIAN.);
#286 = LINE('', #287, #288);
#287 = CARTESIAN_POINT('', (0., 0., -72.));
#288 = VECTOR('', #289, 32.);
#289 = DIRECTION('', (0., 0., -32.));
#290 = CARTESIAN_POINT('', (0., 0., -72.));
#291 = CARTESIAN_POINT('', (0., 0., -104.));
#292 = COMPOSITE_CURVE('cutting part line', (#293, #294, #295, #296), .U.);
#293 = COMPOSITE_CURVE_SEGMENT(.CONTINUOUS., .T., #263);
#294 = COMPOSITE_CURVE_SEGMENT(.CONTINUOUS., .T., #271);
#295 = COMPOSITE_CURVE_SEGMENT(.CONTINUOUS., .T., #278);
#296 = COMPOSITE_CURVE_SEGMENT(.CONTINUOUS., .T., #285);
#297 = GEOMETRIC_SET('', (#292, #335));
#298 = PRESENTATION_STYLE_ASSIGNMENT((#299));
#299 = CURVE_STYLE('', #301, POSITIVE_LENGTH_MEASURE(1.E-6), #300);
#300 = COLOUR_RGB('', 0., 0., 1.);
#301 = DRAUGHTING_PRE_DEFINED_CURVE_FONT('continuous');
#302 = STYLED_ITEM('', (#298), #292);
#303 = PRESENTATION_STYLE_ASSIGNMENT((#304));
#304 = CURVE_STYLE('', #306, POSITIVE_LENGTH_MEASURE(1.E-6), #305);
#305 = COLOUR_RGB('', 0., 0., 1.);
#306 = DRAUGHTING_PRE_DEFINED_CURVE_FONT('continuous');
#307 = OVER_RIDING_STYLED_ITEM('', (#303), #263, #302);
#308 = PRESENTATION_STYLE_ASSIGNMENT((#309));
#309 = CURVE_STYLE('', #311, POSITIVE_LENGTH_MEASURE(1.E-6), #310);
#310 = COLOUR_RGB('', 0., 0., 1.);
#311 = DRAUGHTING_PRE_DEFINED_CURVE_FONT('continuous');
#312 = OVER_RIDING_STYLED_ITEM('', (#308), #271, #302);
#313 = PRESENTATION_STYLE_ASSIGNMENT((#314));
#314 = CURVE_STYLE('', #316, POSITIVE_LENGTH_MEASURE(1.E-6), #315);
#315 = COLOUR_RGB('', 0., 0., 1.);
#316 = DRAUGHTING_PRE_DEFINED_CURVE_FONT('continuous');
#317 = OVER_RIDING_STYLED_ITEM('', (#313), #278, #302);
#318 = PRESENTATION_STYLE_ASSIGNMENT((#319));
#319 = CURVE_STYLE('', #321, POSITIVE_LENGTH_MEASURE(1.E-6), #320);
#320 = COLOUR_RGB('', 0., 0., 1.);
#321 = DRAUGHTING_PRE_DEFINED_CURVE_FONT('continuous');
#322 = OVER_RIDING_STYLED_ITEM('', (#318), #285, #302);
#323 = AXIS2_PLACEMENT_3D('MCS', #324, #325, #326);
#324 = CARTESIAN_POINT('', (0., 0., -50.));
#325 = DIRECTION('', (0., 0., 1.));
#326 = DIRECTION('', (1., 0., 0.));
#327 = AXIS2_PLACEMENT_3D('PCS', #328, #329, #330);
#328 = CARTESIAN_POINT('', (0., 0., 0.));
#329 = DIRECTION('', (0., 0., 1.));
#330 = DIRECTION('', (1., 0., 0.));
#331 = AXIS2_PLACEMENT_3D('CIP', #332, #333, #334);
#332 = CARTESIAN_POINT('', (0., 0., -104.));
#333 = DIRECTION('', (0., 0., 1.));
#334 = DIRECTION('', (1., 0., 0.));
#335 = CARTESIAN_POINT('CRP', (10., 0., -104.));
#336 = (
   GEOMETRIC_REPRESENTATION_CONTEXT (3)
   GLOBAL_UNCERTAINTY_ASSIGNED_CONTEXT ((#338))
   GLOBAL_UNIT_ASSIGNED_CONTEXT ((#337, #339, #340))
   REPRESENTATION_CONTEXT ('', '3D')
);
#337 = (
   LENGTH_UNIT ()
   NAMED_UNIT (*)
   SI_UNIT (.MILLI., .METRE.)
);
#338 = UNCERTAINTY_MEASURE_WITH_UNIT(LENGTH_MEASURE(1.E-6), #337, 'DISTANCE_ACCURACY_VALUE', '');
#339 = (
   NAMED_UNIT (*)
   SI_UNIT ($, .STERADIAN.)
   SOLID_ANGLE_UNIT ()
);
#340 = (
   NAMED_UNIT (*)
   PLANE_ANGLE_UNIT ()
   SI_UNIT ($, .RADIAN.)
);
#341 = SHAPE_REPRESENTATION('', (), #336);
#342 = PRODUCT_DEFINITION_SHAPE('', '', #343);
#343 = PRODUCT_DEFINITION('', '', #346, #350);
#344 = APPLICATION_CONTEXT('configuration controlled 3D designs of mechanical parts and assemblies');
#345 = APPLICATION_PROTOCOL_DEFINITION('International Standard', 'automotive_design', 2002, #344);
#346 = PRODUCT_DEFINITION_FORMATION_WITH_SPECIFIED_SOURCE('', '', #347, .NOT_KNOWN.);
#347 = PRODUCT('product-name', '1B230-2000-XA       1630', '', (#348));
#348 = PRODUCT_CONTEXT('', #344, 'mechanical');
#349 = PRODUCT_RELATED_PRODUCT_CATEGORY('detail', '', (#347));
#350 = PRODUCT_DEFINITION_CONTEXT('part definition', #344, 'design');
#351 = SHAPE_DEFINITION_REPRESENTATION(#342, #341);
#352 = CONSTRUCTIVE_GEOMETRY_REPRESENTATION('supplemental geometry', (#323, #327, #331), #336);
#353 = CONSTRUCTIVE_GEOMETRY_REPRESENTATION_RELATIONSHIP('', '', #341, #352);
#354 = SHAPE_REPRESENTATION_RELATIONSHIP('', '', #341, #355);
#355 = SHAPE_REPRESENTATION('', (#297), #336);
#356 = SHAPE_REPRESENTATION_RELATIONSHIP('', '', #341, #357);
#357 = ADVANCED_BREP_SHAPE_REPRESENTATION('', (#1, #155), #336);
ENDSEC;
END-ISO-10303-21;
