ISO-10303-21;
HEADER;
FILE_DESCRIPTION(('STEP'), '1');
FILE_NAME('C:\\Users\\ds2002\\OneDrive - Sandvik\\HomeShare\\Documents\\Batchrepair\\CorSRT2\\NEW_MILBN_SLD\\Output2\\MOD000000000000000020082223600000.stp', '2018-11-23T12:39:28', (''), (''), 'Express v3.0.0.0', 'Express Tool', 'Unknown');
FILE_SCHEMA(('AUTOMOTIVE_DESIGN'));
ENDSEC;

DATA;
#1 = MANIFOLD_SOLID_BREP('NOCUT', #2);
#2 = CLOSED_SHELL('', (#3, #50, #89, #128, #137, #176));
#3 = ADVANCED_FACE('', (#4), #31, .T.);
#4 = FACE_OUTER_BOUND('', #5, .T.);
#5 = EDGE_LOOP('', (#6, #16, #23, #24));
#6 = ORIENTED_EDGE('', *, *, #7, .F.);
#7 = EDGE_CURVE('', #8, #10, #12, .T.);
#8 = VERTEX_POINT('', #9);
#9 = CARTESIAN_POINT('', (-1.5, 1.99005104861445E-15, -31.));
#10 = VERTEX_POINT('', #11);
#11 = CARTESIAN_POINT('', (-0.5, 2.03903692058034E-15, -32.8));
#12 = LINE('', #13, #14);
#13 = CARTESIAN_POINT('', (-1.5, 1.99005104861445E-15, -31.));
#14 = VECTOR('', #15, 2.0591260281974);
#15 = DIRECTION('', (1., 4.89858719658899E-17, -1.8));
#16 = ORIENTED_EDGE('', *, *, #17, .T.);
#17 = EDGE_CURVE('', #8, #8, #18, .T.);
#18 = CIRCLE('', #19, 1.5);
#19 = AXIS2_PLACEMENT_3D('', #20, #21, #22);
#20 = CARTESIAN_POINT('', (2.77555756156289E-16, 4.9960036108132E-16, -31.));
#21 = DIRECTION('', (0., 0., -1.));
#22 = DIRECTION('', (-1., 9.93633791688753E-16, 0.));
#23 = ORIENTED_EDGE('', *, *, #7, .T.);
#24 = ORIENTED_EDGE('', *, *, #25, .F.);
#25 = EDGE_CURVE('', #10, #10, #26, .T.);
#26 = CIRCLE('', #27, 0.5);
#27 = AXIS2_PLACEMENT_3D('', #28, #29, #30);
#28 = CARTESIAN_POINT('', (6.93889390390723E-18, 2.02615701994091E-15, -32.8));
#29 = DIRECTION('', (0., 0., -1.));
#30 = DIRECTION('', (-1., 2.57598012788586E-17, 0.));
#31 = (
   BOUNDED_SURFACE ()
   B_SPLINE_SURFACE (2, 1, ((#32, #33), (#34, #35), (#36, #37), (#38, #39), (#40, #41), (#42, #43), (#44, #45), (#46, #47), (#48, #49)), .UNSPECIFIED., .T., .F., .U.)
   B_SPLINE_SURFACE_WITH_KNOTS ((3, 2, 2, 2, 3), (2, 2), (0., 0.25, 0.5, 0.75, 1.), (0., 1.), .UNSPECIFIED.)
   GEOMETRIC_REPRESENTATION_ITEM ()
   RATIONAL_B_SPLINE_SURFACE (((1., 1.), (0.707106781186548, 0.707106781186548), (1., 1.), (0.707106781186548, 0.707106781186548), (1., 1.), (0.707106781186548, 0.707106781186548), (1., 1.), (0.707106781186548, 0.707106781186548), (1., 1.)))
   REPRESENTATION_ITEM ('')
   SURFACE ()
);
#32 = CARTESIAN_POINT('', (-1.5, 1.99005104861445E-15, -31.));
#33 = CARTESIAN_POINT('', (-0.5, 2.52297391578529E-15, -32.8));
#34 = CARTESIAN_POINT('', (-1.5, 1.5, -31.));
#35 = CARTESIAN_POINT('', (-0.5, 0.500000000000003, -32.8));
#36 = CARTESIAN_POINT('', (1.67615793375337E-15, 1.5, -31.));
#37 = CARTESIAN_POINT('', (7.43756482021983E-16, 0.500000000000002, -32.8));
#38 = CARTESIAN_POINT('', (1.5, 1.5, -31.));
#39 = CARTESIAN_POINT('', (0.500000000000001, 0.500000000000002, -32.8));
#40 = CARTESIAN_POINT('', (1.5, -8.07153306579706E-16, -31.));
#41 = CARTESIAN_POINT('', (0.500000000000001, 1.5905724640539E-15, -32.8));
#42 = CARTESIAN_POINT('', (1.5, -1.5, -31.));
#43 = CARTESIAN_POINT('', (0.5, -0.499999999999999, -32.8));
#44 = CARTESIAN_POINT('', (-9.37349401568686E-16, -1.5, -31.));
#45 = CARTESIAN_POINT('', (-1.27412629752034E-16, -0.499999999999998, -32.8));
#46 = CARTESIAN_POINT('', (-1.5, -1.5, -31.));
#47 = CARTESIAN_POINT('', (-0.5, -0.499999999999998, -32.8));
#48 = CARTESIAN_POINT('', (-1.5, 1.99005104861445E-15, -31.));
#49 = CARTESIAN_POINT('', (-0.5, 2.52297391578529E-15, -32.8));
#50 = ADVANCED_FACE('', (#51), #70, .T.);
#51 = FACE_OUTER_BOUND('', #52, .T.);
#52 = EDGE_LOOP('', (#53, #61, #68, #69));
#53 = ORIENTED_EDGE('', *, *, #54, .T.);
#54 = EDGE_CURVE('', #8, #55, #57, .T.);
#55 = VERTEX_POINT('', #56);
#56 = CARTESIAN_POINT('', (-1.5, 1.01033360929657E-16, -0.149999999999999));
#57 = LINE('', #58, #59);
#58 = CARTESIAN_POINT('', (-1.5, 1.99005104861445E-15, -31.));
#59 = VECTOR('', #60, 30.85);
#60 = DIRECTION('', (0., -1.88901768768479E-15, 30.85));
#61 = ORIENTED_EDGE('', *, *, #62, .T.);
#62 = EDGE_CURVE('', #55, #55, #63, .T.);
#63 = CIRCLE('', #64, 1.5);
#64 = AXIS2_PLACEMENT_3D('', #65, #66, #67);
#65 = CARTESIAN_POINT('', (1.52655665885959E-16, -3.60822483003176E-16, -0.149999999999999));
#66 = DIRECTION('', (0., 0., -1.));
#67 = DIRECTION('', (-1., 3.07903895955222E-16, 0.));
#68 = ORIENTED_EDGE('', *, *, #54, .F.);
#69 = ORIENTED_EDGE('', *, *, #17, .F.);
#70 = (
   BOUNDED_SURFACE ()
   B_SPLINE_SURFACE (1, 2, ((#71, #72, #73, #74, #75, #76, #77, #78, #79), (#80, #81, #82, #83, #84, #85, #86, #87, #88)), .UNSPECIFIED., .F., .T., .U.)
   B_SPLINE_SURFACE_WITH_KNOTS ((2, 2), (3, 2, 2, 2, 3), (0., 1.), (0., 2.35619449019235, 4.71238898038469, 7.06858347057704, 9.42477796076938), .UNSPECIFIED.)
   GEOMETRIC_REPRESENTATION_ITEM ()
   RATIONAL_B_SPLINE_SURFACE (((1., 0.707106781186548, 1., 0.707106781186548, 1., 0.707106781186548, 1., 0.707106781186548, 1.), (1., 0.707106781186548, 1., 0.707106781186548, 1., 0.707106781186548, 1., 0.707106781186548, 1.)))
   REPRESENTATION_ITEM ('')
   SURFACE ()
);
#71 = CARTESIAN_POINT('', (-1.5, 1.23901196117044E-15, -31.));
#72 = CARTESIAN_POINT('', (-1.5, 1.5, -31.));
#73 = CARTESIAN_POINT('', (5.22662999882741E-16, 1.5, -31.));
#74 = CARTESIAN_POINT('', (1.5, 1.5, -31.));
#75 = CARTESIAN_POINT('', (1.5, 4.9899729317688E-16, -31.));
#76 = CARTESIAN_POINT('', (1.5, -1.5, -31.));
#77 = CARTESIAN_POINT('', (-3.36546482387188E-17, -1.5, -31.));
#78 = CARTESIAN_POINT('', (-1.5, -1.5, -31.));
#79 = CARTESIAN_POINT('', (-1.5, 1.23901196117044E-15, -31.));
#80 = CARTESIAN_POINT('', (-1.5, 1.01033360929657E-16, -0.149999999999999));
#81 = CARTESIAN_POINT('', (-1.5, 1.5, -0.149999999999999));
#82 = CARTESIAN_POINT('', (5.2266299988274E-16, 1.5, -0.149999999999999));
#83 = CARTESIAN_POINT('', (1.5, 1.5, -0.149999999999999));
#84 = CARTESIAN_POINT('', (1.5, -6.38981307063906E-16, -0.149999999999999));
#85 = CARTESIAN_POINT('', (1.5, -1.5, -0.149999999999999));
#86 = CARTESIAN_POINT('', (-3.36546482387192E-17, -1.5, -0.149999999999999));
#87 = CARTESIAN_POINT('', (-1.5, -1.5, -0.149999999999999));
#88 = CARTESIAN_POINT('', (-1.5, 1.01033360929657E-16, -0.149999999999999));
#89 = ADVANCED_FACE('', (#90), #109, .T.);
#90 = FACE_OUTER_BOUND('', #91, .T.);
#91 = EDGE_LOOP('', (#92, #100, #107, #108));
#92 = ORIENTED_EDGE('', *, *, #93, .T.);
#93 = EDGE_CURVE('', #55, #94, #96, .T.);
#94 = VERTEX_POINT('', #95);
#95 = CARTESIAN_POINT('', (-1.35, 8.26636589424463E-17, 0.));
#96 = LINE('', #97, #98);
#97 = CARTESIAN_POINT('', (-1.5, 1.01033360929657E-16, -0.149999999999999));
#98 = VECTOR('', #99, 0.212132034355963);
#99 = DIRECTION('', (0.15, -1.83697019872107E-17, 0.149999999999999));
#100 = ORIENTED_EDGE('', *, *, #101, .T.);
#101 = EDGE_CURVE('', #94, #94, #102, .T.);
#102 = CIRCLE('', #103, 1.35);
#103 = AXIS2_PLACEMENT_3D('', #104, #105, #106);
#104 = CARTESIAN_POINT('', (4.61436444609831E-16, -6.38378239159465E-16, -7.7875102531819E-16));
#105 = DIRECTION('', (-5.76852611346806E-16, 1.6649441676109E-15, -1.));
#106 = DIRECTION('', (-1., 5.34105109705119E-16, 5.76852611346807E-16));
#107 = ORIENTED_EDGE('', *, *, #93, .F.);
#108 = ORIENTED_EDGE('', *, *, #62, .F.);
#109 = (
   BOUNDED_SURFACE ()
   B_SPLINE_SURFACE (1, 2, ((#110, #111, #112, #113, #114, #115, #116, #117, #118), (#119, #120, #121, #122, #123, #124, #125, #126, #127)), .UNSPECIFIED., .F., .T., .U.)
   B_SPLINE_SURFACE_WITH_KNOTS ((2, 2), (3, 2, 2, 2, 3), (0., 1.), (0., 0.25, 0.5, 0.75, 1.), .UNSPECIFIED.)
   GEOMETRIC_REPRESENTATION_ITEM ()
   RATIONAL_B_SPLINE_SURFACE (((1., 0.707106781186548, 1., 0.707106781186548, 1., 0.707106781186548, 1., 0.707106781186548, 1.), (1., 0.707106781186548, 1., 0.707106781186548, 1., 0.707106781186548, 1., 0.707106781186548, 1.)))
   REPRESENTATION_ITEM ('')
   SURFACE ()
);
#110 = CARTESIAN_POINT('', (-1.5, 7.45646513326421E-16, -0.149999999999998));
#111 = CARTESIAN_POINT('', (-1.5, 1.5, -0.149999999999992));
#112 = CARTESIAN_POINT('', (1.08421770752944E-15, 1.5, -0.149999999999993));
#113 = CARTESIAN_POINT('', (1.5, 1.5, -0.149999999999994));
#114 = CARTESIAN_POINT('', (1.5, -6.72971795916834E-16, -0.15));
#115 = CARTESIAN_POINT('', (1.5, -1.5, -0.150000000000006));
#116 = CARTESIAN_POINT('', (-1.50703581841717E-16, -1.5, -0.150000000000005));
#117 = CARTESIAN_POINT('', (-1.5, -1.5, -0.150000000000004));
#118 = CARTESIAN_POINT('', (-1.5, 7.45646513326421E-16, -0.149999999999998));
#119 = CARTESIAN_POINT('', (-1.35, 8.2663658942446E-17, -2.95822839457879E-31));
#120 = CARTESIAN_POINT('', (-1.35, 1.35, 5.24580379135393E-15));
#121 = CARTESIAN_POINT('', (1.0998146837693E-15, 1.35, 4.46705276603574E-15));
#122 = CARTESIAN_POINT('', (1.35, 1.35, 3.68830174071755E-15));
#123 = CARTESIAN_POINT('', (1.35, -1.19409281937648E-15, -1.55750205063638E-15));
#124 = CARTESIAN_POINT('', (1.35, -1.35, -6.80330584199031E-15));
#125 = CARTESIAN_POINT('', (-1.16144766647444E-17, -1.35, -6.02455481667212E-15));
#126 = CARTESIAN_POINT('', (-1.35, -1.35, -5.24580379135393E-15));
#127 = CARTESIAN_POINT('', (-1.35, 8.2663658942446E-17, -2.95822839457879E-31));
#128 = ADVANCED_FACE('', (#129), #132, .T.);
#129 = FACE_OUTER_BOUND('', #130, .T.);
#130 = EDGE_LOOP('', (#131));
#131 = ORIENTED_EDGE('', *, *, #101, .F.);
#132 = B_SPLINE_SURFACE_WITH_KNOTS('', 1, 1, ((#133, #134), (#135, #136)), .UNSPECIFIED., .F., .F., .U., (2, 2), (2, 2), (0.0454545454545454, 0.954545454545454), (0.0454545454545454, 0.954545454545454), .UNSPECIFIED.);
#133 = CARTESIAN_POINT('', (1.35, -1.35, -8.26636589424464E-17));
#134 = CARTESIAN_POINT('', (-1.35, -1.35, -8.26636589424463E-17));
#135 = CARTESIAN_POINT('', (1.35, 1.35, 8.26636589424463E-17));
#136 = CARTESIAN_POINT('', (-1.35, 1.35, 8.26636589424464E-17));
#137 = ADVANCED_FACE('', (#138), #157, .T.);
#138 = FACE_OUTER_BOUND('', #139, .T.);
#139 = EDGE_LOOP('', (#140, #149, #155, #156));
#140 = ORIENTED_EDGE('', *, *, #141, .F.);
#141 = EDGE_CURVE('', #142, #142, #144, .T.);
#142 = VERTEX_POINT('', #143);
#143 = CARTESIAN_POINT('', (-0.5, 2.17374806848655E-15, -35.));
#144 = CIRCLE('', #145, 0.5);
#145 = AXIS2_PLACEMENT_3D('', #146, #147, #148);
#146 = CARTESIAN_POINT('', (6.93889390390723E-17, 1.9151347174784E-15, -35.));
#147 = DIRECTION('', (0., 0., -1.));
#148 = DIRECTION('', (-1., 5.1722670201631E-16, 0.));
#149 = ORIENTED_EDGE('', *, *, #150, .F.);
#150 = EDGE_CURVE('', #10, #142, #151, .T.);
#151 = LINE('', #152, #153);
#152 = CARTESIAN_POINT('', (-0.5, 2.03903692058034E-15, -32.8));
#153 = VECTOR('', #154, 2.2);
#154 = DIRECTION('', (0., 1.3471114790621E-16, -2.2));
#155 = ORIENTED_EDGE('', *, *, #25, .T.);
#156 = ORIENTED_EDGE('', *, *, #150, .T.);
#157 = (
   BOUNDED_SURFACE ()
   B_SPLINE_SURFACE (2, 1, ((#158, #159), (#160, #161), (#162, #163), (#164, #165), (#166, #167), (#168, #169), (#170, #171), (#172, #173), (#174, #175)), .UNSPECIFIED., .T., .F., .U.)
   B_SPLINE_SURFACE_WITH_KNOTS ((3, 2, 2, 2, 3), (2, 2), (0., 0.785398163397448, 1.5707963267949, 2.35619449019234, 3.14159265358979), (0., 0.468085106382979), .UNSPECIFIED.)
   GEOMETRIC_REPRESENTATION_ITEM ()
   RATIONAL_B_SPLINE_SURFACE (((1., 1.), (0.707106781186548, 0.707106781186548), (1., 1.), (0.707106781186548, 0.707106781186548), (1., 1.), (0.707106781186548, 0.707106781186548), (1., 1.), (0.707106781186548, 0.707106781186548), (1., 1.)))
   REPRESENTATION_ITEM ('')
   SURFACE ()
);
#158 = CARTESIAN_POINT('', (-0.5, 2.03903692058034E-15, -32.8));
#159 = CARTESIAN_POINT('', (-0.5, 2.15005922304286E-15, -35.));
#160 = CARTESIAN_POINT('', (-0.5, 0.500000000000002, -32.8));
#161 = CARTESIAN_POINT('', (-0.5, 0.500000000000002, -35.));
#162 = CARTESIAN_POINT('', (3.69107065803573E-16, 0.500000000000002, -32.8));
#163 = CARTESIAN_POINT('', (3.69107065803573E-16, 0.500000000000002, -35.));
#164 = CARTESIAN_POINT('', (0.5, 0.500000000000002, -32.8));
#165 = CARTESIAN_POINT('', (0.5, 0.500000000000002, -35.));
#166 = CARTESIAN_POINT('', (0.5, 1.60266467379316E-15, -32.8));
#167 = CARTESIAN_POINT('', (0.5, 1.71368697625567E-15, -35.));
#168 = CARTESIAN_POINT('', (0.5, -0.499999999999998, -32.8));
#169 = CARTESIAN_POINT('', (0.5, -0.499999999999998, -35.));
#170 = CARTESIAN_POINT('', (-6.03284102624138E-18, -0.499999999999998, -32.8));
#171 = CARTESIAN_POINT('', (-6.03284102624128E-18, -0.499999999999998, -35.));
#172 = CARTESIAN_POINT('', (-0.5, -0.499999999999998, -32.8));
#173 = CARTESIAN_POINT('', (-0.5, -0.499999999999998, -35.));
#174 = CARTESIAN_POINT('', (-0.5, 2.03903692058034E-15, -32.8));
#175 = CARTESIAN_POINT('', (-0.5, 2.15005922304286E-15, -35.));
#176 = ADVANCED_FACE('', (#177), #180, .T.);
#177 = FACE_OUTER_BOUND('', #178, .T.);
#178 = EDGE_LOOP('', (#179));
#179 = ORIENTED_EDGE('', *, *, #141, .T.);
#180 = B_SPLINE_SURFACE_WITH_KNOTS('', 1, 1, ((#181, #182), (#183, #184)), .UNSPECIFIED., .F., .F., .U., (2, 2), (2, 2), (0.50997956479925, 0.523056208089078), (0.476943791910922, 0.49002043520075), .UNSPECIFIED.);
#181 = CARTESIAN_POINT('', (-0.500000000000007, 0.500000000000014, -35.));
#182 = CARTESIAN_POINT('', (-0.500000000000007, -0.499999999999993, -35.));
#183 = CARTESIAN_POINT('', (0.499999999999993, 0.500000000000014, -35.));
#184 = CARTESIAN_POINT('', (0.499999999999993, -0.499999999999993, -35.));
#185 = DRAUGHTING_MODEL('', (#193, #301, #341, #346, #351, #356, #361), #375);
#186 = PRESENTATION_STYLE_ASSIGNMENT((#187));
#187 = SURFACE_STYLE_USAGE(.POSITIVE., #188);
#188 = SURFACE_SIDE_STYLE('', (#189));
#189 = SURFACE_STYLE_FILL_AREA(#190);
#190 = FILL_AREA_STYLE('', (#191));
#191 = FILL_AREA_STYLE_COLOUR('', #192);
#192 = COLOUR_RGB('', 0.50196078431373, 0.50196078431373, 0.50196078431373);
#193 = STYLED_ITEM('', (#186), #1);
#194 = MANIFOLD_SOLID_BREP('CUT', #195);
#195 = CLOSED_SHELL('', (#196, #213, #252));
#196 = ADVANCED_FACE('', (#197), #208, .T.);
#197 = FACE_OUTER_BOUND('', #198, .T.);
#198 = EDGE_LOOP('', (#199));
#199 = ORIENTED_EDGE('', *, *, #200, .F.);
#200 = EDGE_CURVE('', #201, #201, #203, .T.);
#201 = VERTEX_POINT('', #202);
#202 = CARTESIAN_POINT('', (-0.5, 2.17374806848655E-15, -35.));
#203 = CIRCLE('', #204, 0.5);
#204 = AXIS2_PLACEMENT_3D('', #205, #206, #207);
#205 = CARTESIAN_POINT('', (6.93889390390723E-17, 1.9151347174784E-15, -35.));
#206 = DIRECTION('', (0., 0., -1.));
#207 = DIRECTION('', (-1., 5.1722670201631E-16, 0.));
#208 = B_SPLINE_SURFACE_WITH_KNOTS('', 1, 1, ((#209, #210), (#211, #212)), .UNSPECIFIED., .F., .F., .U., (2, 2), (2, 2), (0.476943791910922, 0.49002043520075), (0.50997956479925, 0.523056208089078), .UNSPECIFIED.);
#209 = CARTESIAN_POINT('', (-0.499999999999993, 0.5, -35.));
#210 = CARTESIAN_POINT('', (0.5, 0.5, -35.));
#211 = CARTESIAN_POINT('', (-0.499999999999993, -0.5, -35.));
#212 = CARTESIAN_POINT('', (0.5, -0.5, -35.));
#213 = ADVANCED_FACE('', (#214), #233, .T.);
#214 = FACE_OUTER_BOUND('', #215, .T.);
#215 = EDGE_LOOP('', (#216, #217, #225, #232));
#216 = ORIENTED_EDGE('', *, *, #200, .T.);
#217 = ORIENTED_EDGE('', *, *, #218, .T.);
#218 = EDGE_CURVE('', #201, #219, #221, .T.);
#219 = VERTEX_POINT('', #220);
#220 = CARTESIAN_POINT('', (-0.5, 2.32682891837997E-15, -37.5));
#221 = LINE('', #222, #223);
#222 = CARTESIAN_POINT('', (-0.5, 2.17374806848655E-15, -35.));
#223 = VECTOR('', #224, 2.5);
#224 = DIRECTION('', (0., 1.5308084989342E-16, -2.5));
#225 = ORIENTED_EDGE('', *, *, #226, .F.);
#226 = EDGE_CURVE('', #219, #219, #227, .T.);
#227 = CIRCLE('', #228, 0.5);
#228 = AXIS2_PLACEMENT_3D('', #229, #230, #231);
#229 = CARTESIAN_POINT('', (5.55111512312578E-17, 1.85962356624714E-15, -37.5));
#230 = DIRECTION('', (0., 0., -1.));
#231 = DIRECTION('', (-1., 9.34410704265666E-16, 0.));
#232 = ORIENTED_EDGE('', *, *, #218, .F.);
#233 = (
   BOUNDED_SURFACE ()
   B_SPLINE_SURFACE (2, 1, ((#234, #235), (#236, #237), (#238, #239), (#240, #241), (#242, #243), (#244, #245), (#246, #247), (#248, #249), (#250, #251)), .UNSPECIFIED., .T., .F., .U.)
   B_SPLINE_SURFACE_WITH_KNOTS ((3, 2, 2, 2, 3), (2, 2), (0., 0.785398163397448, 1.5707963267949, 2.35619449019234, 3.14159265358979), (0.468085106382979, 1.), .UNSPECIFIED.)
   GEOMETRIC_REPRESENTATION_ITEM ()
   RATIONAL_B_SPLINE_SURFACE (((1., 1.), (0.707106781186548, 0.707106781186548), (1., 1.), (0.707106781186548, 0.707106781186548), (1., 1.), (0.707106781186548, 0.707106781186548), (1., 1.), (0.707106781186548, 0.707106781186548), (1., 1.)))
   REPRESENTATION_ITEM ('')
   SURFACE ()
);
#234 = CARTESIAN_POINT('', (-0.5, 2.17374806848655E-15, -35.));
#235 = CARTESIAN_POINT('', (-0.5, 2.13211470506311E-15, -37.5));
#236 = CARTESIAN_POINT('', (-0.5, 0.500000000000002, -35.));
#237 = CARTESIAN_POINT('', (-0.5, 0.500000000000002, -37.5));
#238 = CARTESIAN_POINT('', (2.76569438356822E-16, 0.500000000000002, -35.));
#239 = CARTESIAN_POINT('', (2.76569438356822E-16, 0.500000000000002, -37.5));
#240 = CARTESIAN_POINT('', (0.5, 0.500000000000002, -35.));
#241 = CARTESIAN_POINT('', (0.5, 0.500000000000002, -37.5));
#242 = CARTESIAN_POINT('', (0.5, 1.68999813081198E-15, -35.));
#243 = CARTESIAN_POINT('', (0.5, 1.64836476738854E-15, -37.5));
#244 = CARTESIAN_POINT('', (0.5, -0.499999999999998, -35.));
#245 = CARTESIAN_POINT('', (0.5, -0.499999999999998, -37.5));
#246 = CARTESIAN_POINT('', (-1.45948159360382E-16, -0.499999999999998, -35.));
#247 = CARTESIAN_POINT('', (-1.45948159360382E-16, -0.499999999999998, -37.5));
#248 = CARTESIAN_POINT('', (-0.5, -0.499999999999998, -35.));
#249 = CARTESIAN_POINT('', (-0.5, -0.499999999999998, -37.5));
#250 = CARTESIAN_POINT('', (-0.5, 2.17374806848655E-15, -35.));
#251 = CARTESIAN_POINT('', (-0.5, 2.13211470506311E-15, -37.5));
#252 = ADVANCED_FACE('', (#253), #266, .T.);
#253 = FACE_OUTER_BOUND('', #254, .T.);
#254 = EDGE_LOOP('', (#255, #264, #265));
#255 = ORIENTED_EDGE('', *, *, #256, .F.);
#256 = EDGE_CURVE('', #219, #257, #259, .T.);
#257 = VERTEX_POINT('', #258);
#258 = CARTESIAN_POINT('', (1.47359661167309E-16, 2.32682891837997E-15, -38.));
#259 = CIRCLE('', #260, 0.49999999999999);
#260 = AXIS2_PLACEMENT_3D('', #261, #262, #263);
#261 = CARTESIAN_POINT('', (-7.71605002114484E-15, 2.29621274840129E-15, -37.5));
#262 = DIRECTION('', (-6.12323399573599E-17, -1., -6.12323399573599E-17));
#263 = DIRECTION('', (-1., 6.12323399573591E-17, 1.42108547152022E-14));
#264 = ORIENTED_EDGE('', *, *, #226, .T.);
#265 = ORIENTED_EDGE('', *, *, #256, .T.);
#266 = (
   BOUNDED_SURFACE ()
   B_SPLINE_SURFACE (2, 2, ((#267, #268, #269), (#270, #271, #272), (#273, #274, #275), (#276, #277, #278), (#279, #280, #281), (#282, #283, #284), (#285, #286, #287), (#288, #289, #290), (#291, #292, #293)), .UNSPECIFIED., .T., .F., .U.)
   B_SPLINE_SURFACE_WITH_KNOTS ((3, 2, 2, 2, 3), (3, 3), (0., 0.25, 0.5, 0.75, 1.), (0., 1.), .UNSPECIFIED.)
   GEOMETRIC_REPRESENTATION_ITEM ()
   RATIONAL_B_SPLINE_SURFACE (((1., 0.707106781186548, 1.), (0.707106781186548, 0.5, 0.707106781186548), (1., 0.707106781186548, 1.), (0.707106781186548, 0.5, 0.707106781186548), (1., 0.707106781186548, 1.), (0.707106781186548, 0.5, 0.707106781186548), (1., 0.707106781186548, 1.), (0.707106781186548, 0.5, 0.707106781186548), (1., 0.707106781186548, 1.)))
   REPRESENTATION_ITEM ('')
   SURFACE ()
);
#267 = CARTESIAN_POINT('', (-0.5, 2.32682891837997E-15, -37.5));
#268 = CARTESIAN_POINT('', (-0.5, 2.35744508835865E-15, -38.));
#269 = CARTESIAN_POINT('', (1.47359661167309E-16, 2.32682891837997E-15, -38.));
#270 = CARTESIAN_POINT('', (-0.5, 0.499999999999995, -37.5));
#271 = CARTESIAN_POINT('', (-0.5, 0.499999999999995, -38.));
#272 = CARTESIAN_POINT('', (1.47359661167309E-16, 2.32682891837997E-15, -38.));
#273 = CARTESIAN_POINT('', (-7.71605002114484E-15, 0.499999999999995, -37.5));
#274 = CARTESIAN_POINT('', (-7.68543385116616E-15, 0.499999999999995, -38.));
#275 = CARTESIAN_POINT('', (1.47359661167309E-16, 2.32682891837997E-15, -38.));
#276 = CARTESIAN_POINT('', (0.499999999999985, 0.499999999999995, -37.5));
#277 = CARTESIAN_POINT('', (0.499999999999985, 0.499999999999995, -38.));
#278 = CARTESIAN_POINT('', (1.47359661167309E-16, 2.32682891837997E-15, -38.));
#279 = CARTESIAN_POINT('', (0.499999999999985, 2.32682891837998E-15, -37.5));
#280 = CARTESIAN_POINT('', (0.499999999999985, 2.2962127484013E-15, -38.));
#281 = CARTESIAN_POINT('', (1.47359661167309E-16, 2.32682891837997E-15, -38.));
#282 = CARTESIAN_POINT('', (0.499999999999985, -0.49999999999999, -37.5));
#283 = CARTESIAN_POINT('', (0.499999999999985, -0.49999999999999, -38.));
#284 = CARTESIAN_POINT('', (1.47359661167309E-16, 2.32682891837997E-15, -38.));
#285 = CARTESIAN_POINT('', (-7.65481768118747E-15, -0.49999999999999, -37.5));
#286 = CARTESIAN_POINT('', (-7.68543385116615E-15, -0.49999999999999, -38.));
#287 = CARTESIAN_POINT('', (1.47359661167309E-16, 2.32682891837997E-15, -38.));
#288 = CARTESIAN_POINT('', (-0.5, -0.49999999999999, -37.5));
#289 = CARTESIAN_POINT('', (-0.5, -0.49999999999999, -38.));
#290 = CARTESIAN_POINT('', (1.47359661167309E-16, 2.32682891837997E-15, -38.));
#291 = CARTESIAN_POINT('', (-0.5, 2.32682891837997E-15, -37.5));
#292 = CARTESIAN_POINT('', (-0.5, 2.35744508835865E-15, -38.));
#293 = CARTESIAN_POINT('', (1.47359661167309E-16, 2.32682891837997E-15, -38.));
#294 = PRESENTATION_STYLE_ASSIGNMENT((#295));
#295 = SURFACE_STYLE_USAGE(.POSITIVE., #296);
#296 = SURFACE_SIDE_STYLE('', (#297));
#297 = SURFACE_STYLE_FILL_AREA(#298);
#298 = FILL_AREA_STYLE('', (#299));
#299 = FILL_AREA_STYLE_COLOUR('', #300);
#300 = COLOUR_RGB('', 0.8, 0.8, 0.8);
#301 = STYLED_ITEM('', (#294), #194);
#302 = TRIMMED_CURVE('cutting part line', #303, (#308), (#309), .T., .CARTESIAN.);
#303 = CIRCLE('', #304, 0.499999999999991);
#304 = AXIS2_PLACEMENT_3D('', #305, #306, #307);
#305 = CARTESIAN_POINT('', (-7.82707232360735E-15, 0., -37.5));
#306 = DIRECTION('', (0., -1., 0.));
#307 = DIRECTION('', (1.72778458207292E-15, 0., -1.));
#308 = CARTESIAN_POINT('', (-6.96318003257091E-15, 0., -38.));
#309 = CARTESIAN_POINT('', (0.499999999999984, 0., -37.5));
#310 = TRIMMED_CURVE('cutting part line', #311, (#315), (#316), .T., .CARTESIAN.);
#311 = LINE('', #312, #313);
#312 = CARTESIAN_POINT('', (0.5, -4.16270224605382E-17, -37.5));
#313 = VECTOR('', #314, 2.50000000029005);
#314 = DIRECTION('', (3.80820109828761E-5, 4.16270224605382E-17, 2.5));
#315 = CARTESIAN_POINT('', (0.5, -4.16270224605382E-17, -37.5));
#316 = CARTESIAN_POINT('', (0.500038082010983, 0., -35.));
#317 = TRIMMED_CURVE('cutting part line', #318, (#322), (#323), .T., .CARTESIAN.);
#318 = LINE('', #319, #320);
#319 = CARTESIAN_POINT('', (0.500038082010983, 0., -35.));
#320 = VECTOR('', #321, 0.500038082010983);
#321 = DIRECTION('', (-0.500038082010983, 0., 0.));
#322 = CARTESIAN_POINT('', (0.500038082010983, 0., -35.));
#323 = CARTESIAN_POINT('', (1.73472347597681E-18, 0., -35.));
#324 = TRIMMED_CURVE('cutting part line', #325, (#329), (#330), .T., .CARTESIAN.);
#325 = LINE('', #326, #327);
#326 = CARTESIAN_POINT('', (0., 0., -35.));
#327 = VECTOR('', #328, 3.);
#328 = DIRECTION('', (0., 0., -3.));
#329 = CARTESIAN_POINT('', (0., 0., -35.));
#330 = CARTESIAN_POINT('', (0., 0., -38.));
#331 = COMPOSITE_CURVE('cutting part line', (#332, #333, #334, #335), .U.);
#332 = COMPOSITE_CURVE_SEGMENT(.CONTINUOUS., .T., #302);
#333 = COMPOSITE_CURVE_SEGMENT(.CONTINUOUS., .T., #310);
#334 = COMPOSITE_CURVE_SEGMENT(.CONTINUOUS., .T., #317);
#335 = COMPOSITE_CURVE_SEGMENT(.CONTINUOUS., .T., #324);
#336 = GEOMETRIC_SET('', (#331, #374));
#337 = PRESENTATION_STYLE_ASSIGNMENT((#338));
#338 = CURVE_STYLE('', #340, POSITIVE_LENGTH_MEASURE(1.E-6), #339);
#339 = COLOUR_RGB('', 0., 0., 1.);
#340 = DRAUGHTING_PRE_DEFINED_CURVE_FONT('continuous');
#341 = STYLED_ITEM('', (#337), #331);
#342 = PRESENTATION_STYLE_ASSIGNMENT((#343));
#343 = CURVE_STYLE('', #345, POSITIVE_LENGTH_MEASURE(1.E-6), #344);
#344 = COLOUR_RGB('', 0., 0., 1.);
#345 = DRAUGHTING_PRE_DEFINED_CURVE_FONT('continuous');
#346 = OVER_RIDING_STYLED_ITEM('', (#342), #302, #341);
#347 = PRESENTATION_STYLE_ASSIGNMENT((#348));
#348 = CURVE_STYLE('', #350, POSITIVE_LENGTH_MEASURE(1.E-6), #349);
#349 = COLOUR_RGB('', 0., 0., 1.);
#350 = DRAUGHTING_PRE_DEFINED_CURVE_FONT('continuous');
#351 = OVER_RIDING_STYLED_ITEM('', (#347), #310, #341);
#352 = PRESENTATION_STYLE_ASSIGNMENT((#353));
#353 = CURVE_STYLE('', #355, POSITIVE_LENGTH_MEASURE(1.E-6), #354);
#354 = COLOUR_RGB('', 0., 0., 1.);
#355 = DRAUGHTING_PRE_DEFINED_CURVE_FONT('continuous');
#356 = OVER_RIDING_STYLED_ITEM('', (#352), #317, #341);
#357 = PRESENTATION_STYLE_ASSIGNMENT((#358));
#358 = CURVE_STYLE('', #360, POSITIVE_LENGTH_MEASURE(1.E-6), #359);
#359 = COLOUR_RGB('', 0., 0., 1.);
#360 = DRAUGHTING_PRE_DEFINED_CURVE_FONT('continuous');
#361 = OVER_RIDING_STYLED_ITEM('', (#357), #324, #341);
#362 = AXIS2_PLACEMENT_3D('MCS', #363, #364, #365);
#363 = CARTESIAN_POINT('', (0., 0., -28.));
#364 = DIRECTION('', (0., 0., 1.));
#365 = DIRECTION('', (1., 0., 0.));
#366 = AXIS2_PLACEMENT_3D('PCS', #367, #368, #369);
#367 = CARTESIAN_POINT('', (0., 0., 0.));
#368 = DIRECTION('', (0., 0., 1.));
#369 = DIRECTION('', (1., 0., 0.));
#370 = AXIS2_PLACEMENT_3D('CIP', #371, #372, #373);
#371 = CARTESIAN_POINT('', (0., 0., -38.));
#372 = DIRECTION('', (0., 0., 1.));
#373 = DIRECTION('', (1., 0., 0.));
#374 = CARTESIAN_POINT('CRP', (0.500038082010983, 0., -38.));
#375 = (
   GEOMETRIC_REPRESENTATION_CONTEXT (3)
   GLOBAL_UNCERTAINTY_ASSIGNED_CONTEXT ((#377))
   GLOBAL_UNIT_ASSIGNED_CONTEXT ((#376, #378, #379))
   REPRESENTATION_CONTEXT ('', '3D')
);
#376 = (
   LENGTH_UNIT ()
   NAMED_UNIT (*)
   SI_UNIT (.MILLI., .METRE.)
);
#377 = UNCERTAINTY_MEASURE_WITH_UNIT(LENGTH_MEASURE(1.E-6), #376, 'DISTANCE_ACCURACY_VALUE', '');
#378 = (
   NAMED_UNIT (*)
   SI_UNIT ($, .STERADIAN.)
   SOLID_ANGLE_UNIT ()
);
#379 = (
   NAMED_UNIT (*)
   PLANE_ANGLE_UNIT ()
   SI_UNIT ($, .RADIAN.)
);
#380 = SHAPE_REPRESENTATION('', (), #375);
#381 = PRODUCT_DEFINITION_SHAPE('', '', #382);
#382 = PRODUCT_DEFINITION('', '', #385, #389);
#383 = APPLICATION_CONTEXT('configuration controlled 3D designs of mechanical parts and assemblies');
#384 = APPLICATION_PROTOCOL_DEFINITION('International Standard', 'automotive_design', 2002, #383);
#385 = PRODUCT_DEFINITION_FORMATION_WITH_SPECIFIED_SOURCE('', '', #386, .NOT_KNOWN.);
#386 = PRODUCT('product-name', '1B230-0100-XA       1630', '', (#387));
#387 = PRODUCT_CONTEXT('', #383, 'mechanical');
#388 = PRODUCT_RELATED_PRODUCT_CATEGORY('detail', '', (#386));
#389 = PRODUCT_DEFINITION_CONTEXT('part definition', #383, 'design');
#390 = SHAPE_DEFINITION_REPRESENTATION(#381, #380);
#391 = CONSTRUCTIVE_GEOMETRY_REPRESENTATION('supplemental geometry', (#362, #366, #370), #375);
#392 = CONSTRUCTIVE_GEOMETRY_REPRESENTATION_RELATIONSHIP('', '', #380, #391);
#393 = SHAPE_REPRESENTATION_RELATIONSHIP('', '', #380, #394);
#394 = SHAPE_REPRESENTATION('', (#336), #375);
#395 = SHAPE_REPRESENTATION_RELATIONSHIP('', '', #380, #396);
#396 = ADVANCED_BREP_SHAPE_REPRESENTATION('', (#1, #194), #375);
ENDSEC;
END-ISO-10303-21;
