ISO-10303-21;
HEADER;
/* Generated by software containing ST-Developer
 * from STEP Tools, Inc. (www.steptools.com) 
 */
/* OPTION: using custom schema-name function */

FILE_DESCRIPTION(
/* description */ ('3-D model version:1'),
/* implementation_level */ '2;1');

FILE_NAME(
/* name */ '162-120Q27-60',
/* time_stamp */ '2014-06-27T16:16:20+02:00',
/* author */ ('InteractiveCad'),
/* organization */ ('AB Sandvik Coromant'),
/* preprocessor_version */ 'ST-DEVELOPER v11',
/* originating_system */ 'SIEMENS UGS NX 6.0',
/* authorisation */ '');

FILE_SCHEMA (('AP203_CONFIGURATION_CONTROLLED_3D_DESIGN_OF_MECHANICAL_PARTS_AND_ASSEMBLIES_MIM_LF'));
ENDSEC;

DATA;
#10=SHAPE_REPRESENTATION_RELATIONSHIP('None',
'relationship between 162_120Q27_60_SIM-None and 162_120Q27_60_SIM-None',
#94,#11);
#11=ADVANCED_BREP_SHAPE_REPRESENTATION('162_120Q27_60_SIM-None',(#112,#113),
#427);
#12=CC_DESIGN_APPROVAL(#24,(#82));
#13=CC_DESIGN_APPROVAL(#25,(#84));
#14=CC_DESIGN_APPROVAL(#26,(#31));
#15=APPROVAL_PERSON_ORGANIZATION(#69,#24,#18);
#16=APPROVAL_PERSON_ORGANIZATION(#70,#25,#19);
#17=APPROVAL_PERSON_ORGANIZATION(#71,#26,#20);
#18=APPROVAL_ROLE('approver');
#19=APPROVAL_ROLE('approver');
#20=APPROVAL_ROLE('approver');
#21=APPROVAL_DATE_TIME(#39,#24);
#22=APPROVAL_DATE_TIME(#40,#25);
#23=APPROVAL_DATE_TIME(#41,#26);
#24=APPROVAL(#27,' ');
#25=APPROVAL(#28,' ');
#26=APPROVAL(#29,' ');
#27=APPROVAL_STATUS('not_yet_approved');
#28=APPROVAL_STATUS('not_yet_approved');
#29=APPROVAL_STATUS('not_yet_approved');
#30=CC_DESIGN_SECURITY_CLASSIFICATION(#31,(#84));
#31=SECURITY_CLASSIFICATION(' ',' ',#32);
#32=SECURITY_CLASSIFICATION_LEVEL('confidential');
#33=CC_DESIGN_DATE_AND_TIME_ASSIGNMENT(#37,#35,(#82));
#34=CC_DESIGN_DATE_AND_TIME_ASSIGNMENT(#38,#36,(#31));
#35=DATE_TIME_ROLE('creation_date');
#36=DATE_TIME_ROLE('classification_date');
#37=DATE_AND_TIME(#52,#42);
#38=DATE_AND_TIME(#53,#43);
#39=DATE_AND_TIME(#54,#44);
#40=DATE_AND_TIME(#55,#45);
#41=DATE_AND_TIME(#56,#46);
#42=LOCAL_TIME(0,0,0.,#47);
#43=LOCAL_TIME(0,0,0.,#48);
#44=LOCAL_TIME(0,0,0.,#49);
#45=LOCAL_TIME(0,0,0.,#50);
#46=LOCAL_TIME(0,0,0.,#51);
#47=COORDINATED_UNIVERSAL_TIME_OFFSET(0,0,.BEHIND.);
#48=COORDINATED_UNIVERSAL_TIME_OFFSET(0,0,.BEHIND.);
#49=COORDINATED_UNIVERSAL_TIME_OFFSET(0,0,.BEHIND.);
#50=COORDINATED_UNIVERSAL_TIME_OFFSET(0,0,.BEHIND.);
#51=COORDINATED_UNIVERSAL_TIME_OFFSET(0,0,.BEHIND.);
#52=CALENDAR_DATE(0,1,1);
#53=CALENDAR_DATE(0,1,1);
#54=CALENDAR_DATE(0,1,1);
#55=CALENDAR_DATE(0,1,1);
#56=CALENDAR_DATE(0,1,1);
#57=CC_DESIGN_PERSON_AND_ORGANIZATION_ASSIGNMENT(#65,#61,(#82,#84));
#58=CC_DESIGN_PERSON_AND_ORGANIZATION_ASSIGNMENT(#66,#62,(#86));
#59=CC_DESIGN_PERSON_AND_ORGANIZATION_ASSIGNMENT(#67,#63,(#84));
#60=CC_DESIGN_PERSON_AND_ORGANIZATION_ASSIGNMENT(#68,#64,(#31));
#61=PERSON_AND_ORGANIZATION_ROLE('creator');
#62=PERSON_AND_ORGANIZATION_ROLE('design_owner');
#63=PERSON_AND_ORGANIZATION_ROLE('design_supplier');
#64=PERSON_AND_ORGANIZATION_ROLE('classification_officer');
#65=PERSON_AND_ORGANIZATION(#79,#72);
#66=PERSON_AND_ORGANIZATION(#79,#73);
#67=PERSON_AND_ORGANIZATION(#79,#74);
#68=PERSON_AND_ORGANIZATION(#79,#75);
#69=PERSON_AND_ORGANIZATION(#79,#76);
#70=PERSON_AND_ORGANIZATION(#79,#77);
#71=PERSON_AND_ORGANIZATION(#79,#78);
#72=ORGANIZATION(' ',' ',' ');
#73=ORGANIZATION(' ',' ',' ');
#74=ORGANIZATION(' ',' ',' ');
#75=ORGANIZATION(' ',' ',' ');
#76=ORGANIZATION(' ',' ',' ');
#77=ORGANIZATION(' ',' ',' ');
#78=ORGANIZATION(' ',' ',' ');
#79=PERSON(' ',' ',' ',(' '),$,$);
#80=SHAPE_DEFINITION_REPRESENTATION(#81,#94);
#81=PRODUCT_DEFINITION_SHAPE('','',#82);
#82=PRODUCT_DEFINITION(' ','',#84,#83);
#83=DESIGN_CONTEXT('',#93,'design');
#84=PRODUCT_DEFINITION_FORMATION_WITH_SPECIFIED_SOURCE(' ',' ',#86,.NOT_KNOWN.);
#85=PRODUCT_RELATED_PRODUCT_CATEGORY('detail','',(#86));
#86=PRODUCT('162_120Q27_60_SIM','162_120Q27_60_SIM',' ',(#91));
#87=PRODUCT_CATEGORY_RELATIONSHIP(' ',' ',#89,#90);
#88=PRODUCT_CATEGORY_RELATIONSHIP('','',#90,#85);
#89=PRODUCT_CATEGORY('part',' ');
#90=PRODUCT_CATEGORY(' ','');
#91=MECHANICAL_CONTEXT(' ',#93,'mechanical');
#92=APPLICATION_PROTOCOL_DEFINITION('international standard',
'config_control_design',1994,#93);
#93=APPLICATION_CONTEXT(
'configuration controlled 3D designs of mechanical parts and assemblies');
#94=SHAPE_REPRESENTATION('162_120Q27_60_SIM-None',(#283),#427);
#95=PRESENTATION_LAYER_ASSIGNMENT('1','Layer 1',(#112,#113));
#96=STYLED_ITEM('',(#98),#112);
#97=STYLED_ITEM('',(#99),#113);
#98=PRESENTATION_STYLE_ASSIGNMENT((#100));
#99=PRESENTATION_STYLE_ASSIGNMENT((#101));
#100=SURFACE_STYLE_USAGE(.BOTH.,#102);
#101=SURFACE_STYLE_USAGE(.BOTH.,#103);
#102=SURFACE_SIDE_STYLE('',(#104));
#103=SURFACE_SIDE_STYLE('',(#105));
#104=SURFACE_STYLE_FILL_AREA(#106);
#105=SURFACE_STYLE_FILL_AREA(#107);
#106=FILL_AREA_STYLE('',(#108));
#107=FILL_AREA_STYLE('',(#109));
#108=FILL_AREA_STYLE_COLOUR('',#110);
#109=FILL_AREA_STYLE_COLOUR('',#111);
#110=COLOUR_RGB('TLS_NOCUT',0.499992370489052,0.499992370489052,0.499992370489052);
#111=COLOUR_RGB('TLS_CUT',0.8,0.8,0.8);
#112=MANIFOLD_SOLID_BREP('',#114);
#113=MANIFOLD_SOLID_BREP('',#115);
#114=CLOSED_SHELL('',(#157,#158,#159,#160,#161,#162,#163,#164));
#115=CLOSED_SHELL('',(#165,#166,#167,#168,#169,#170,#171,#172));
#116=TOROIDAL_SURFACE('',#296,27.4,2.4);
#117=TOROIDAL_SURFACE('',#297,58.9825466914682,0.4);
#118=TOROIDAL_SURFACE('',#298,58.4213959029059,0.4);
#119=TOROIDAL_SURFACE('',#307,58.8,1.2);
#120=TOROIDAL_SURFACE('',#311,58.0185944378691,1.2);
#121=CONICAL_SURFACE('',#290,25.,49.9999999999999);
#122=CONICAL_SURFACE('',#293,59.454217772813,20.);
#123=CONICAL_SURFACE('',#301,35.8858277861946,20.0000000000003);
#124=CONICAL_SURFACE('',#303,40.9018610061946,69.9999999999998);
#125=CONICAL_SURFACE('',#305,48.2314634483247,50.);
#126=CONICAL_SURFACE('',#309,59.9276311449431,20.);
#127=CONICAL_SURFACE('',#314,43.2154302283248,69.9999999999997);
#128=CYLINDRICAL_SURFACE('',#287,25.);
#129=FACE_BOUND('',#179,.T.);
#130=FACE_BOUND('',#180,.T.);
#131=FACE_BOUND('',#181,.T.);
#132=FACE_BOUND('',#182,.T.);
#133=FACE_BOUND('',#183,.T.);
#134=FACE_BOUND('',#184,.T.);
#135=FACE_BOUND('',#186,.T.);
#136=FACE_BOUND('',#187,.T.);
#137=FACE_BOUND('',#188,.T.);
#138=FACE_BOUND('',#189,.T.);
#139=FACE_BOUND('',#190,.T.);
#140=FACE_BOUND('',#191,.T.);
#141=FACE_BOUND('',#192,.T.);
#142=FACE_BOUND('',#193,.T.);
#143=FACE_BOUND('',#194,.T.);
#144=FACE_BOUND('',#195,.T.);
#145=FACE_BOUND('',#196,.T.);
#146=FACE_BOUND('',#197,.T.);
#147=FACE_BOUND('',#198,.T.);
#148=FACE_BOUND('',#199,.T.);
#149=FACE_BOUND('',#200,.T.);
#150=FACE_BOUND('',#201,.T.);
#151=FACE_BOUND('',#202,.T.);
#152=FACE_BOUND('',#203,.T.);
#153=FACE_BOUND('',#204,.T.);
#154=FACE_BOUND('',#205,.T.);
#155=FACE_BOUND('',#206,.T.);
#156=FACE_BOUND('',#207,.T.);
#157=ADVANCED_FACE('',(#176),#173,.T.);
#158=ADVANCED_FACE('',(#129,#130),#128,.T.);
#159=ADVANCED_FACE('',(#131,#132),#121,.T.);
#160=ADVANCED_FACE('',(#133,#134),#122,.T.);
#161=ADVANCED_FACE('',(#177),#174,.T.);
#162=ADVANCED_FACE('',(#135,#136),#116,.F.);
#163=ADVANCED_FACE('',(#137,#138),#117,.T.);
#164=ADVANCED_FACE('',(#139,#140),#118,.T.);
#165=ADVANCED_FACE('',(#141,#142),#123,.F.);
#166=ADVANCED_FACE('',(#143,#144),#124,.T.);
#167=ADVANCED_FACE('',(#145,#146),#125,.T.);
#168=ADVANCED_FACE('',(#147,#148),#119,.T.);
#169=ADVANCED_FACE('',(#149,#150),#126,.T.);
#170=ADVANCED_FACE('',(#151,#152),#120,.T.);
#171=ADVANCED_FACE('',(#153,#154),#175,.F.);
#172=ADVANCED_FACE('',(#155,#156),#127,.F.);
#173=PLANE('',#285);
#174=PLANE('',#295);
#175=PLANE('',#313);
#176=FACE_OUTER_BOUND('',#178,.T.);
#177=FACE_OUTER_BOUND('',#185,.T.);
#178=EDGE_LOOP('',(#208));
#179=EDGE_LOOP('',(#209));
#180=EDGE_LOOP('',(#210));
#181=EDGE_LOOP('',(#211));
#182=EDGE_LOOP('',(#212));
#183=EDGE_LOOP('',(#213));
#184=EDGE_LOOP('',(#214));
#185=EDGE_LOOP('',(#215));
#186=EDGE_LOOP('',(#216));
#187=EDGE_LOOP('',(#217));
#188=EDGE_LOOP('',(#218));
#189=EDGE_LOOP('',(#219));
#190=EDGE_LOOP('',(#220));
#191=EDGE_LOOP('',(#221));
#192=EDGE_LOOP('',(#222));
#193=EDGE_LOOP('',(#223));
#194=EDGE_LOOP('',(#224));
#195=EDGE_LOOP('',(#225));
#196=EDGE_LOOP('',(#226));
#197=EDGE_LOOP('',(#227));
#198=EDGE_LOOP('',(#228));
#199=EDGE_LOOP('',(#229));
#200=EDGE_LOOP('',(#230));
#201=EDGE_LOOP('',(#231));
#202=EDGE_LOOP('',(#232));
#203=EDGE_LOOP('',(#233));
#204=EDGE_LOOP('',(#234));
#205=EDGE_LOOP('',(#235));
#206=EDGE_LOOP('',(#236));
#207=EDGE_LOOP('',(#237));
#208=ORIENTED_EDGE('',*,*,#253,.T.);
#209=ORIENTED_EDGE('',*,*,#254,.T.);
#210=ORIENTED_EDGE('',*,*,#253,.F.);
#211=ORIENTED_EDGE('',*,*,#255,.T.);
#212=ORIENTED_EDGE('',*,*,#256,.T.);
#213=ORIENTED_EDGE('',*,*,#257,.T.);
#214=ORIENTED_EDGE('',*,*,#258,.T.);
#215=ORIENTED_EDGE('',*,*,#259,.T.);
#216=ORIENTED_EDGE('',*,*,#256,.F.);
#217=ORIENTED_EDGE('',*,*,#254,.F.);
#218=ORIENTED_EDGE('',*,*,#257,.F.);
#219=ORIENTED_EDGE('',*,*,#255,.F.);
#220=ORIENTED_EDGE('',*,*,#259,.F.);
#221=ORIENTED_EDGE('',*,*,#258,.F.);
#222=ORIENTED_EDGE('',*,*,#260,.F.);
#223=ORIENTED_EDGE('',*,*,#261,.T.);
#224=ORIENTED_EDGE('',*,*,#262,.F.);
#225=ORIENTED_EDGE('',*,*,#260,.T.);
#226=ORIENTED_EDGE('',*,*,#263,.F.);
#227=ORIENTED_EDGE('',*,*,#262,.T.);
#228=ORIENTED_EDGE('',*,*,#264,.F.);
#229=ORIENTED_EDGE('',*,*,#263,.T.);
#230=ORIENTED_EDGE('',*,*,#265,.F.);
#231=ORIENTED_EDGE('',*,*,#264,.T.);
#232=ORIENTED_EDGE('',*,*,#266,.F.);
#233=ORIENTED_EDGE('',*,*,#265,.T.);
#234=ORIENTED_EDGE('',*,*,#267,.F.);
#235=ORIENTED_EDGE('',*,*,#266,.T.);
#236=ORIENTED_EDGE('',*,*,#261,.F.);
#237=ORIENTED_EDGE('',*,*,#267,.T.);
#238=VERTEX_POINT('',#381);
#239=VERTEX_POINT('',#384);
#240=VERTEX_POINT('',#387);
#241=VERTEX_POINT('',#389);
#242=VERTEX_POINT('',#392);
#243=VERTEX_POINT('',#394);
#244=VERTEX_POINT('',#397);
#245=VERTEX_POINT('',#403);
#246=VERTEX_POINT('',#405);
#247=VERTEX_POINT('',#408);
#248=VERTEX_POINT('',#411);
#249=VERTEX_POINT('',#414);
#250=VERTEX_POINT('',#417);
#251=VERTEX_POINT('',#420);
#252=VERTEX_POINT('',#423);
#253=EDGE_CURVE('',#238,#238,#268,.T.);
#254=EDGE_CURVE('',#239,#239,#269,.T.);
#255=EDGE_CURVE('',#240,#240,#270,.T.);
#256=EDGE_CURVE('',#241,#241,#271,.T.);
#257=EDGE_CURVE('',#242,#242,#272,.T.);
#258=EDGE_CURVE('',#243,#243,#273,.T.);
#259=EDGE_CURVE('',#244,#244,#274,.T.);
#260=EDGE_CURVE('',#245,#245,#275,.T.);
#261=EDGE_CURVE('',#246,#246,#276,.T.);
#262=EDGE_CURVE('',#247,#247,#277,.T.);
#263=EDGE_CURVE('',#248,#248,#278,.T.);
#264=EDGE_CURVE('',#249,#249,#279,.T.);
#265=EDGE_CURVE('',#250,#250,#280,.T.);
#266=EDGE_CURVE('',#251,#251,#281,.T.);
#267=EDGE_CURVE('',#252,#252,#282,.T.);
#268=CIRCLE('',#284,25.);
#269=CIRCLE('',#286,25.);
#270=CIRCLE('',#288,59.2396617353428);
#271=CIRCLE('',#289,25.8573097367523);
#272=CIRCLE('',#291,59.3584237397826);
#273=CIRCLE('',#292,58.7972729512203);
#274=CIRCLE('',#294,58.4213959029059);
#275=CIRCLE('',#299,40.9018610061946);
#276=CIRCLE('',#300,35.8858277861946);
#277=CIRCLE('',#302,48.2314634483247);
#278=CIRCLE('',#304,59.5713451316238);
#279=CIRCLE('',#306,59.9276311449431);
#280=CIRCLE('',#308,59.1462255828122);
#281=CIRCLE('',#310,58.0185944378691);
#282=CIRCLE('',#312,43.2154302283248);
#283=AXIS2_PLACEMENT_3D('',#379,#315,#316);
#284=AXIS2_PLACEMENT_3D('',#380,#317,#318);
#285=AXIS2_PLACEMENT_3D('',#382,#319,#320);
#286=AXIS2_PLACEMENT_3D('',#383,#321,#322);
#287=AXIS2_PLACEMENT_3D('',#385,#323,#324);
#288=AXIS2_PLACEMENT_3D('',#386,#325,#326);
#289=AXIS2_PLACEMENT_3D('',#388,#327,#328);
#290=AXIS2_PLACEMENT_3D('',#390,#329,#330);
#291=AXIS2_PLACEMENT_3D('',#391,#331,#332);
#292=AXIS2_PLACEMENT_3D('',#393,#333,#334);
#293=AXIS2_PLACEMENT_3D('',#395,#335,#336);
#294=AXIS2_PLACEMENT_3D('',#396,#337,#338);
#295=AXIS2_PLACEMENT_3D('',#398,#339,#340);
#296=AXIS2_PLACEMENT_3D('',#399,#341,#342);
#297=AXIS2_PLACEMENT_3D('',#400,#343,#344);
#298=AXIS2_PLACEMENT_3D('',#401,#345,#346);
#299=AXIS2_PLACEMENT_3D('',#402,#347,#348);
#300=AXIS2_PLACEMENT_3D('',#404,#349,#350);
#301=AXIS2_PLACEMENT_3D('',#406,#351,#352);
#302=AXIS2_PLACEMENT_3D('',#407,#353,#354);
#303=AXIS2_PLACEMENT_3D('',#409,#355,#356);
#304=AXIS2_PLACEMENT_3D('',#410,#357,#358);
#305=AXIS2_PLACEMENT_3D('',#412,#359,#360);
#306=AXIS2_PLACEMENT_3D('',#413,#361,#362);
#307=AXIS2_PLACEMENT_3D('',#415,#363,#364);
#308=AXIS2_PLACEMENT_3D('',#416,#365,#366);
#309=AXIS2_PLACEMENT_3D('',#418,#367,#368);
#310=AXIS2_PLACEMENT_3D('',#419,#369,#370);
#311=AXIS2_PLACEMENT_3D('',#421,#371,#372);
#312=AXIS2_PLACEMENT_3D('',#422,#373,#374);
#313=AXIS2_PLACEMENT_3D('',#424,#375,#376);
#314=AXIS2_PLACEMENT_3D('',#425,#377,#378);
#315=DIRECTION('',(0.,0.,1.));
#316=DIRECTION('',(1.,0.,0.));
#317=DIRECTION('',(0.,0.,1.));
#318=DIRECTION('',(-1.,0.,0.));
#319=DIRECTION('',(0.,0.,1.));
#320=DIRECTION('',(-1.,0.,0.));
#321=DIRECTION('',(0.,0.,1.));
#322=DIRECTION('',(-1.,0.,0.));
#323=DIRECTION('',(0.,0.,1.));
#324=DIRECTION('',(-1.,0.,0.));
#325=DIRECTION('',(0.,0.,1.));
#326=DIRECTION('',(-1.,0.,0.));
#327=DIRECTION('',(0.,0.,-1.));
#328=DIRECTION('',(1.,0.,0.));
#329=DIRECTION('',(0.,0.,-1.));
#330=DIRECTION('',(1.,0.,2.85139651369881E-018));
#331=DIRECTION('',(0.,0.,-1.));
#332=DIRECTION('',(1.,0.,0.));
#333=DIRECTION('',(0.,0.,1.));
#334=DIRECTION('',(1.,0.,0.));
#335=DIRECTION('',(0.,0.,1.));
#336=DIRECTION('',(-1.,0.,3.27751213728577E-017));
#337=DIRECTION('',(0.,0.,-1.));
#338=DIRECTION('',(1.,0.,0.));
#339=DIRECTION('',(0.,0.,-1.));
#340=DIRECTION('',(1.,0.,0.));
#341=DIRECTION('',(0.,0.,1.));
#342=DIRECTION('',(-1.,0.,0.));
#343=DIRECTION('',(0.,0.,-1.));
#344=DIRECTION('',(1.,0.,0.));
#345=DIRECTION('',(0.,0.,-1.));
#346=DIRECTION('',(1.,0.,0.));
#347=DIRECTION('',(0.,0.,-1.));
#348=DIRECTION('',(-1.,0.,0.));
#349=DIRECTION('',(0.,0.,-1.));
#350=DIRECTION('',(-1.,0.,0.));
#351=DIRECTION('',(0.,0.,1.));
#352=DIRECTION('',(1.,0.,-8.67673966013034E-017));
#353=DIRECTION('',(0.,0.,-1.));
#354=DIRECTION('',(-1.,0.,0.));
#355=DIRECTION('',(0.,0.,-1.));
#356=DIRECTION('',(-1.,0.,1.24425216334999E-017));
#357=DIRECTION('',(0.,0.,-1.));
#358=DIRECTION('',(-1.,0.,0.));
#359=DIRECTION('',(0.,0.,-1.));
#360=DIRECTION('',(-1.,0.,-2.79797481029852E-017));
#361=DIRECTION('',(0.,0.,-1.));
#362=DIRECTION('',(-1.,0.,0.));
#363=DIRECTION('',(0.,0.,-1.));
#364=DIRECTION('',(-1.,0.,0.));
#365=DIRECTION('',(0.,0.,-1.));
#366=DIRECTION('',(-1.,0.,0.));
#367=DIRECTION('',(0.,0.,1.));
#368=DIRECTION('',(1.,0.,-9.82155533693536E-017));
#369=DIRECTION('',(0.,0.,-1.));
#370=DIRECTION('',(-1.,0.,0.));
#371=DIRECTION('',(0.,0.,-1.));
#372=DIRECTION('',(-1.,0.,0.));
#373=DIRECTION('',(0.,0.,-1.));
#374=DIRECTION('',(-1.,0.,0.));
#375=DIRECTION('',(0.,0.,1.));
#376=DIRECTION('',(1.,0.,0.));
#377=DIRECTION('',(0.,0.,-1.));
#378=DIRECTION('',(-1.,0.,2.23779715285618E-017));
#379=CARTESIAN_POINT('',(0.,0.,0.));
#380=CARTESIAN_POINT('',(0.,0.,0.));
#381=CARTESIAN_POINT('',(-25.,0.,0.));
#382=CARTESIAN_POINT('',(0.,0.,0.));
#383=CARTESIAN_POINT('',(0.,0.,-17.9022071889351));
#384=CARTESIAN_POINT('',(-25.,0.,-17.9022071889351));
#385=CARTESIAN_POINT('',(0.,0.,0.));
#386=CARTESIAN_POINT('',(0.,0.,-47.7518331022682));
#387=CARTESIAN_POINT('',(-59.2396617353428,0.,-47.7518331022682));
#388=CARTESIAN_POINT('',(0.,0.,-19.7407138524206));
#389=CARTESIAN_POINT('',(25.8573097367523,0.,-19.7407138524206));
#390=CARTESIAN_POINT('',(0.,0.,-19.0213455685071));
#391=CARTESIAN_POINT('',(0.,0.,-48.195058936846));
#392=CARTESIAN_POINT('',(59.3584237397826,0.,-48.195058936846));
#393=CARTESIAN_POINT('',(0.,0.,-49.7368080573302));
#394=CARTESIAN_POINT('',(58.7972729512203,0.,-49.7368080573302));
#395=CARTESIAN_POINT('',(0.,0.,-47.9318669941763));
#396=CARTESIAN_POINT('',(0.,0.,-50.));
#397=CARTESIAN_POINT('',(58.4213959029059,0.,-50.));
#398=CARTESIAN_POINT('',(28.0293485243098,0.,-50.));
#399=CARTESIAN_POINT('',(0.,0.,-17.9022071889351));
#400=CARTESIAN_POINT('',(0.,0.,-48.0582508795158));
#401=CARTESIAN_POINT('',(0.,0.,-49.6));
#402=CARTESIAN_POINT('',(0.,0.,-34.5508048748758));
#403=CARTESIAN_POINT('',(-40.9018610061946,0.,-34.5508048748758));
#404=CARTESIAN_POINT('',(0.,0.,-48.3322428820598));
#405=CARTESIAN_POINT('',(-35.8858277861946,0.,-48.3322428820598));
#406=CARTESIAN_POINT('',(0.,0.,-48.3322428820598));
#407=CARTESIAN_POINT('',(0.,0.,-37.218561992816));
#408=CARTESIAN_POINT('',(-48.2314634483247,0.,-37.218561992816));
#409=CARTESIAN_POINT('',(0.,0.,-34.5508048748758));
#410=CARTESIAN_POINT('',(0.,0.,-46.7338525308663));
#411=CARTESIAN_POINT('',(-59.5713451316238,0.,-46.7338525308663));
#412=CARTESIAN_POINT('',(0.,0.,-37.218561992816));
#413=CARTESIAN_POINT('',(0.,0.,-48.0635300345998));
#414=CARTESIAN_POINT('',(-59.9276311449431,0.,-48.0635300345998));
#415=CARTESIAN_POINT('',(0.,0.,-47.653105862609));
#416=CARTESIAN_POINT('',(0.,0.,-50.2104241719908));
#417=CARTESIAN_POINT('',(-59.1462255828122,0.,-50.2104241719908));
#418=CARTESIAN_POINT('',(0.,0.,-48.0635300345998));
#419=CARTESIAN_POINT('',(0.,0.,-51.));
#420=CARTESIAN_POINT('',(-58.0185944378691,0.,-51.));
#421=CARTESIAN_POINT('',(0.,0.,-49.8));
#422=CARTESIAN_POINT('',(0.,0.,-51.));
#423=CARTESIAN_POINT('',(-43.2154302283248,0.,-51.));
#424=CARTESIAN_POINT('',(-58.0185944378691,0.,-51.));
#425=CARTESIAN_POINT('',(0.,0.,-51.));
#426=MECHANICAL_DESIGN_GEOMETRIC_PRESENTATION_REPRESENTATION('',(#96,#97),
#427);
#427=(
GEOMETRIC_REPRESENTATION_CONTEXT(3)
GLOBAL_UNCERTAINTY_ASSIGNED_CONTEXT((#428))
GLOBAL_UNIT_ASSIGNED_CONTEXT((#434,#430,#429))
REPRESENTATION_CONTEXT('162_120Q27_60_SIM','TOP_LEVEL_ASSEMBLY_PART')
);
#428=UNCERTAINTY_MEASURE_WITH_UNIT(LENGTH_MEASURE(2.E-005),#434,
'DISTANCE_ACCURACY_VALUE','Maximum Tolerance applied to model');
#429=(
NAMED_UNIT(*)
SI_UNIT($,.STERADIAN.)
SOLID_ANGLE_UNIT()
);
#430=(
CONVERSION_BASED_UNIT('DEGREE',#432)
NAMED_UNIT(#431)
PLANE_ANGLE_UNIT()
);
#431=DIMENSIONAL_EXPONENTS(0.,0.,0.,0.,0.,0.,0.);
#432=PLANE_ANGLE_MEASURE_WITH_UNIT(PLANE_ANGLE_MEASURE(0.0174532925),#433);
#433=(
NAMED_UNIT(*)
PLANE_ANGLE_UNIT()
SI_UNIT($,.RADIAN.)
);
#434=(
LENGTH_UNIT()
NAMED_UNIT(*)
SI_UNIT(.MILLI.,.METRE.)
);
ENDSEC;
END-ISO-10303-21;
