ISO-10303-21;
HEADER;
/* Generated by software containing ST-Developer
 * from STEP Tools, Inc. (www.steptools.com) 
 */
/* OPTION: using custom schema-name function */

FILE_DESCRIPTION(
/* description */ ('3-D model version:1'),
/* implementation_level */ '2;1');

FILE_NAME(
/* name */ '161-080Q27-3',
/* time_stamp */ '2014-04-10T15:49:32+02:00',
/* author */ ('InteractiveCad'),
/* organization */ ('AB Sandvik Coromant'),
/* preprocessor_version */ 'ST-DEVELOPER v11',
/* originating_system */ 'SIEMENS UGS NX 6.0',
/* authorisation */ '');

FILE_SCHEMA (('AP203_CONFIGURATION_CONTROLLED_3D_DESIGN_OF_MECHANICAL_PARTS_AND_ASSEMBLIES_MIM_LF'));
ENDSEC;

DATA;
#10=SHAPE_REPRESENTATION_RELATIONSHIP('None',
'relationship between 161_080Q27_3_SIM-None and 161_080Q27_3_SIM-None',#94,
#11);
#11=ADVANCED_BREP_SHAPE_REPRESENTATION('161_080Q27_3_SIM-None',(#112,#113),
#367);
#12=CC_DESIGN_APPROVAL(#24,(#82));
#13=CC_DESIGN_APPROVAL(#25,(#84));
#14=CC_DESIGN_APPROVAL(#26,(#31));
#15=APPROVAL_PERSON_ORGANIZATION(#69,#24,#18);
#16=APPROVAL_PERSON_ORGANIZATION(#70,#25,#19);
#17=APPROVAL_PERSON_ORGANIZATION(#71,#26,#20);
#18=APPROVAL_ROLE('approver');
#19=APPROVAL_ROLE('approver');
#20=APPROVAL_ROLE('approver');
#21=APPROVAL_DATE_TIME(#39,#24);
#22=APPROVAL_DATE_TIME(#40,#25);
#23=APPROVAL_DATE_TIME(#41,#26);
#24=APPROVAL(#27,' ');
#25=APPROVAL(#28,' ');
#26=APPROVAL(#29,' ');
#27=APPROVAL_STATUS('not_yet_approved');
#28=APPROVAL_STATUS('not_yet_approved');
#29=APPROVAL_STATUS('not_yet_approved');
#30=CC_DESIGN_SECURITY_CLASSIFICATION(#31,(#84));
#31=SECURITY_CLASSIFICATION(' ',' ',#32);
#32=SECURITY_CLASSIFICATION_LEVEL('confidential');
#33=CC_DESIGN_DATE_AND_TIME_ASSIGNMENT(#37,#35,(#82));
#34=CC_DESIGN_DATE_AND_TIME_ASSIGNMENT(#38,#36,(#31));
#35=DATE_TIME_ROLE('creation_date');
#36=DATE_TIME_ROLE('classification_date');
#37=DATE_AND_TIME(#52,#42);
#38=DATE_AND_TIME(#53,#43);
#39=DATE_AND_TIME(#54,#44);
#40=DATE_AND_TIME(#55,#45);
#41=DATE_AND_TIME(#56,#46);
#42=LOCAL_TIME(0,0,0.,#47);
#43=LOCAL_TIME(0,0,0.,#48);
#44=LOCAL_TIME(0,0,0.,#49);
#45=LOCAL_TIME(0,0,0.,#50);
#46=LOCAL_TIME(0,0,0.,#51);
#47=COORDINATED_UNIVERSAL_TIME_OFFSET(0,0,.BEHIND.);
#48=COORDINATED_UNIVERSAL_TIME_OFFSET(0,0,.BEHIND.);
#49=COORDINATED_UNIVERSAL_TIME_OFFSET(0,0,.BEHIND.);
#50=COORDINATED_UNIVERSAL_TIME_OFFSET(0,0,.BEHIND.);
#51=COORDINATED_UNIVERSAL_TIME_OFFSET(0,0,.BEHIND.);
#52=CALENDAR_DATE(0,1,1);
#53=CALENDAR_DATE(0,1,1);
#54=CALENDAR_DATE(0,1,1);
#55=CALENDAR_DATE(0,1,1);
#56=CALENDAR_DATE(0,1,1);
#57=CC_DESIGN_PERSON_AND_ORGANIZATION_ASSIGNMENT(#65,#61,(#82,#84));
#58=CC_DESIGN_PERSON_AND_ORGANIZATION_ASSIGNMENT(#66,#62,(#86));
#59=CC_DESIGN_PERSON_AND_ORGANIZATION_ASSIGNMENT(#67,#63,(#84));
#60=CC_DESIGN_PERSON_AND_ORGANIZATION_ASSIGNMENT(#68,#64,(#31));
#61=PERSON_AND_ORGANIZATION_ROLE('creator');
#62=PERSON_AND_ORGANIZATION_ROLE('design_owner');
#63=PERSON_AND_ORGANIZATION_ROLE('design_supplier');
#64=PERSON_AND_ORGANIZATION_ROLE('classification_officer');
#65=PERSON_AND_ORGANIZATION(#79,#72);
#66=PERSON_AND_ORGANIZATION(#79,#73);
#67=PERSON_AND_ORGANIZATION(#79,#74);
#68=PERSON_AND_ORGANIZATION(#79,#75);
#69=PERSON_AND_ORGANIZATION(#79,#76);
#70=PERSON_AND_ORGANIZATION(#79,#77);
#71=PERSON_AND_ORGANIZATION(#79,#78);
#72=ORGANIZATION(' ',' ',' ');
#73=ORGANIZATION(' ',' ',' ');
#74=ORGANIZATION(' ',' ',' ');
#75=ORGANIZATION(' ',' ',' ');
#76=ORGANIZATION(' ',' ',' ');
#77=ORGANIZATION(' ',' ',' ');
#78=ORGANIZATION(' ',' ',' ');
#79=PERSON(' ',' ',' ',(' '),$,$);
#80=SHAPE_DEFINITION_REPRESENTATION(#81,#94);
#81=PRODUCT_DEFINITION_SHAPE('','',#82);
#82=PRODUCT_DEFINITION(' ','',#84,#83);
#83=DESIGN_CONTEXT('',#93,'design');
#84=PRODUCT_DEFINITION_FORMATION_WITH_SPECIFIED_SOURCE(' ',' ',#86,.NOT_KNOWN.);
#85=PRODUCT_RELATED_PRODUCT_CATEGORY('detail','',(#86));
#86=PRODUCT('161_080Q27_3_SIM','161_080Q27_3_SIM',' ',(#91));
#87=PRODUCT_CATEGORY_RELATIONSHIP(' ',' ',#89,#90);
#88=PRODUCT_CATEGORY_RELATIONSHIP('','',#90,#85);
#89=PRODUCT_CATEGORY('part',' ');
#90=PRODUCT_CATEGORY(' ','');
#91=MECHANICAL_CONTEXT(' ',#93,'mechanical');
#92=APPLICATION_PROTOCOL_DEFINITION('international standard',
'config_control_design',1994,#93);
#93=APPLICATION_CONTEXT(
'configuration controlled 3D designs of mechanical parts and assemblies');
#94=SHAPE_REPRESENTATION('161_080Q27_3_SIM-None',(#250),#367);
#95=PRESENTATION_LAYER_ASSIGNMENT('1','Layer 1',(#112,#113));
#96=STYLED_ITEM('',(#98),#112);
#97=STYLED_ITEM('',(#99),#113);
#98=PRESENTATION_STYLE_ASSIGNMENT((#100));
#99=PRESENTATION_STYLE_ASSIGNMENT((#101));
#100=SURFACE_STYLE_USAGE(.BOTH.,#102);
#101=SURFACE_STYLE_USAGE(.BOTH.,#103);
#102=SURFACE_SIDE_STYLE('',(#104));
#103=SURFACE_SIDE_STYLE('',(#105));
#104=SURFACE_STYLE_FILL_AREA(#106);
#105=SURFACE_STYLE_FILL_AREA(#107);
#106=FILL_AREA_STYLE('',(#108));
#107=FILL_AREA_STYLE('',(#109));
#108=FILL_AREA_STYLE_COLOUR('',#110);
#109=FILL_AREA_STYLE_COLOUR('',#111);
#110=COLOUR_RGB('TLS_NOCUT',0.499992370489052,0.499992370489052,0.499992370489052);
#111=COLOUR_RGB('TLS_CUT',0.8,0.8,0.8);
#112=MANIFOLD_SOLID_BREP('',#114);
#113=MANIFOLD_SOLID_BREP('',#115);
#114=CLOSED_SHELL('',(#148,#149,#150,#151,#152,#153,#154,#155,#156));
#115=CLOSED_SHELL('',(#157,#158,#159,#160));
#116=TOROIDAL_SURFACE('',#265,26.8,0.8);
#117=TOROIDAL_SURFACE('',#267,33.6,0.4);
#118=CONICAL_SURFACE('',#262,31.5,46.7714697400341);
#119=CONICAL_SURFACE('',#266,26.,44.9999999999999);
#120=CONICAL_SURFACE('',#272,40.,89.);
#121=CONICAL_SURFACE('',#275,15.3,89.);
#122=CYLINDRICAL_SURFACE('',#257,26.);
#123=CYLINDRICAL_SURFACE('',#264,34.);
#124=CYLINDRICAL_SURFACE('',#270,40.);
#125=CYLINDRICAL_SURFACE('',#274,15.3);
#126=FACE_BOUND('',#168,.T.);
#127=FACE_BOUND('',#169,.T.);
#128=FACE_BOUND('',#170,.T.);
#129=FACE_BOUND('',#171,.T.);
#130=FACE_BOUND('',#172,.T.);
#131=FACE_BOUND('',#173,.T.);
#132=FACE_BOUND('',#174,.T.);
#133=FACE_BOUND('',#175,.T.);
#134=FACE_BOUND('',#176,.T.);
#135=FACE_BOUND('',#177,.T.);
#136=FACE_BOUND('',#178,.T.);
#137=FACE_BOUND('',#179,.T.);
#138=FACE_BOUND('',#180,.T.);
#139=FACE_BOUND('',#181,.T.);
#140=FACE_BOUND('',#182,.T.);
#141=FACE_BOUND('',#183,.T.);
#142=FACE_BOUND('',#184,.T.);
#143=FACE_BOUND('',#185,.T.);
#144=FACE_BOUND('',#186,.T.);
#145=FACE_BOUND('',#187,.T.);
#146=FACE_BOUND('',#188,.T.);
#147=FACE_BOUND('',#189,.T.);
#148=ADVANCED_FACE('',(#164),#161,.F.);
#149=ADVANCED_FACE('',(#165),#162,.F.);
#150=ADVANCED_FACE('',(#126,#127),#122,.T.);
#151=ADVANCED_FACE('',(#128,#129),#163,.F.);
#152=ADVANCED_FACE('',(#130,#131),#118,.T.);
#153=ADVANCED_FACE('',(#132,#133),#123,.T.);
#154=ADVANCED_FACE('',(#134,#135),#116,.F.);
#155=ADVANCED_FACE('',(#136,#137),#119,.T.);
#156=ADVANCED_FACE('',(#138,#139),#117,.T.);
#157=ADVANCED_FACE('',(#140,#141),#124,.T.);
#158=ADVANCED_FACE('',(#142,#143),#120,.F.);
#159=ADVANCED_FACE('',(#144,#145),#125,.F.);
#160=ADVANCED_FACE('',(#146,#147),#121,.F.);
#161=PLANE('',#252);
#162=PLANE('',#254);
#163=PLANE('',#260);
#164=FACE_OUTER_BOUND('',#166,.T.);
#165=FACE_OUTER_BOUND('',#167,.T.);
#166=EDGE_LOOP('',(#190));
#167=EDGE_LOOP('',(#191));
#168=EDGE_LOOP('',(#192));
#169=EDGE_LOOP('',(#193));
#170=EDGE_LOOP('',(#194));
#171=EDGE_LOOP('',(#195));
#172=EDGE_LOOP('',(#196));
#173=EDGE_LOOP('',(#197));
#174=EDGE_LOOP('',(#198));
#175=EDGE_LOOP('',(#199));
#176=EDGE_LOOP('',(#200));
#177=EDGE_LOOP('',(#201));
#178=EDGE_LOOP('',(#202));
#179=EDGE_LOOP('',(#203));
#180=EDGE_LOOP('',(#204));
#181=EDGE_LOOP('',(#205));
#182=EDGE_LOOP('',(#206));
#183=EDGE_LOOP('',(#207));
#184=EDGE_LOOP('',(#208));
#185=EDGE_LOOP('',(#209));
#186=EDGE_LOOP('',(#210));
#187=EDGE_LOOP('',(#211));
#188=EDGE_LOOP('',(#212));
#189=EDGE_LOOP('',(#213));
#190=ORIENTED_EDGE('',*,*,#226,.T.);
#191=ORIENTED_EDGE('',*,*,#227,.T.);
#192=ORIENTED_EDGE('',*,*,#228,.T.);
#193=ORIENTED_EDGE('',*,*,#229,.T.);
#194=ORIENTED_EDGE('',*,*,#230,.T.);
#195=ORIENTED_EDGE('',*,*,#231,.F.);
#196=ORIENTED_EDGE('',*,*,#232,.F.);
#197=ORIENTED_EDGE('',*,*,#231,.T.);
#198=ORIENTED_EDGE('',*,*,#233,.T.);
#199=ORIENTED_EDGE('',*,*,#232,.T.);
#200=ORIENTED_EDGE('',*,*,#229,.F.);
#201=ORIENTED_EDGE('',*,*,#230,.F.);
#202=ORIENTED_EDGE('',*,*,#227,.F.);
#203=ORIENTED_EDGE('',*,*,#228,.F.);
#204=ORIENTED_EDGE('',*,*,#233,.F.);
#205=ORIENTED_EDGE('',*,*,#226,.F.);
#206=ORIENTED_EDGE('',*,*,#234,.F.);
#207=ORIENTED_EDGE('',*,*,#235,.T.);
#208=ORIENTED_EDGE('',*,*,#236,.F.);
#209=ORIENTED_EDGE('',*,*,#234,.T.);
#210=ORIENTED_EDGE('',*,*,#237,.F.);
#211=ORIENTED_EDGE('',*,*,#236,.T.);
#212=ORIENTED_EDGE('',*,*,#235,.F.);
#213=ORIENTED_EDGE('',*,*,#237,.T.);
#214=VERTEX_POINT('',#330);
#215=VERTEX_POINT('',#333);
#216=VERTEX_POINT('',#336);
#217=VERTEX_POINT('',#338);
#218=VERTEX_POINT('',#341);
#219=VERTEX_POINT('',#343);
#220=VERTEX_POINT('',#346);
#221=VERTEX_POINT('',#349);
#222=VERTEX_POINT('',#355);
#223=VERTEX_POINT('',#357);
#224=VERTEX_POINT('',#360);
#225=VERTEX_POINT('',#363);
#226=EDGE_CURVE('',#214,#214,#238,.T.);
#227=EDGE_CURVE('',#215,#215,#239,.T.);
#228=EDGE_CURVE('',#216,#216,#240,.T.);
#229=EDGE_CURVE('',#217,#217,#241,.T.);
#230=EDGE_CURVE('',#218,#218,#242,.T.);
#231=EDGE_CURVE('',#219,#219,#243,.T.);
#232=EDGE_CURVE('',#220,#220,#244,.T.);
#233=EDGE_CURVE('',#221,#221,#245,.T.);
#234=EDGE_CURVE('',#222,#222,#246,.T.);
#235=EDGE_CURVE('',#223,#223,#247,.T.);
#236=EDGE_CURVE('',#224,#224,#248,.T.);
#237=EDGE_CURVE('',#225,#225,#249,.T.);
#238=CIRCLE('',#251,33.6);
#239=CIRCLE('',#253,25.);
#240=CIRCLE('',#255,26.);
#241=CIRCLE('',#256,26.);
#242=CIRCLE('',#258,26.8);
#243=CIRCLE('',#259,31.5);
#244=CIRCLE('',#261,34.);
#245=CIRCLE('',#263,34.);
#246=CIRCLE('',#268,40.);
#247=CIRCLE('',#269,40.);
#248=CIRCLE('',#271,15.3);
#249=CIRCLE('',#273,15.3);
#250=AXIS2_PLACEMENT_3D('',#328,#276,#277);
#251=AXIS2_PLACEMENT_3D('',#329,#278,#279);
#252=AXIS2_PLACEMENT_3D('',#331,#280,#281);
#253=AXIS2_PLACEMENT_3D('',#332,#282,#283);
#254=AXIS2_PLACEMENT_3D('',#334,#284,#285);
#255=AXIS2_PLACEMENT_3D('',#335,#286,#287);
#256=AXIS2_PLACEMENT_3D('',#337,#288,#289);
#257=AXIS2_PLACEMENT_3D('',#339,#290,#291);
#258=AXIS2_PLACEMENT_3D('',#340,#292,#293);
#259=AXIS2_PLACEMENT_3D('',#342,#294,#295);
#260=AXIS2_PLACEMENT_3D('',#344,#296,#297);
#261=AXIS2_PLACEMENT_3D('',#345,#298,#299);
#262=AXIS2_PLACEMENT_3D('',#347,#300,#301);
#263=AXIS2_PLACEMENT_3D('',#348,#302,#303);
#264=AXIS2_PLACEMENT_3D('',#350,#304,#305);
#265=AXIS2_PLACEMENT_3D('',#351,#306,#307);
#266=AXIS2_PLACEMENT_3D('',#352,#308,#309);
#267=AXIS2_PLACEMENT_3D('',#353,#310,#311);
#268=AXIS2_PLACEMENT_3D('',#354,#312,#313);
#269=AXIS2_PLACEMENT_3D('',#356,#314,#315);
#270=AXIS2_PLACEMENT_3D('',#358,#316,#317);
#271=AXIS2_PLACEMENT_3D('',#359,#318,#319);
#272=AXIS2_PLACEMENT_3D('',#361,#320,#321);
#273=AXIS2_PLACEMENT_3D('',#362,#322,#323);
#274=AXIS2_PLACEMENT_3D('',#364,#324,#325);
#275=AXIS2_PLACEMENT_3D('',#365,#326,#327);
#276=DIRECTION('',(0.,0.,1.));
#277=DIRECTION('',(1.,0.,0.));
#278=DIRECTION('',(7.93902498055978E-017,0.,-1.));
#279=DIRECTION('',(-1.,0.,0.));
#280=DIRECTION('',(-7.93902498055978E-017,0.,1.));
#281=DIRECTION('',(-1.,0.,-7.63278329429795E-017));
#282=DIRECTION('',(-7.93902498055978E-017,0.,1.));
#283=DIRECTION('',(1.,0.,7.93902498055978E-017));
#284=DIRECTION('',(7.93902498055978E-017,0.,-1.));
#285=DIRECTION('',(1.,0.,7.93902498055978E-017));
#286=DIRECTION('',(7.93902498055976E-017,0.,-1.));
#287=DIRECTION('',(1.,0.,8.34001671142696E-017));
#288=DIRECTION('',(-7.93902498055978E-017,0.,1.));
#289=DIRECTION('',(1.,0.,0.));
#290=DIRECTION('',(7.93902498055978E-017,0.,-1.));
#291=DIRECTION('',(1.,0.,0.));
#292=DIRECTION('',(7.93902498055978E-017,0.,-1.));
#293=DIRECTION('',(1.,0.,0.));
#294=DIRECTION('',(7.93902498055978E-017,0.,-1.));
#295=DIRECTION('',(1.,0.,0.));
#296=DIRECTION('',(7.93902498055978E-017,0.,-1.));
#297=DIRECTION('',(1.,0.,7.63278329429795E-017));
#298=DIRECTION('',(7.93902498055978E-017,0.,-1.));
#299=DIRECTION('',(1.,0.,0.));
#300=DIRECTION('',(7.93902498055978E-017,0.,-1.));
#301=DIRECTION('',(1.,0.,9.50247220259047E-017));
#302=DIRECTION('',(-7.93902498055978E-017,0.,1.));
#303=DIRECTION('',(-1.,0.,0.));
#304=DIRECTION('',(7.93902498055978E-017,0.,-1.));
#305=DIRECTION('',(1.,0.,0.));
#306=DIRECTION('',(7.93902498055978E-017,0.,-1.));
#307=DIRECTION('',(1.,0.,0.));
#308=DIRECTION('',(7.93902498055976E-017,0.,-1.));
#309=DIRECTION('',(1.,0.,1.0736348998492E-016));
#310=DIRECTION('',(-7.93902498055978E-017,0.,1.));
#311=DIRECTION('',(-1.,0.,0.));
#312=DIRECTION('',(0.,0.,-1.));
#313=DIRECTION('',(-1.,0.,0.));
#314=DIRECTION('',(0.,0.,-1.));
#315=DIRECTION('',(-1.,0.,0.));
#316=DIRECTION('',(0.,0.,-1.));
#317=DIRECTION('',(-1.,0.,0.));
#318=DIRECTION('',(0.,0.,-1.));
#319=DIRECTION('',(-1.,0.,0.));
#320=DIRECTION('',(0.,0.,-1.));
#321=DIRECTION('',(-0.999999999999999,0.,1.21034337134181E-018));
#322=DIRECTION('',(0.,0.,-1.));
#323=DIRECTION('',(-1.,0.,0.));
#324=DIRECTION('',(0.,0.,-1.));
#325=DIRECTION('',(-1.,0.,0.));
#326=DIRECTION('',(0.,0.,1.));
#327=DIRECTION('',(1.,0.,-1.21086505958516E-019));
#328=CARTESIAN_POINT('',(0.,0.,0.));
#329=CARTESIAN_POINT('',(3.5527136788005E-015,0.,-44.75));
#330=CARTESIAN_POINT('',(-33.6,0.,-44.75));
#331=CARTESIAN_POINT('',(34.,0.,-44.75));
#332=CARTESIAN_POINT('',(8.19365529345377E-032,0.,-1.03207324747277E-015));
#333=CARTESIAN_POINT('',(25.,0.,9.52682997667175E-016));
#334=CARTESIAN_POINT('',(-1.77635683940025E-015,0.,-1.03207324747277E-015));
#335=CARTESIAN_POINT('',(7.93902498055977E-017,0.,-1.));
#336=CARTESIAN_POINT('',(26.,0.,-0.999999999999998));
#337=CARTESIAN_POINT('',(2.97316485521964E-015,0.,-37.45));
#338=CARTESIAN_POINT('',(26.,0.,-37.45));
#339=CARTESIAN_POINT('',(3.5527136788005E-015,0.,-44.75));
#340=CARTESIAN_POINT('',(3.03667705506411E-015,0.,-38.25));
#341=CARTESIAN_POINT('',(26.8,0.,-38.25));
#342=CARTESIAN_POINT('',(3.03667705506411E-015,0.,-38.25));
#343=CARTESIAN_POINT('',(31.5,0.,-38.25));
#344=CARTESIAN_POINT('',(26.,0.,-38.25));
#345=CARTESIAN_POINT('',(3.22324414210727E-015,0.,-40.6));
#346=CARTESIAN_POINT('',(34.,0.,-40.6));
#347=CARTESIAN_POINT('',(3.03667705506411E-015,0.,-38.25));
#348=CARTESIAN_POINT('',(3.52095757887826E-015,0.,-44.35));
#349=CARTESIAN_POINT('',(-34.,0.,-44.35));
#350=CARTESIAN_POINT('',(3.5527136788005E-015,0.,-44.75));
#351=CARTESIAN_POINT('',(2.97316485521964E-015,0.,-37.45));
#352=CARTESIAN_POINT('',(7.93902498055977E-017,0.,-1.));
#353=CARTESIAN_POINT('',(3.52095757887826E-015,0.,-44.35));
#354=CARTESIAN_POINT('',(0.,0.,-45.));
#355=CARTESIAN_POINT('',(-40.,0.,-45.));
#356=CARTESIAN_POINT('',(0.,0.,-42.5));
#357=CARTESIAN_POINT('',(-40.,0.,-42.5));
#358=CARTESIAN_POINT('',(0.,0.,0.));
#359=CARTESIAN_POINT('',(0.,0.,-44.5688598962731));
#360=CARTESIAN_POINT('',(-15.3,0.,-44.5688598962731));
#361=CARTESIAN_POINT('',(0.,0.,-45.));
#362=CARTESIAN_POINT('',(0.,0.,-42.931140103727));
#363=CARTESIAN_POINT('',(-15.3,0.,-42.931140103727));
#364=CARTESIAN_POINT('',(0.,0.,0.));
#365=CARTESIAN_POINT('',(0.,0.,-42.931140103727));
#366=MECHANICAL_DESIGN_GEOMETRIC_PRESENTATION_REPRESENTATION('',(#96,#97),
#367);
#367=(
GEOMETRIC_REPRESENTATION_CONTEXT(3)
GLOBAL_UNCERTAINTY_ASSIGNED_CONTEXT((#368))
GLOBAL_UNIT_ASSIGNED_CONTEXT((#374,#370,#369))
REPRESENTATION_CONTEXT('161_080Q27_3_SIM','TOP_LEVEL_ASSEMBLY_PART')
);
#368=UNCERTAINTY_MEASURE_WITH_UNIT(LENGTH_MEASURE(2.E-005),#374,
'DISTANCE_ACCURACY_VALUE','Maximum Tolerance applied to model');
#369=(
NAMED_UNIT(*)
SI_UNIT($,.STERADIAN.)
SOLID_ANGLE_UNIT()
);
#370=(
CONVERSION_BASED_UNIT('DEGREE',#372)
NAMED_UNIT(#371)
PLANE_ANGLE_UNIT()
);
#371=DIMENSIONAL_EXPONENTS(0.,0.,0.,0.,0.,0.,0.);
#372=PLANE_ANGLE_MEASURE_WITH_UNIT(PLANE_ANGLE_MEASURE(0.0174532925),#373);
#373=(
NAMED_UNIT(*)
PLANE_ANGLE_UNIT()
SI_UNIT($,.RADIAN.)
);
#374=(
LENGTH_UNIT()
NAMED_UNIT(*)
SI_UNIT(.MILLI.,.METRE.)
);
ENDSEC;
END-ISO-10303-21;
