ISO-10303-21;
HEADER;
/* Generated by software containing ST-Developer
 * from STEP Tools, Inc. (www.steptools.com) 
 */
/* OPTION: using custom schema-name function */

FILE_DESCRIPTION(
/* description */ (''),
/* implementation_level */ '2;1');

FILE_NAME(
/* name */ '1525692030876.stp',
/* time_stamp */ '2018-05-07T13:20:39+02:00',
/* author */ (''),
/* organization */ ('SMS'),
/* preprocessor_version */ 'ST-DEVELOPER v15',
/* originating_system */ 'SIEMENS PLM Software NX 8.5',
/* authorisation */ '');

FILE_SCHEMA (('AUTOMOTIVE_DESIGN { 1 0 10303 214 3 1 1 1 }'));
ENDSEC;

DATA;
#10=CONSTRUCTIVE_GEOMETRY_REPRESENTATION_RELATIONSHIP(
'supplemental geometry','',#26,#11);
#11=CONSTRUCTIVE_GEOMETRY_REPRESENTATION('supplemental geometry',(#331,
#332,#333),#570);
#12=GEOMETRICALLY_BOUNDED_WIREFRAME_SHAPE_REPRESENTATION(
'112029280mod000_00-None',(#27),#570);
#13=SHAPE_REPRESENTATION_RELATIONSHIP('None',
'relationship between 112029280mod000_00-None and 112029280mod000_00-N
one',#26,#15);
#14=SHAPE_REPRESENTATION_RELATIONSHIP('None',
'relationship between 112029280mod000_00-None and 112029280mod000_00-N
one',#26,#12);
#15=ADVANCED_BREP_SHAPE_REPRESENTATION('112029280mod000_00-None',(#33),
#570);
#16=SHAPE_DEFINITION_REPRESENTATION(#17,#26);
#17=PRODUCT_DEFINITION_SHAPE('','',#18);
#18=PRODUCT_DEFINITION(' ','',#20,#19);
#19=PRODUCT_DEFINITION_CONTEXT('part definition',#25,'design');
#20=PRODUCT_DEFINITION_FORMATION_WITH_SPECIFIED_SOURCE(' ',' ',#22,
 .NOT_KNOWN.);
#21=PRODUCT_RELATED_PRODUCT_CATEGORY('part','',(#22));
#22=PRODUCT('112029280mod000_00','112029280mod000_00',' ',(#23));
#23=PRODUCT_CONTEXT(' ',#25,'mechanical');
#24=APPLICATION_PROTOCOL_DEFINITION('international standard',
'automotive_design',2010,#25);
#25=APPLICATION_CONTEXT(
'core data for automotive mechanical design processes');
#26=SHAPE_REPRESENTATION('112029280mod000_00-None',(#330),#570);
#27=GEOMETRIC_CURVE_SET('None',(#490,#491,#492));
#28=SURFACE_STYLE_USAGE(.BOTH.,#29);
#29=SURFACE_SIDE_STYLE('',(#30));
#30=SURFACE_STYLE_FILL_AREA(#31);
#31=FILL_AREA_STYLE('',(#32));
#32=FILL_AREA_STYLE_COLOUR('',#329);
#33=MANIFOLD_SOLID_BREP('NOCUT',#34);
#34=CLOSED_SHELL('',(#98,#99,#100,#101,#102,#103,#104,#105,#106,#107,#108,
#109,#110,#111,#112,#113,#114,#115,#116,#117,#118,#119,#120,#121,#122));
#35=CYLINDRICAL_SURFACE('',#341,9.35109980333572);
#36=CYLINDRICAL_SURFACE('',#347,6.98889933797667);
#37=CYLINDRICAL_SURFACE('',#351,6.3411991498967);
#38=CYLINDRICAL_SURFACE('',#357,7.87408954503578);
#39=CYLINDRICAL_SURFACE('',#363,9.92377168433268);
#40=CYLINDRICAL_SURFACE('',#369,11.7449518856179);
#41=CYLINDRICAL_SURFACE('',#375,14.2406002763717);
#42=CYLINDRICAL_SURFACE('',#381,9.99871);
#43=CONICAL_SURFACE('',#339,7.12859937406815,60.0000047919199);
#44=CONICAL_SURFACE('',#343,9.35109980333572,45.0000045933185);
#45=CONICAL_SURFACE('',#349,6.98889933797667,45.0000083188107);
#46=CONICAL_SURFACE('',#355,7.36608943228482,45.0000063584199);
#47=CONICAL_SURFACE('',#361,9.38919980892457,45.0000039599804);
#48=CONICAL_SURFACE('',#367,11.291333651818,45.0000027816153);
#49=CONICAL_SURFACE('',#373,13.6056002341364,45.0000019054381);
#50=CONICAL_SURFACE('',#377,14.2406002763717,45.000001905439);
#51=CONICAL_SURFACE('',#382,9.99871,45.0000000000002);
#52=FACE_BOUND('',#135,.T.);
#53=FACE_BOUND('',#136,.T.);
#54=FACE_BOUND('',#137,.T.);
#55=FACE_BOUND('',#138,.T.);
#56=FACE_BOUND('',#139,.T.);
#57=FACE_BOUND('',#140,.T.);
#58=FACE_BOUND('',#141,.T.);
#59=FACE_BOUND('',#142,.T.);
#60=FACE_BOUND('',#143,.T.);
#61=FACE_BOUND('',#144,.T.);
#62=FACE_BOUND('',#145,.T.);
#63=FACE_BOUND('',#146,.T.);
#64=FACE_BOUND('',#147,.T.);
#65=FACE_BOUND('',#148,.T.);
#66=FACE_BOUND('',#149,.T.);
#67=FACE_BOUND('',#150,.T.);
#68=FACE_BOUND('',#151,.T.);
#69=FACE_BOUND('',#152,.T.);
#70=FACE_BOUND('',#153,.T.);
#71=FACE_BOUND('',#154,.T.);
#72=FACE_BOUND('',#155,.T.);
#73=FACE_BOUND('',#156,.T.);
#74=FACE_BOUND('',#157,.T.);
#75=FACE_BOUND('',#158,.T.);
#76=FACE_BOUND('',#159,.T.);
#77=FACE_BOUND('',#160,.T.);
#78=FACE_BOUND('',#161,.T.);
#79=FACE_BOUND('',#162,.T.);
#80=FACE_BOUND('',#163,.T.);
#81=FACE_BOUND('',#164,.T.);
#82=FACE_BOUND('',#165,.T.);
#83=FACE_BOUND('',#166,.T.);
#84=FACE_BOUND('',#167,.T.);
#85=FACE_BOUND('',#168,.T.);
#86=FACE_BOUND('',#169,.T.);
#87=FACE_BOUND('',#170,.T.);
#88=FACE_BOUND('',#171,.T.);
#89=FACE_BOUND('',#172,.T.);
#90=FACE_BOUND('',#173,.T.);
#91=FACE_BOUND('',#174,.T.);
#92=FACE_BOUND('',#175,.T.);
#93=FACE_BOUND('',#176,.T.);
#94=FACE_BOUND('',#177,.T.);
#95=FACE_BOUND('',#178,.T.);
#96=FACE_BOUND('',#179,.T.);
#97=FACE_BOUND('',#180,.T.);
#98=ADVANCED_FACE('',(#131),#123,.T.);
#99=ADVANCED_FACE('',(#132),#124,.T.);
#100=ADVANCED_FACE('',(#52,#53),#43,.T.);
#101=ADVANCED_FACE('',(#54,#55),#35,.T.);
#102=ADVANCED_FACE('',(#56,#57),#44,.T.);
#103=ADVANCED_FACE('',(#58,#59),#125,.T.);
#104=ADVANCED_FACE('',(#60,#61),#36,.T.);
#105=ADVANCED_FACE('',(#62,#63),#45,.T.);
#106=ADVANCED_FACE('',(#64,#65),#37,.T.);
#107=ADVANCED_FACE('',(#66,#67),#126,.T.);
#108=ADVANCED_FACE('',(#68,#69),#46,.T.);
#109=ADVANCED_FACE('',(#70,#71),#38,.T.);
#110=ADVANCED_FACE('',(#72,#73),#127,.T.);
#111=ADVANCED_FACE('',(#74,#75),#47,.T.);
#112=ADVANCED_FACE('',(#76,#77),#39,.T.);
#113=ADVANCED_FACE('',(#78,#79),#128,.T.);
#114=ADVANCED_FACE('',(#80,#81),#48,.T.);
#115=ADVANCED_FACE('',(#82,#83),#40,.T.);
#116=ADVANCED_FACE('',(#84,#85),#129,.T.);
#117=ADVANCED_FACE('',(#86,#87),#49,.T.);
#118=ADVANCED_FACE('',(#88,#89),#41,.T.);
#119=ADVANCED_FACE('',(#90,#91),#50,.T.);
#120=ADVANCED_FACE('',(#92,#93),#130,.T.);
#121=ADVANCED_FACE('',(#94,#95),#42,.T.);
#122=ADVANCED_FACE('',(#96,#97),#51,.T.);
#123=PLANE('',#335);
#124=PLANE('',#337);
#125=PLANE('',#345);
#126=PLANE('',#353);
#127=PLANE('',#359);
#128=PLANE('',#365);
#129=PLANE('',#371);
#130=PLANE('',#379);
#131=FACE_OUTER_BOUND('',#133,.T.);
#132=FACE_OUTER_BOUND('',#134,.T.);
#133=EDGE_LOOP('',(#181));
#134=EDGE_LOOP('',(#182));
#135=EDGE_LOOP('',(#183));
#136=EDGE_LOOP('',(#184));
#137=EDGE_LOOP('',(#185));
#138=EDGE_LOOP('',(#186));
#139=EDGE_LOOP('',(#187));
#140=EDGE_LOOP('',(#188));
#141=EDGE_LOOP('',(#189));
#142=EDGE_LOOP('',(#190));
#143=EDGE_LOOP('',(#191));
#144=EDGE_LOOP('',(#192));
#145=EDGE_LOOP('',(#193));
#146=EDGE_LOOP('',(#194));
#147=EDGE_LOOP('',(#195));
#148=EDGE_LOOP('',(#196));
#149=EDGE_LOOP('',(#197));
#150=EDGE_LOOP('',(#198));
#151=EDGE_LOOP('',(#199));
#152=EDGE_LOOP('',(#200));
#153=EDGE_LOOP('',(#201));
#154=EDGE_LOOP('',(#202));
#155=EDGE_LOOP('',(#203));
#156=EDGE_LOOP('',(#204));
#157=EDGE_LOOP('',(#205));
#158=EDGE_LOOP('',(#206));
#159=EDGE_LOOP('',(#207));
#160=EDGE_LOOP('',(#208));
#161=EDGE_LOOP('',(#209));
#162=EDGE_LOOP('',(#210));
#163=EDGE_LOOP('',(#211));
#164=EDGE_LOOP('',(#212));
#165=EDGE_LOOP('',(#213));
#166=EDGE_LOOP('',(#214));
#167=EDGE_LOOP('',(#215));
#168=EDGE_LOOP('',(#216));
#169=EDGE_LOOP('',(#217));
#170=EDGE_LOOP('',(#218));
#171=EDGE_LOOP('',(#219));
#172=EDGE_LOOP('',(#220));
#173=EDGE_LOOP('',(#221));
#174=EDGE_LOOP('',(#222));
#175=EDGE_LOOP('',(#223));
#176=EDGE_LOOP('',(#224));
#177=EDGE_LOOP('',(#225));
#178=EDGE_LOOP('',(#226));
#179=EDGE_LOOP('',(#227));
#180=EDGE_LOOP('',(#228));
#181=ORIENTED_EDGE('',*,*,#253,.F.);
#182=ORIENTED_EDGE('',*,*,#254,.T.);
#183=ORIENTED_EDGE('',*,*,#255,.T.);
#184=ORIENTED_EDGE('',*,*,#254,.F.);
#185=ORIENTED_EDGE('',*,*,#256,.T.);
#186=ORIENTED_EDGE('',*,*,#255,.F.);
#187=ORIENTED_EDGE('',*,*,#257,.T.);
#188=ORIENTED_EDGE('',*,*,#256,.F.);
#189=ORIENTED_EDGE('',*,*,#258,.T.);
#190=ORIENTED_EDGE('',*,*,#257,.F.);
#191=ORIENTED_EDGE('',*,*,#259,.T.);
#192=ORIENTED_EDGE('',*,*,#258,.F.);
#193=ORIENTED_EDGE('',*,*,#260,.T.);
#194=ORIENTED_EDGE('',*,*,#259,.F.);
#195=ORIENTED_EDGE('',*,*,#261,.T.);
#196=ORIENTED_EDGE('',*,*,#260,.F.);
#197=ORIENTED_EDGE('',*,*,#262,.T.);
#198=ORIENTED_EDGE('',*,*,#261,.F.);
#199=ORIENTED_EDGE('',*,*,#263,.T.);
#200=ORIENTED_EDGE('',*,*,#262,.F.);
#201=ORIENTED_EDGE('',*,*,#264,.T.);
#202=ORIENTED_EDGE('',*,*,#263,.F.);
#203=ORIENTED_EDGE('',*,*,#265,.T.);
#204=ORIENTED_EDGE('',*,*,#264,.F.);
#205=ORIENTED_EDGE('',*,*,#266,.T.);
#206=ORIENTED_EDGE('',*,*,#265,.F.);
#207=ORIENTED_EDGE('',*,*,#267,.T.);
#208=ORIENTED_EDGE('',*,*,#266,.F.);
#209=ORIENTED_EDGE('',*,*,#268,.T.);
#210=ORIENTED_EDGE('',*,*,#267,.F.);
#211=ORIENTED_EDGE('',*,*,#269,.T.);
#212=ORIENTED_EDGE('',*,*,#268,.F.);
#213=ORIENTED_EDGE('',*,*,#270,.T.);
#214=ORIENTED_EDGE('',*,*,#269,.F.);
#215=ORIENTED_EDGE('',*,*,#271,.T.);
#216=ORIENTED_EDGE('',*,*,#270,.F.);
#217=ORIENTED_EDGE('',*,*,#272,.T.);
#218=ORIENTED_EDGE('',*,*,#271,.F.);
#219=ORIENTED_EDGE('',*,*,#273,.T.);
#220=ORIENTED_EDGE('',*,*,#272,.F.);
#221=ORIENTED_EDGE('',*,*,#274,.T.);
#222=ORIENTED_EDGE('',*,*,#273,.F.);
#223=ORIENTED_EDGE('',*,*,#275,.T.);
#224=ORIENTED_EDGE('',*,*,#274,.F.);
#225=ORIENTED_EDGE('',*,*,#276,.T.);
#226=ORIENTED_EDGE('',*,*,#275,.F.);
#227=ORIENTED_EDGE('',*,*,#253,.T.);
#228=ORIENTED_EDGE('',*,*,#276,.F.);
#229=VERTEX_POINT('',#497);
#230=VERTEX_POINT('',#500);
#231=VERTEX_POINT('',#503);
#232=VERTEX_POINT('',#506);
#233=VERTEX_POINT('',#509);
#234=VERTEX_POINT('',#512);
#235=VERTEX_POINT('',#515);
#236=VERTEX_POINT('',#518);
#237=VERTEX_POINT('',#521);
#238=VERTEX_POINT('',#524);
#239=VERTEX_POINT('',#527);
#240=VERTEX_POINT('',#530);
#241=VERTEX_POINT('',#533);
#242=VERTEX_POINT('',#536);
#243=VERTEX_POINT('',#539);
#244=VERTEX_POINT('',#542);
#245=VERTEX_POINT('',#545);
#246=VERTEX_POINT('',#548);
#247=VERTEX_POINT('',#551);
#248=VERTEX_POINT('',#554);
#249=VERTEX_POINT('',#557);
#250=VERTEX_POINT('',#560);
#251=VERTEX_POINT('',#563);
#252=VERTEX_POINT('',#566);
#253=EDGE_CURVE('',#229,#229,#277,.T.);
#254=EDGE_CURVE('',#230,#230,#278,.T.);
#255=EDGE_CURVE('',#231,#231,#279,.T.);
#256=EDGE_CURVE('',#232,#232,#280,.T.);
#257=EDGE_CURVE('',#233,#233,#281,.T.);
#258=EDGE_CURVE('',#234,#234,#282,.T.);
#259=EDGE_CURVE('',#235,#235,#283,.T.);
#260=EDGE_CURVE('',#236,#236,#284,.T.);
#261=EDGE_CURVE('',#237,#237,#285,.T.);
#262=EDGE_CURVE('',#238,#238,#286,.T.);
#263=EDGE_CURVE('',#239,#239,#287,.T.);
#264=EDGE_CURVE('',#240,#240,#288,.T.);
#265=EDGE_CURVE('',#241,#241,#289,.T.);
#266=EDGE_CURVE('',#242,#242,#290,.T.);
#267=EDGE_CURVE('',#243,#243,#291,.T.);
#268=EDGE_CURVE('',#244,#244,#292,.T.);
#269=EDGE_CURVE('',#245,#245,#293,.T.);
#270=EDGE_CURVE('',#246,#246,#294,.T.);
#271=EDGE_CURVE('',#247,#247,#295,.T.);
#272=EDGE_CURVE('',#248,#248,#296,.T.);
#273=EDGE_CURVE('',#249,#249,#297,.T.);
#274=EDGE_CURVE('',#250,#250,#298,.T.);
#275=EDGE_CURVE('',#251,#251,#299,.T.);
#276=EDGE_CURVE('',#252,#252,#300,.T.);
#277=CIRCLE('',#334,9.23671);
#278=CIRCLE('',#336,7.12859937406815);
#279=CIRCLE('',#338,9.35109980333572);
#280=CIRCLE('',#340,9.35109980333572);
#281=CIRCLE('',#342,8.58909968115887);
#282=CIRCLE('',#344,6.98889933797667);
#283=CIRCLE('',#346,6.98889933797667);
#284=CIRCLE('',#348,6.3411991498967);
#285=CIRCLE('',#350,6.3411991498967);
#286=CIRCLE('',#352,7.36608943228482);
#287=CIRCLE('',#354,7.87408954503579);
#288=CIRCLE('',#356,7.87408954503578);
#289=CIRCLE('',#358,9.38919980892457);
#290=CIRCLE('',#360,9.92377168433267);
#291=CIRCLE('',#362,9.92377168433268);
#292=CIRCLE('',#364,11.291333651818);
#293=CIRCLE('',#366,11.7449518856179);
#294=CIRCLE('',#368,11.7449518856179);
#295=CIRCLE('',#370,13.6056002341364);
#296=CIRCLE('',#372,14.2406002763717);
#297=CIRCLE('',#374,14.2406002763717);
#298=CIRCLE('',#376,13.6056002341363);
#299=CIRCLE('',#378,9.99871);
#300=CIRCLE('',#380,9.99871);
#301=CURVE_STYLE('',#304,POSITIVE_LENGTH_MEASURE(0.18),#328);
#302=CURVE_STYLE('',#305,POSITIVE_LENGTH_MEASURE(0.18),#328);
#303=CURVE_STYLE('',#306,POSITIVE_LENGTH_MEASURE(0.18),#328);
#304=DRAUGHTING_PRE_DEFINED_CURVE_FONT('continuous');
#305=DRAUGHTING_PRE_DEFINED_CURVE_FONT('continuous');
#306=DRAUGHTING_PRE_DEFINED_CURVE_FONT('continuous');
#307=PRESENTATION_LAYER_ASSIGNMENT('1','Layer 1',(#490,#491,#492,#331,#332,
#333,#33));
#308=STYLED_ITEM('',(#315),#490);
#309=STYLED_ITEM('',(#316),#491);
#310=STYLED_ITEM('',(#317),#492);
#311=STYLED_ITEM('',(#318),#331);
#312=STYLED_ITEM('',(#319),#332);
#313=STYLED_ITEM('',(#320),#333);
#314=STYLED_ITEM('',(#321),#33);
#315=PRESENTATION_STYLE_ASSIGNMENT((#322));
#316=PRESENTATION_STYLE_ASSIGNMENT((#323));
#317=PRESENTATION_STYLE_ASSIGNMENT((#324));
#318=PRESENTATION_STYLE_ASSIGNMENT((#301));
#319=PRESENTATION_STYLE_ASSIGNMENT((#302));
#320=PRESENTATION_STYLE_ASSIGNMENT((#303));
#321=PRESENTATION_STYLE_ASSIGNMENT((#28));
#322=POINT_STYLE('',#325,POSITIVE_LENGTH_MEASURE(3.),#328);
#323=POINT_STYLE('',#326,POSITIVE_LENGTH_MEASURE(3.),#328);
#324=POINT_STYLE('',#327,POSITIVE_LENGTH_MEASURE(3.),#328);
#325=PRE_DEFINED_POINT_MARKER_SYMBOL('plus');
#326=PRE_DEFINED_POINT_MARKER_SYMBOL('plus');
#327=PRE_DEFINED_POINT_MARKER_SYMBOL('plus');
#328=COLOUR_RGB('Medium Maroon',0.6,0.4,0.4);
#329=COLOUR_RGB('TLS_NOCUT',0.501960784313725,0.501960784313725,0.501960784313725);
#330=AXIS2_PLACEMENT_3D('',#489,#383,#384);
#331=AXIS2_PLACEMENT_3D('PCS',#493,#385,#386);
#332=AXIS2_PLACEMENT_3D('MCS',#494,#387,#388);
#333=AXIS2_PLACEMENT_3D('CSW',#495,#389,#390);
#334=AXIS2_PLACEMENT_3D('',#496,#391,#392);
#335=AXIS2_PLACEMENT_3D('',#498,#393,#394);
#336=AXIS2_PLACEMENT_3D('',#499,#395,#396);
#337=AXIS2_PLACEMENT_3D('',#501,#397,#398);
#338=AXIS2_PLACEMENT_3D('',#502,#399,#400);
#339=AXIS2_PLACEMENT_3D('',#504,#401,#402);
#340=AXIS2_PLACEMENT_3D('',#505,#403,#404);
#341=AXIS2_PLACEMENT_3D('',#507,#405,#406);
#342=AXIS2_PLACEMENT_3D('',#508,#407,#408);
#343=AXIS2_PLACEMENT_3D('',#510,#409,#410);
#344=AXIS2_PLACEMENT_3D('',#511,#411,#412);
#345=AXIS2_PLACEMENT_3D('',#513,#413,#414);
#346=AXIS2_PLACEMENT_3D('',#514,#415,#416);
#347=AXIS2_PLACEMENT_3D('',#516,#417,#418);
#348=AXIS2_PLACEMENT_3D('',#517,#419,#420);
#349=AXIS2_PLACEMENT_3D('',#519,#421,#422);
#350=AXIS2_PLACEMENT_3D('',#520,#423,#424);
#351=AXIS2_PLACEMENT_3D('',#522,#425,#426);
#352=AXIS2_PLACEMENT_3D('',#523,#427,#428);
#353=AXIS2_PLACEMENT_3D('',#525,#429,#430);
#354=AXIS2_PLACEMENT_3D('',#526,#431,#432);
#355=AXIS2_PLACEMENT_3D('',#528,#433,#434);
#356=AXIS2_PLACEMENT_3D('',#529,#435,#436);
#357=AXIS2_PLACEMENT_3D('',#531,#437,#438);
#358=AXIS2_PLACEMENT_3D('',#532,#439,#440);
#359=AXIS2_PLACEMENT_3D('',#534,#441,#442);
#360=AXIS2_PLACEMENT_3D('',#535,#443,#444);
#361=AXIS2_PLACEMENT_3D('',#537,#445,#446);
#362=AXIS2_PLACEMENT_3D('',#538,#447,#448);
#363=AXIS2_PLACEMENT_3D('',#540,#449,#450);
#364=AXIS2_PLACEMENT_3D('',#541,#451,#452);
#365=AXIS2_PLACEMENT_3D('',#543,#453,#454);
#366=AXIS2_PLACEMENT_3D('',#544,#455,#456);
#367=AXIS2_PLACEMENT_3D('',#546,#457,#458);
#368=AXIS2_PLACEMENT_3D('',#547,#459,#460);
#369=AXIS2_PLACEMENT_3D('',#549,#461,#462);
#370=AXIS2_PLACEMENT_3D('',#550,#463,#464);
#371=AXIS2_PLACEMENT_3D('',#552,#465,#466);
#372=AXIS2_PLACEMENT_3D('',#553,#467,#468);
#373=AXIS2_PLACEMENT_3D('',#555,#469,#470);
#374=AXIS2_PLACEMENT_3D('',#556,#471,#472);
#375=AXIS2_PLACEMENT_3D('',#558,#473,#474);
#376=AXIS2_PLACEMENT_3D('',#559,#475,#476);
#377=AXIS2_PLACEMENT_3D('',#561,#477,#478);
#378=AXIS2_PLACEMENT_3D('',#562,#479,#480);
#379=AXIS2_PLACEMENT_3D('',#564,#481,#482);
#380=AXIS2_PLACEMENT_3D('',#565,#483,#484);
#381=AXIS2_PLACEMENT_3D('',#567,#485,#486);
#382=AXIS2_PLACEMENT_3D('',#568,#487,#488);
#383=DIRECTION('',(0.,0.,1.));
#384=DIRECTION('',(1.,0.,0.));
#385=DIRECTION('',(0.,0.,1.));
#386=DIRECTION('',(1.,0.,0.));
#387=DIRECTION('',(0.,0.,1.));
#388=DIRECTION('',(1.,0.,0.));
#389=DIRECTION('',(0.,0.,1.));
#390=DIRECTION('',(1.,0.,0.));
#391=DIRECTION('',(0.,0.,-1.));
#392=DIRECTION('',(-1.,0.,0.));
#393=DIRECTION('',(0.,0.,1.));
#394=DIRECTION('',(1.,0.,0.));
#395=DIRECTION('',(0.,0.,-1.));
#396=DIRECTION('',(-1.,0.,0.));
#397=DIRECTION('',(0.,0.,-1.));
#398=DIRECTION('',(-1.,0.,0.));
#399=DIRECTION('',(0.,0.,-1.));
#400=DIRECTION('',(-1.,0.,0.));
#401=DIRECTION('',(0.,0.,1.));
#402=DIRECTION('',(1.,0.,-1.59590035196568E-017));
#403=DIRECTION('',(0.,0.,-1.));
#404=DIRECTION('',(-1.,0.,0.));
#405=DIRECTION('',(0.,0.,-1.));
#406=DIRECTION('',(-1.,0.,0.));
#407=DIRECTION('',(0.,0.,-1.));
#408=DIRECTION('',(-1.,0.,0.));
#409=DIRECTION('',(0.,0.,-1.));
#410=DIRECTION('',(-1.,0.,6.87460765932165E-017));
#411=DIRECTION('',(0.,0.,-1.));
#412=DIRECTION('',(-1.,0.,0.));
#413=DIRECTION('',(0.,0.,1.));
#414=DIRECTION('',(1.,0.,0.));
#415=DIRECTION('',(0.,0.,-1.));
#416=DIRECTION('',(-1.,0.,0.));
#417=DIRECTION('',(0.,0.,-1.));
#418=DIRECTION('',(-1.,0.,0.));
#419=DIRECTION('',(0.,0.,-1.));
#420=DIRECTION('',(-1.,0.,0.));
#421=DIRECTION('',(0.,0.,-1.));
#422=DIRECTION('',(-1.,0.,5.51258660946818E-017));
#423=DIRECTION('',(0.,0.,-1.));
#424=DIRECTION('',(-1.,0.,0.));
#425=DIRECTION('',(0.,0.,-1.));
#426=DIRECTION('',(-1.,0.,0.));
#427=DIRECTION('',(0.,0.,-1.));
#428=DIRECTION('',(-1.,0.,0.));
#429=DIRECTION('',(0.,0.,-1.));
#430=DIRECTION('',(-1.,0.,0.));
#431=DIRECTION('',(0.,0.,-1.));
#432=DIRECTION('',(-1.,0.,0.));
#433=DIRECTION('',(0.,0.,1.));
#434=DIRECTION('',(1.,0.,-1.37763072389837E-017));
#435=DIRECTION('',(0.,0.,-1.));
#436=DIRECTION('',(-1.,0.,0.));
#437=DIRECTION('',(0.,0.,-1.));
#438=DIRECTION('',(-1.,0.,0.));
#439=DIRECTION('',(0.,0.,-1.));
#440=DIRECTION('',(-1.,0.,0.));
#441=DIRECTION('',(0.,0.,-1.));
#442=DIRECTION('',(-1.,0.,0.));
#443=DIRECTION('',(0.,0.,-1.));
#444=DIRECTION('',(-1.,0.,0.));
#445=DIRECTION('',(0.,0.,1.));
#446=DIRECTION('',(1.,0.,4.12460899422167E-017));
#447=DIRECTION('',(0.,0.,-1.));
#448=DIRECTION('',(-1.,0.,0.));
#449=DIRECTION('',(0.,0.,-1.));
#450=DIRECTION('',(-1.,0.,0.));
#451=DIRECTION('',(0.,0.,-1.));
#452=DIRECTION('',(-1.,0.,0.));
#453=DIRECTION('',(0.,0.,-1.));
#454=DIRECTION('',(-1.,0.,0.));
#455=DIRECTION('',(0.,0.,-1.));
#456=DIRECTION('',(-1.,0.,0.));
#457=DIRECTION('',(0.,0.,1.));
#458=DIRECTION('',(1.,0.,-5.48913493612527E-017));
#459=DIRECTION('',(0.,0.,-1.));
#460=DIRECTION('',(-1.,0.,0.));
#461=DIRECTION('',(0.,0.,-1.));
#462=DIRECTION('',(-1.,0.,0.));
#463=DIRECTION('',(0.,0.,-1.));
#464=DIRECTION('',(-1.,0.,0.));
#465=DIRECTION('',(0.,0.,-1.));
#466=DIRECTION('',(-1.,0.,0.));
#467=DIRECTION('',(0.,0.,-1.));
#468=DIRECTION('',(-1.,0.,0.));
#469=DIRECTION('',(0.,0.,1.));
#470=DIRECTION('',(1.,0.,-5.47660229736486E-017));
#471=DIRECTION('',(0.,0.,-1.));
#472=DIRECTION('',(-1.,0.,0.));
#473=DIRECTION('',(0.,0.,-1.));
#474=DIRECTION('',(-1.,0.,0.));
#475=DIRECTION('',(0.,0.,-1.));
#476=DIRECTION('',(-1.,0.,0.));
#477=DIRECTION('',(0.,0.,-1.));
#478=DIRECTION('',(-1.,0.,9.57805359572863E-017));
#479=DIRECTION('',(0.,0.,-1.));
#480=DIRECTION('',(-1.,0.,0.));
#481=DIRECTION('',(0.,0.,1.));
#482=DIRECTION('',(1.,0.,0.));
#483=DIRECTION('',(0.,0.,-1.));
#484=DIRECTION('',(-1.,0.,0.));
#485=DIRECTION('',(0.,0.,-1.));
#486=DIRECTION('',(-1.,0.,0.));
#487=DIRECTION('',(0.,0.,-1.));
#488=DIRECTION('',(-1.,0.,6.87020075887738E-017));
#489=CARTESIAN_POINT('',(0.,0.,0.));
#490=CARTESIAN_POINT('PCS',(0.,0.,0.));
#491=CARTESIAN_POINT('MCS',(0.,0.,-50.8));
#492=CARTESIAN_POINT('CSW',(0.,0.,-97.8));
#493=CARTESIAN_POINT('',(0.,0.,0.));
#494=CARTESIAN_POINT('',(0.,0.,-50.8));
#495=CARTESIAN_POINT('',(0.,0.,-97.8));
#496=CARTESIAN_POINT('',(-8.88178419700125E-016,1.77635683940025E-015,0.));
#497=CARTESIAN_POINT('',(-9.23671,1.77635683940025E-015,0.));
#498=CARTESIAN_POINT('',(4.618355,-7.99922550738977,0.));
#499=CARTESIAN_POINT('',(-8.88178419700125E-016,1.77635683940025E-015,-102.7294462));
#500=CARTESIAN_POINT('',(-7.12859937406815,1.77635683940025E-015,-102.7294462));
#501=CARTESIAN_POINT('',(-4.44089209850063E-016,1.77635683940025E-015,-102.7294462));
#502=CARTESIAN_POINT('',(-8.88178419700125E-016,1.77635683940025E-015,-101.446285226726));
#503=CARTESIAN_POINT('',(-9.35109980333573,1.77635683940025E-015,-101.446285226726));
#504=CARTESIAN_POINT('',(-8.88178419700125E-016,1.77635683940025E-015,-102.7294462));
#505=CARTESIAN_POINT('',(-8.88178419700125E-016,1.77635683940025E-015,-91.9852462));
#506=CARTESIAN_POINT('',(-9.35109980333572,1.77635683940025E-015,-91.9852462));
#507=CARTESIAN_POINT('',(-8.88178419700125E-016,1.77635683940025E-015,0.));
#508=CARTESIAN_POINT('',(-8.88178419700125E-016,1.77635683940025E-015,-91.2232462));
#509=CARTESIAN_POINT('',(-8.58909968115887,1.77635683940025E-015,-91.2232462));
#510=CARTESIAN_POINT('',(-8.88178419700125E-016,1.77635683940025E-015,-91.9852462));
#511=CARTESIAN_POINT('',(-8.88178419700125E-016,1.77635683940025E-015,-91.2232462));
#512=CARTESIAN_POINT('',(-6.98889933797667,1.77635683940025E-015,-91.2232462));
#513=CARTESIAN_POINT('',(4.29454984057943,-7.43837851952041,-91.2232462));
#514=CARTESIAN_POINT('',(-8.88178419700125E-016,1.77635683940025E-015,-89.4220462));
#515=CARTESIAN_POINT('',(-6.98889933797667,1.77635683940025E-015,-89.4220462));
#516=CARTESIAN_POINT('',(-8.88178419700125E-016,1.77635683940025E-015,0.));
#517=CARTESIAN_POINT('',(-8.88178419700125E-016,1.77635683940025E-015,-88.7743462));
#518=CARTESIAN_POINT('',(-6.34119914989671,1.77635683940025E-015,-88.7743462));
#519=CARTESIAN_POINT('',(-8.88178419700125E-016,1.77635683940025E-015,-89.4220462));
#520=CARTESIAN_POINT('',(-8.88178419700125E-016,1.77635683940025E-015,-86.7296462));
#521=CARTESIAN_POINT('',(-6.3411991498967,1.77635683940025E-015,-86.7296462));
#522=CARTESIAN_POINT('',(-8.88178419700125E-016,1.77635683940025E-015,0.));
#523=CARTESIAN_POINT('',(-8.88178419700125E-016,1.77635683940025E-015,-86.7296462));
#524=CARTESIAN_POINT('',(-7.36608943228482,1.77635683940025E-015,-86.7296462));
#525=CARTESIAN_POINT('',(3.17059957494835,-5.49163955426684,-86.7296462));
#526=CARTESIAN_POINT('',(-8.88178419700125E-016,1.77635683940025E-015,-86.2216462));
#527=CARTESIAN_POINT('',(-7.87408954503579,1.77635683940025E-015,-86.2216462));
#528=CARTESIAN_POINT('',(-8.88178419700125E-016,1.77635683940025E-015,-86.7296462));
#529=CARTESIAN_POINT('',(-8.88178419700125E-016,1.77635683940025E-015,-81.6736745999999));
#530=CARTESIAN_POINT('',(-7.87408954503578,1.77635683940025E-015,-81.6736745999999));
#531=CARTESIAN_POINT('',(-8.88178419700125E-016,1.77635683940025E-015,0.));
#532=CARTESIAN_POINT('',(-8.88178419700125E-016,1.77635683940025E-015,-81.6736745999999));
#533=CARTESIAN_POINT('',(-9.38919980892458,1.77635683940025E-015,-81.6736745999999));
#534=CARTESIAN_POINT('',(3.93704477251788,-6.81916157767444,-81.6736745999999));
#535=CARTESIAN_POINT('',(-8.88178419700125E-016,1.77635683940025E-015,-81.1391027984854));
#536=CARTESIAN_POINT('',(-9.92377168433268,1.77635683940025E-015,-81.1391027984854));
#537=CARTESIAN_POINT('',(-8.88178419700125E-016,1.77635683940025E-015,-81.6736745999999));
#538=CARTESIAN_POINT('',(-8.88178419700125E-016,1.77635683940025E-015,-77.7322223290144));
#539=CARTESIAN_POINT('',(-9.92377168433268,1.77635683940025E-015,-77.7322223290144));
#540=CARTESIAN_POINT('',(-8.88178419700125E-016,1.77635683940025E-015,0.));
#541=CARTESIAN_POINT('',(-8.88178419700125E-016,1.77635683940025E-015,-77.7322223290144));
#542=CARTESIAN_POINT('',(-11.291333651818,1.77635683940025E-015,-77.7322223290144));
#543=CARTESIAN_POINT('',(4.96188584216633,-8.59423837998879,-77.7322223290144));
#544=CARTESIAN_POINT('',(-8.88178419700125E-016,1.77635683940025E-015,-77.2786041392593));
#545=CARTESIAN_POINT('',(-11.7449518856179,1.77635683940025E-015,-77.2786041392593));
#546=CARTESIAN_POINT('',(-8.88178419700125E-016,1.77635683940025E-015,-77.7322223290144));
#547=CARTESIAN_POINT('',(-8.88178419700125E-016,1.77635683940025E-015,-53.5813));
#548=CARTESIAN_POINT('',(-11.7449518856179,1.77635683940025E-015,-53.5813));
#549=CARTESIAN_POINT('',(-8.88178419700125E-016,1.77635683940025E-015,0.));
#550=CARTESIAN_POINT('',(-8.88178419700125E-016,1.77635683940025E-015,-53.5813));
#551=CARTESIAN_POINT('',(-13.6056002341364,1.77635683940025E-015,-53.5813));
#552=CARTESIAN_POINT('',(5.87247594280898,-10.1714266991711,-53.5813));
#553=CARTESIAN_POINT('',(-8.88178419700125E-016,1.77635683940025E-015,-52.9463));
#554=CARTESIAN_POINT('',(-14.2406002763717,1.77635683940025E-015,-52.9463));
#555=CARTESIAN_POINT('',(-8.88178419700125E-016,1.77635683940025E-015,-53.5813));
#556=CARTESIAN_POINT('',(-8.88178419700125E-016,1.77635683940025E-015,-51.435));
#557=CARTESIAN_POINT('',(-14.2406002763717,1.77635683940025E-015,-51.435));
#558=CARTESIAN_POINT('',(-8.88178419700125E-016,1.77635683940025E-015,0.));
#559=CARTESIAN_POINT('',(-8.88178419700125E-016,1.77635683940025E-015,-50.8));
#560=CARTESIAN_POINT('',(-13.6056002341363,1.77635683940025E-015,-50.8));
#561=CARTESIAN_POINT('',(-8.88178419700125E-016,1.77635683940025E-015,-51.435));
#562=CARTESIAN_POINT('',(-8.88178419700125E-016,1.77635683940025E-015,-50.8));
#563=CARTESIAN_POINT('',(-9.99871,1.77635683940025E-015,-50.8));
#564=CARTESIAN_POINT('',(6.80280011706817,-11.7827954364976,-50.8));
#565=CARTESIAN_POINT('',(-8.88178419700125E-016,1.77635683940025E-015,-0.761999999999999));
#566=CARTESIAN_POINT('',(-9.99871,1.77635683940025E-015,-0.761999999999999));
#567=CARTESIAN_POINT('',(-8.88178419700125E-016,1.77635683940025E-015,0.));
#568=CARTESIAN_POINT('',(-8.88178419700125E-016,1.77635683940025E-015,-0.761999999999999));
#569=MECHANICAL_DESIGN_GEOMETRIC_PRESENTATION_REPRESENTATION('',(#308,#309,
#310,#311,#312,#313,#314),#570);
#570=(
GEOMETRIC_REPRESENTATION_CONTEXT(3)
GLOBAL_UNCERTAINTY_ASSIGNED_CONTEXT((#571))
GLOBAL_UNIT_ASSIGNED_CONTEXT((#577,#573,#572))
REPRESENTATION_CONTEXT('1525692030876','TOP_LEVEL_ASSEMBLY_PART')
);
#571=UNCERTAINTY_MEASURE_WITH_UNIT(LENGTH_MEASURE(2.E-005),#577,
'DISTANCE_ACCURACY_VALUE','Maximum Tolerance applied to model');
#572=(
NAMED_UNIT(*)
SI_UNIT($,.STERADIAN.)
SOLID_ANGLE_UNIT()
);
#573=(
CONVERSION_BASED_UNIT('DEGREE',#575)
NAMED_UNIT(#574)
PLANE_ANGLE_UNIT()
);
#574=DIMENSIONAL_EXPONENTS(0.,0.,0.,0.,0.,0.,0.);
#575=PLANE_ANGLE_MEASURE_WITH_UNIT(PLANE_ANGLE_MEASURE(0.0174532925),#576);
#576=(
NAMED_UNIT(*)
PLANE_ANGLE_UNIT()
SI_UNIT($,.RADIAN.)
);
#577=(
LENGTH_UNIT()
NAMED_UNIT(*)
SI_UNIT(.MILLI.,.METRE.)
);
ENDSEC;
END-ISO-10303-21;
