0
SECTION
2
HEADER
9
$ACADVER
1
AC1015
9
$DWGCODEPAGE
3
ANSI_1252
9
$HANDSEED
5
289
9
$ANGBASE
50
0
9
$ANGDIR
70
0
9
$ATTMODE
70
1
9
$AUNITS
70
0
9
$AUPREC
70
0
9
$CECOLOR
62
256
9
$CELTSCALE
40
1
9
$CELTYPE
6
ByLayer
9
$CELWEIGHT
370
18
9
$CLAYER
8
0
9
$CMLJUST
70
0
9
$CMLSCALE
40
1
9
$CMLSTYLE
2
Standard
9
$DIMSTYLE
2
Standard
9
$TEXTSIZE
40
0.2
9
$TEXTSTYLE
7
Standard
9
$LUNITS
70
2
9
$LUPREC
70
4
9
$EXTNAMES
290
1
9
$INSUNITS
70
4
9
$LTSCALE
40
1
9
$LWDISPLAY
290
1
9
$PDMODE
70
0
9
$PDSIZE
40
0
9
$PLINEGEN
70
0
0
ENDSEC
0
SECTION
2
CLASSES
0
CLASS
1
RASTERVARIABLES
2
AcDbRasterVariables
3
ISM
90
0
280
0
281
0
0
ENDSEC
0
SECTION
2
TABLES
0
TABLE
2
VPORT
5
27f
100
AcDbSymbolTable
0
VPORT
5
1
100
AcDbSymbolTableRecord
100
AcDbViewportTableRecord
2
*Active
70
0
10
0
20
0
11
1
21
1
12
-1
22
1
13
0
23
0
14
0.5
24
0.5
15
10
25
10
16
0
26
0
36
1
17
0
27
0
37
0
0
ENDTAB
0
TABLE
2
LTYPE
5
280
100
AcDbSymbolTable
0
LTYPE
5
14
100
AcDbSymbolTableRecord
100
AcDbLinetypeTableRecord
70
0
2
ByBlock
3

72
65
73
0
40
0
0
LTYPE
5
15
100
AcDbSymbolTableRecord
100
AcDbLinetypeTableRecord
70
0
2
ByLayer
3

72
65
73
0
40
0
0
LTYPE
5
16
100
AcDbSymbolTableRecord
100
AcDbLinetypeTableRecord
70
0
2
Continuous
3
Solid line
72
65
73
0
40
0
0
LTYPE
5
6E
100
AcDbSymbolTableRecord
100
AcDbLinetypeTableRecord
70
0
2
CENTER
3
____ _ ____ _ ____ _ ____
72
65
73
4
40
47.5
49
22
74
0
49
-8.5
74
0
49
8.5
74
0
49
-8.5
74
0
0
LTYPE
5
6F
100
AcDbSymbolTableRecord
100
AcDbLinetypeTableRecord
70
0
2
DASHED
3
__ __ __ __ __ __ __ __ __
72
65
73
2
40
25.72
49
12.86
74
0
49
-12.86
74
0
0
ENDTAB
0
TABLE
2
LAYER
5
281
100
AcDbSymbolTable
0
LAYER
5
10
100
AcDbSymbolTableRecord
100
AcDbLayerTableRecord
2
0
70
0
62
7
6
Continuous
290
1
370
-3
390
0
0
LAYER
5
71
100
AcDbSymbolTableRecord
100
AcDbLayerTableRecord
2
2
70
0
62
7
6
Continuous
290
1
370
-3
390
0
0
LAYER
5
93
100
AcDbSymbolTableRecord
100
AcDbLayerTableRecord
2
81
70
0
62
-3
6
Continuous
290
1
370
-3
390
0
0
LAYER
5
95
100
AcDbSymbolTableRecord
100
AcDbLayerTableRecord
2
80
70
0
62
-6
6
Continuous
290
1
370
-3
390
0
0
LAYER
5
97
100
AcDbSymbolTableRecord
100
AcDbLayerTableRecord
2
1
70
0
62
4
6
Continuous
290
1
370
-3
390
0
0
LAYER
5
A4
100
AcDbSymbolTableRecord
100
AcDbLayerTableRecord
2
4
70
0
62
-2
6
CENTER
290
1
370
-3
390
0
0
LAYER
5
26b
100
AcDbSymbolTableRecord
100
AcDbLayerTableRecord
2
SK4
70
0
62
2
6
CENTER
290
1
370
-3
390
0
0
LAYER
5
26c
100
AcDbSymbolTableRecord
100
AcDbLayerTableRecord
2
SK1
70
0
62
4
6
Continuous
290
1
370
-3
390
0
0
LAYER
5
26d
100
AcDbSymbolTableRecord
100
AcDbLayerTableRecord
2
SK2
70
0
62
7
6
Continuous
290
1
370
-3
390
0
0
LAYER
5
26e
100
AcDbSymbolTableRecord
100
AcDbLayerTableRecord
2
SK6
70
0
62
5
6
Continuous
290
1
370
-3
390
0
0
ENDTAB
0
TABLE
2
STYLE
5
282
100
AcDbSymbolTable
0
STYLE
5
11
100
AcDbSymbolTableRecord
100
AcDbTextStyleTableRecord
2
Standard
3
txt
70
0
71
0
40
0
41
1
42
0
50
0
0
STYLE
5
1E3
100
AcDbSymbolTableRecord
100
AcDbTextStyleTableRecord
2
iso_b_vert
3
simplex.shx
70
0
71
0
40
0
41
1
42
0
50
0
0
STYLE
5
1E4
100
AcDbSymbolTableRecord
100
AcDbTextStyleTableRecord
2
DWGDirectTextStyle
3
simplex
70
0
71
0
40
0
41
1
42
0
50
0
0
ENDTAB
0
TABLE
2
DIMSTYLE
5
283
100
AcDbSymbolTable
100
AcDbDimStyleTable
0
DIMSTYLE
105
27
100
AcDbSymbolTableRecord
100
AcDbDimStyleTableRecord
2
Standard
70
0
3
<>
41
0.18
42
0.0625
44
0.18
140
0.18
147
0.09
73
0
74
0
77
1
271
2
275
0
278
52
280
0
340
11
0
ENDTAB
0
TABLE
2
VIEW
5
284
100
AcDbSymbolTable
0
ENDTAB
0
TABLE
2
UCS
5
285
100
AcDbSymbolTable
0
ENDTAB
0
TABLE
2
APPID
5
286
100
AcDbSymbolTable
0
APPID
5
12
100
AcDbSymbolTableRecord
100
AcDbRegAppTableRecord
2
ACAD
70
0
0
APPID
5
267
100
AcDbSymbolTableRecord
100
AcDbRegAppTableRecord
2
ACAD_MLEADERVER
70
0
0
ENDTAB
0
TABLE
2
BLOCK_RECORD
5
287
100
AcDbSymbolTable
0
BLOCK_RECORD
5
1F
100
AcDbSymbolTableRecord
100
AcDbBlockTableRecord
2
*Model_Space
340
0
70
0
0
BLOCK_RECORD
5
1B
100
AcDbSymbolTableRecord
100
AcDbBlockTableRecord
2
*Paper_Space
340
0
70
0
0
BLOCK_RECORD
5
23
100
AcDbSymbolTableRecord
100
AcDbBlockTableRecord
2
*Paper_Space0
340
0
70
0
0
ENDTAB
0
ENDSEC
0
SECTION
2
BLOCKS
0
BLOCK
5
20
100
AcDbEntity
8
0
100
AcDbBlockBegin
2
*Model_Space
70
0
10
0
20
0
30
0
3
*Model_Space
0
ENDBLK
5
21
100
AcDbEntity
8
0
100
AcDbBlockEnd
0
BLOCK
5
1C
100
AcDbEntity
8
0
100
AcDbBlockBegin
2
*Paper_Space
70
0
10
0
20
0
30
0
3
*Paper_Space
0
ENDBLK
5
1D
100
AcDbEntity
8
0
100
AcDbBlockEnd
0
BLOCK
5
24
100
AcDbEntity
8
0
100
AcDbBlockBegin
2
*Paper_Space0
70
0
10
0
20
0
30
0
3
*Paper_Space0
0
ENDBLK
5
25
100
AcDbEntity
8
0
100
AcDbBlockEnd
0
ENDSEC
0
SECTION
2
ENTITIES
0
ARC
5
155
100
AcDbEntity
8
SK1
62
256
6
ByLayer
370
18
48
1
60
0
100
AcDbCircle
39
0
10
-0.6
20
18.75
30
0
40
0.999999999999998
210
0
220
0
230
1
100
AcDbArc
50
293.578178
51
306.869898
0
ARC
5
156
100
AcDbEntity
8
SK1
62
256
6
ByLayer
370
18
48
1
60
0
100
AcDbCircle
39
0
10
-0.6
20
-18.75
30
0
40
0.999999999999998
210
0
220
0
230
1
100
AcDbArc
50
53.130102
51
66.421822
0
ARC
5
157
100
AcDbEntity
8
1
62
256
6
ByLayer
370
18
48
1
60
0
100
AcDbCircle
39
0
10
145.8
20
-24.8
30
0
40
0.2
210
0
220
0
230
1
100
AcDbArc
50
270
51
0
0
ARC
5
158
100
AcDbEntity
8
1
62
256
6
ByLayer
370
18
48
1
60
0
100
AcDbCircle
39
0
10
145.8
20
24.8
30
0
40
0.2
210
0
220
0
230
1
100
AcDbArc
50
0
51
90
0
ARC
5
159
100
AcDbEntity
8
1
62
256
6
ByLayer
370
18
48
1
60
0
100
AcDbCircle
39
0
10
154.8
20
1.699495
30
0
40
0.2
210
0
220
0
230
1
100
AcDbArc
50
0
51
90
0
ARC
5
15A
100
AcDbEntity
8
1
62
256
6
ByLayer
370
18
48
1
60
0
100
AcDbCircle
39
0
10
154.8
20
8.099495
30
0
40
0.2
210
0
220
0
230
1
100
AcDbArc
50
270
51
0
0
ARC
5
15B
100
AcDbEntity
8
1
62
256
6
ByLayer
370
18
48
1
60
0
100
AcDbCircle
39
0
10
160.4
20
0.499495
30
0
40
0.6
210
0
220
0
230
1
100
AcDbArc
50
270
51
0
0
ARC
5
15C
100
AcDbEntity
8
1
62
256
6
ByLayer
370
18
48
1
60
0
100
AcDbCircle
39
0
10
160.4
20
9.299495
30
0
40
0.6
210
0
220
0
230
1
100
AcDbArc
50
0
51
90
0
ARC
5
15D
100
AcDbEntity
8
1
62
256
6
ByLayer
370
18
48
1
60
0
100
AcDbCircle
39
0
10
154.8
20
-18.099495
30
0
40
0.2
210
0
220
0
230
1
100
AcDbArc
50
0
51
90
0
ARC
5
15E
100
AcDbEntity
8
1
62
256
6
ByLayer
370
18
48
1
60
0
100
AcDbCircle
39
0
10
154.8
20
-11.699495
30
0
40
0.2
210
0
220
0
230
1
100
AcDbArc
50
270
51
0
0
ARC
5
15F
100
AcDbEntity
8
1
62
256
6
ByLayer
370
18
48
1
60
0
100
AcDbCircle
39
0
10
160.4
20
-19.299495
30
0
40
0.6
210
0
220
0
230
1
100
AcDbArc
50
270
51
0
0
ARC
5
160
100
AcDbEntity
8
1
62
256
6
ByLayer
370
18
48
1
60
0
100
AcDbCircle
39
0
10
160.4
20
-10.499495
30
0
40
0.6
210
0
220
0
230
1
100
AcDbArc
50
0
51
90
0
ARC
5
161
100
AcDbEntity
8
1
62
256
6
ByLayer
370
18
48
1
60
0
100
AcDbCircle
39
0
10
148.5
20
15.5
30
0
40
0.5
210
0
220
0
230
1
100
AcDbArc
50
180
51
270
0
ARC
5
162
100
AcDbEntity
8
1
62
256
6
ByLayer
370
18
48
1
60
0
100
AcDbCircle
39
0
10
146.2
20
-24.8
30
0
40
0.2
210
0
220
0
230
1
100
AcDbArc
50
180
51
270
0
ARC
5
163
100
AcDbEntity
8
1
62
256
6
ByLayer
370
18
48
1
60
0
100
AcDbCircle
39
0
10
146.2
20
24.8
30
0
40
0.2
210
0
220
0
230
1
100
AcDbArc
50
90
51
180
0
ELLIPSE
5
164
100
AcDbEntity
8
1
62
256
6
ByLayer
370
18
48
1
60
0
100
AcDbEllipse
10
-1.056258
20
0
30
0
11
11.7092723497262
21
24.6771864409363
31
0
210
0
220
0
230
1
40
0.341999
41
-1.08183270048931
42
-0.16721307190899
0
ELLIPSE
5
165
100
AcDbEntity
8
1
62
256
6
ByLayer
370
18
48
1
60
0
100
AcDbEllipse
10
21.056258
20
0
30
0
11
11.7092723497267
21
-24.6771864409366
31
0
210
0
220
0
230
1
40
0.341999
41
-2.97437958168081
42
-2.0597599531005
0
ELLIPSE
5
166
100
AcDbEntity
8
1
62
256
6
ByLayer
370
18
48
1
60
0
100
AcDbEllipse
10
21.056258
20
0
30
0
11
11.7092723497271
21
24.677186440937
31
0
210
0
220
0
230
1
40
0.341999
41
2.05975995310051
42
2.97437958168081
0
ELLIPSE
5
167
100
AcDbEntity
8
1
62
256
6
ByLayer
370
18
48
1
60
0
100
AcDbEllipse
10
-1.056258
20
0
30
0
11
11.7092723497261
21
-24.6771864409361
31
0
210
0
220
0
230
1
40
0.341999
41
0.167213071908989
42
1.08183270048931
0
ELLIPSE
5
168
100
AcDbEntity
8
1
62
256
6
ByLayer
370
13
48
1
60
0
100
AcDbEllipse
10
148.5
20
-22.975
30
0
11
-0.5
21
6.12303176911189E-17
31
0
210
0
220
0
230
1
40
0.876829
41
-1.5707963267949
42
-0.526344188061866
0
POINT
5
70
100
AcDbEntity
8
2
62
256
6
ByLayer
370
18
48
1
60
0
100
AcDbPoint
10
151
20
4.899495
30
0
39
0
210
0
220
0
230
1
50
360
0
POINT
5
72
100
AcDbEntity
8
2
62
256
6
ByLayer
370
18
48
1
60
0
100
AcDbPoint
10
155
20
-14.899495
30
0
39
0
210
0
220
0
230
1
50
360
0
POINT
5
73
100
AcDbEntity
8
2
62
256
6
ByLayer
370
18
48
1
60
0
100
AcDbPoint
10
115
20
0
30
0
39
0
210
0
220
0
230
1
50
360
0
POINT
5
74
100
AcDbEntity
8
2
62
256
6
ByLayer
370
18
48
1
60
0
100
AcDbPoint
10
151
20
4.899495
30
0
39
0
210
0
220
0
230
1
50
360
0
POINT
5
75
100
AcDbEntity
8
2
62
256
6
ByLayer
370
18
48
1
60
0
100
AcDbPoint
10
130
20
0
30
0
39
0
210
0
220
0
230
1
50
360
0
POINT
5
76
100
AcDbEntity
8
2
62
256
6
ByLayer
370
18
48
1
60
0
100
AcDbPoint
10
137
20
0
30
0
39
0
210
0
220
0
230
1
50
360
0
POINT
5
77
100
AcDbEntity
8
2
62
256
6
ByLayer
370
18
48
1
60
0
100
AcDbPoint
10
155
20
-14.899495
30
0
39
0
210
0
220
0
230
1
50
360
0
POINT
5
78
100
AcDbEntity
8
2
62
256
6
ByLayer
370
18
48
1
60
0
100
AcDbPoint
10
80
20
0
30
0
39
0
210
0
220
0
230
1
50
360
0
POINT
5
79
100
AcDbEntity
8
2
62
256
6
ByLayer
370
18
48
1
60
0
100
AcDbPoint
10
147.37476
20
-5
30
0
39
0
210
0
220
0
230
1
50
360
0
POINT
5
7A
100
AcDbEntity
8
2
62
256
6
ByLayer
370
18
48
1
60
0
100
AcDbPoint
10
151
20
-14.899495
30
0
39
0
210
0
220
0
230
1
50
360
0
POINT
5
7B
100
AcDbEntity
8
2
62
256
6
ByLayer
370
18
48
1
60
0
100
AcDbPoint
10
130
20
0
30
0
39
0
210
0
220
0
230
1
50
360
0
POINT
5
7C
100
AcDbEntity
8
2
62
256
6
ByLayer
370
18
48
1
60
0
100
AcDbPoint
10
65
20
0
30
0
39
0
210
0
220
0
230
1
50
360
0
POINT
5
7D
100
AcDbEntity
8
2
62
256
6
ByLayer
370
18
48
1
60
0
100
AcDbPoint
10
115
20
0
30
0
39
0
210
0
220
0
230
1
50
360
0
POINT
5
7E
100
AcDbEntity
8
2
62
256
6
ByLayer
370
18
48
1
60
0
100
AcDbPoint
10
80
20
0
30
0
39
0
210
0
220
0
230
1
50
360
0
POINT
5
7F
100
AcDbEntity
8
2
62
256
6
ByLayer
370
18
48
1
60
0
100
AcDbPoint
10
69.875
20
0
30
0
39
0
210
0
220
0
230
1
50
360
0
POINT
5
80
100
AcDbEntity
8
2
62
256
6
ByLayer
370
18
48
1
60
0
100
AcDbPoint
10
125.125
20
0
30
0
39
0
210
0
220
0
230
1
50
360
0
POINT
5
81
100
AcDbEntity
8
2
62
256
6
ByLayer
370
18
48
1
60
0
100
AcDbPoint
10
60.3
20
0
30
0
39
0
210
0
220
0
230
1
50
360
0
POINT
5
82
100
AcDbEntity
8
2
62
256
6
ByLayer
370
18
48
1
60
0
100
AcDbPoint
10
60.55
20
0
30
0
39
0
210
0
220
0
230
1
50
360
0
POINT
5
83
100
AcDbEntity
8
2
62
256
6
ByLayer
370
18
48
1
60
0
100
AcDbPoint
10
56.1
20
0
30
0
39
0
210
0
220
0
230
1
50
360
0
POINT
5
84
100
AcDbEntity
8
2
62
256
6
ByLayer
370
18
48
1
60
0
100
AcDbPoint
10
64.5
20
0
30
0
39
0
210
0
220
0
230
1
50
360
0
POINT
5
85
100
AcDbEntity
8
2
62
256
6
ByLayer
370
18
48
1
60
0
100
AcDbPoint
10
65
20
0
30
0
39
0
210
0
220
0
230
1
50
360
0
POINT
5
86
100
AcDbEntity
8
2
62
256
6
ByLayer
370
18
48
1
60
0
100
AcDbPoint
10
56.1
20
14
30
0
39
0
210
0
220
0
230
1
50
360
0
POINT
5
87
100
AcDbEntity
8
2
62
256
6
ByLayer
370
18
48
1
60
0
100
AcDbPoint
10
137
20
0
30
0
39
0
210
0
220
0
230
1
50
360
0
POINT
5
88
100
AcDbEntity
8
2
62
256
6
ByLayer
370
18
48
1
60
0
100
AcDbPoint
10
137
20
0
30
0
39
0
210
0
220
0
230
1
50
360
0
POINT
5
89
100
AcDbEntity
8
2
62
256
6
ByLayer
370
18
48
1
60
0
100
AcDbPoint
10
146
20
0
30
0
39
0
210
0
220
0
230
1
50
360
0
POINT
5
8A
100
AcDbEntity
8
2
62
256
6
ByLayer
370
18
48
1
60
0
100
AcDbPoint
10
122
20
0
30
0
39
0
210
0
220
0
230
1
50
360
0
POINT
5
8B
100
AcDbEntity
8
2
62
256
6
ByLayer
370
18
48
1
60
0
100
AcDbPoint
10
147.37476
20
-5
30
0
39
0
210
0
220
0
230
1
50
360
0
POINT
5
8C
100
AcDbEntity
8
2
62
256
6
ByLayer
370
18
48
1
60
0
100
AcDbPoint
10
150
20
-5
30
0
39
0
210
0
220
0
230
1
50
360
0
POINT
5
8D
100
AcDbEntity
8
2
62
256
6
ByLayer
370
18
48
1
60
0
100
AcDbPoint
10
150
20
-5
30
0
39
0
210
0
220
0
230
1
50
360
0
POINT
5
8E
100
AcDbEntity
8
2
62
256
6
ByLayer
370
50
48
1
60
0
100
AcDbPoint
10
130.5
20
0
30
0
39
0
210
0
220
0
230
1
50
360
0
POINT
5
8F
100
AcDbEntity
8
2
62
256
6
ByLayer
370
18
48
1
60
0
100
AcDbPoint
10
130
20
0
30
0
39
0
210
0
220
0
230
1
50
360
0
POINT
5
90
100
AcDbEntity
8
2
62
256
6
ByLayer
370
50
48
1
60
0
100
AcDbPoint
10
155
20
0
30
0
39
0
210
0
220
0
230
1
50
360
0
POINT
5
91
100
AcDbEntity
8
2
62
256
6
ByLayer
370
18
48
1
60
0
100
AcDbPoint
10
146
20
0
30
0
39
0
210
0
220
0
230
1
50
360
0
POINT
5
92
100
AcDbEntity
8
81
62
256
6
ByLayer
370
18
48
1
60
0
100
AcDbPoint
10
150
20
-5
30
0
39
0
210
0
220
0
230
1
50
360
0
POINT
5
94
100
AcDbEntity
8
80
62
256
6
ByLayer
370
18
48
1
60
0
100
AcDbPoint
10
0
20
0
30
0
39
0
210
0
220
0
230
1
50
360
0
POINT
5
96
100
AcDbEntity
8
1
62
256
6
ByLayer
370
13
48
1
60
1
100
AcDbPoint
10
142.05
20
-14.899495
30
0
39
0
210
0
220
0
230
1
50
360
0
POINT
5
98
100
AcDbEntity
8
1
62
256
6
ByLayer
370
13
48
1
60
1
100
AcDbPoint
10
161.9
20
-14.899495
30
0
39
0
210
0
220
0
230
1
50
360
0
POINT
5
99
100
AcDbEntity
8
1
62
256
6
ByLayer
370
13
48
1
60
1
100
AcDbPoint
10
146.330172
20
-5
30
0
39
0
210
0
220
0
230
1
50
360
0
POINT
5
9A
100
AcDbEntity
8
1
62
256
6
ByLayer
370
13
48
1
60
1
100
AcDbPoint
10
151.82476
20
-5
30
0
39
0
210
0
220
0
230
1
50
360
0
POINT
5
9B
100
AcDbEntity
8
1
62
256
6
ByLayer
370
13
48
1
60
1
100
AcDbPoint
10
149.52
20
0
30
0
39
0
210
0
220
0
230
1
50
360
0
POINT
5
9C
100
AcDbEntity
8
1
62
256
6
ByLayer
370
13
48
1
60
1
100
AcDbPoint
10
144.7
20
0
30
0
39
0
210
0
220
0
230
1
50
360
0
POINT
5
9D
100
AcDbEntity
8
1
62
256
6
ByLayer
370
13
48
1
60
1
100
AcDbPoint
10
142.05
20
4.899495
30
0
39
0
210
0
220
0
230
1
50
360
0
POINT
5
9E
100
AcDbEntity
8
1
62
256
6
ByLayer
370
13
48
1
60
1
100
AcDbPoint
10
161.9
20
4.899495
30
0
39
0
210
0
220
0
230
1
50
360
0
SPLINE
5
169
100
AcDbEntity
8
SK1
62
256
6
ByLayer
370
18
48
1
60
0
100
AcDbSpline
70
4
71
3
72
45
73
41
40
0
40
0
40
0
40
0
40
0.0236943061961297
40
0.0517123098727675
40
0.0797303135494053
40
0.107748317226043
40
0.163784324579319
40
0.219820331932595
40
0.247838335609232
40
0.27585633928587
40
0.303874342962508
40
0.331892346639146
40
0.359910350315784
40
0.387928353992421
40
0.415946357669059
40
0.429955359507378
40
0.443964361345697
40
0.471982365022335
40
0.485991366860654
40
0.492995867779813
40
0.500000368698973
40
0.507004869618132
40
0.514009370537292
40
0.528018372375611
40
0.556036376052249
40
0.570045377890567
40
0.584054379728886
40
0.612072383405524
40
0.640090387082162
40
0.6681083907588
40
0.696126394435438
40
0.724144398112076
40
0.752162401788714
40
0.780180405465351
40
0.836216412818627
40
0.892252420171903
40
0.920270423848541
40
0.948288427525178
40
0.976306431201816
40
1
40
1
40
1
40
1
41
1
10
-30
20
-15.9931892301902
30
0
41
1
10
-30
20
-15.9976541733428
30
0
41
1
10
-30
20
-15.9670776495424
30
0
41
1
10
-30
20
-15.7965331178349
30
0
41
1
10
-30
20
-15.4890632796305
30
0
41
1
10
-30
20
-14.9202435431778
30
0
41
1
10
-30
20
-13.9430327235571
30
0
41
1
10
-30
20
-12.6450678356931
30
0
41
1
10
-30
20
-11.42137036219
30
0
41
1
10
-30
20
-10.4224345134304
30
0
41
1
10
-30
20
-9.34179268341308
30
0
41
1
10
-30
20
-8.18272261240929
30
0
41
1
10
-30
20
-6.94914665451273
30
0
41
1
10
-30
20
-5.64597210397022
30
0
41
1
10
-30
20
-4.51272453462846
30
0
41
1
10
-30
20
-3.56968201835696
30
0
41
1
10
-30
20
-2.61530592334967
30
0
41
1
10
-30
20
-1.67591474804155
30
0
41
1
10
-30
20
-0.833341855678952
30
0
41
1
10
-30
20
-0.354131622770439
30
0
41
1
10
-30
20
4.002277763E-07
30
0
41
1
10
-30
20
0.354131996183753
30
0
41
1
10
-30
20
0.8333415404785
30
0
41
1
10
-30
20
1.675914880346
30
0
41
1
10
-30
20
2.61530613672116
30
0
41
1
10
-30
20
3.56968220154852
30
0
41
1
10
-30
20
4.51272494557483
30
0
41
1
10
-30
20
5.64597176408017
30
0
41
1
10
-30
20
6.94914704263559
30
0
41
1
10
-30
20
8.18272269843541
30
0
41
1
10
-30
20
9.34179238961872
30
0
41
1
10
-30
20
10.4224348167646
30
0
41
1
10
-30
20
11.4213703912989
30
0
41
1
10
-30
20
12.6450674903883
30
0
41
1
10
-30
20
13.9430330734595
30
0
41
1
10
-30
20
14.9202427964398
30
0
41
1
10
-30
20
15.4890634139888
30
0
41
1
10
-30
20
15.7965327535813
30
0
41
1
10
-30
20
15.9670755134507
30
0
41
1
10
-30
20
15.9976531646098
30
0
41
1
10
-30
20
15.9931895359857
30
0
0
SPLINE
5
16A
100
AcDbEntity
8
SK1
62
256
6
ByLayer
370
18
48
1
60
0
100
AcDbSpline
70
4
71
3
72
38
73
34
40
0
40
0
40
0
40
0
40
0.250000000000004
40
0.250000000000004
40
0.375000000000005
40
0.375000000000005
40
0.500000000000006
40
0.500000000000006
40
0.625000000000007
40
0.625000000000007
40
0.687500000000007
40
0.687500000000007
40
0.750000000000006
40
0.750000000000006
40
0.812500000000005
40
0.812500000000005
40
0.843750000000004
40
0.843750000000004
40
0.875000000000004
40
0.875000000000004
40
0.906250000000003
40
0.906250000000003
40
0.921875000000003
40
0.921875000000003
40
0.937500000000002
40
0.937500000000002
40
0.953125000000002
40
0.953125000000002
40
0.968750000000001
40
0.968750000000001
40
0.984375000000001
40
0.984375000000001
40
1
40
1
40
1
40
1
41
1
10
-0.199999999999989
20
-6.07843116862819
30
0
41
1
10
-0.200329859654715
20
-6.01357702681216
30
0
41
1
10
-0.201930655445068
20
-5.94848814748264
30
0
41
1
10
-0.207062820514693
20
-5.85044931358669
30
0
41
1
10
-0.20923421427949
20
-5.81770188154849
30
0
41
1
10
-0.214779228537765
20
-5.75205694597241
30
0
41
1
10
-0.218149341071296
20
-5.71913713924843
30
0
41
1
10
-0.226581907125762
20
-5.65322539657006
30
0
41
1
10
-0.231616433421465
20
-5.62029294902339
30
0
41
1
10
-0.241184891539916
20
-5.57099638970121
30
0
41
1
10
-0.244723140953198
20
-5.55455058376137
30
0
41
1
10
-0.252718404682298
20
-5.5218878599284
30
0
41
1
10
-0.257164394743881
20
-5.50568135296541
30
0
41
1
10
-0.267422418729012
20
-5.47365965349934
30
0
41
1
10
-0.27320640701916
20
-5.45783596374696
30
0
41
1
10
-0.283724888361974
20
-5.43464123738531
30
0
41
1
10
-0.287542348293414
20
-5.4270010731546
30
0
41
1
10
-0.296164698039007
20
-5.41201401791545
30
0
41
1
10
-0.301003751718952
20
-5.40461199814789
30
0
41
1
10
-0.312019326339481
20
-5.39094692539055
30
0
41
1
10
-0.318249907555923
20
-5.38460165612528
30
0
41
1
10
-0.328982330604219
20
-5.37709874944122
30
0
41
1
10
-0.332865959292377
20
-5.37490714744834
30
0
41
1
10
-0.340905624745204
20
-5.37162929612282
30
0
41
1
10
-0.34515378855366
20
-5.37051023807433
30
0
41
1
10
-0.353672033871135
20
-5.36955188220819
30
0
41
1
10
-0.357904387099552
20
-5.36969675293611
30
0
41
1
10
-0.366271728735939
20
-5.37110702101791
30
0
41
1
10
-0.370241250613816
20
-5.3723360299343
30
0
41
1
10
-0.377868038063696
20
-5.37555831609174
30
0
41
1
10
-0.381539373885118
20
-5.37756780385979
30
0
41
1
10
-0.388473887026265
20
-5.38206549938212
30
0
41
1
10
-0.391760928947491
20
-5.38456196831947
30
0
41
1
10
-0.394913799811292
20
-5.38724256160012
30
0
0
SPLINE
5
16B
100
AcDbEntity
8
SK1
62
256
6
ByLayer
370
18
48
1
60
0
100
AcDbSpline
70
4
71
3
72
38
73
34
40
0
40
0
40
0
40
0
40
0.0156250000000001
40
0.0156250000000001
40
0.0312500000000002
40
0.0312500000000002
40
0.0468750000000004
40
0.0468750000000004
40
0.0625000000000005
40
0.0625000000000005
40
0.0781250000000006
40
0.0781250000000006
40
0.0937500000000007
40
0.0937500000000007
40
0.125000000000002
40
0.125000000000002
40
0.156250000000003
40
0.156250000000003
40
0.187500000000004
40
0.187500000000004
40
0.250000000000004
40
0.250000000000004
40
0.312500000000003
40
0.312500000000003
40
0.375000000000003
40
0.375000000000003
40
0.500000000000001
40
0.500000000000001
40
0.625
40
0.625
40
0.749999999999999
40
0.749999999999999
40
1
40
1
40
1
40
1
41
1
10
-0.394913799809103
20
5.38724490303883
30
0
41
1
10
-0.391781832950699
20
5.38458208568073
30
0
41
1
10
-0.388519962703782
20
5.3821033059937
30
0
41
1
10
-0.381650196472492
20
5.37763658736259
30
0
41
1
10
-0.378006935713074
20
5.37563233451903
30
0
41
1
10
-0.370423579197166
20
5.3724029821978
30
0
41
1
10
-0.366503702076443
20
5.37117873901857
30
0
41
1
10
-0.358331183030089
20
5.36974313779842
30
0
41
1
10
-0.35401586551319
20
5.36955368909105
30
0
41
1
10
-0.345568573158772
20
5.37043109064084
30
0
41
1
10
-0.341321667102989
20
5.37150405183561
30
0
41
1
10
-0.333263890221929
20
5.37470929745373
30
0
41
1
10
-0.329419339218219
20
5.37683593115614
30
0
41
1
10
-0.318577749103326
20
5.38430052549953
30
0
41
1
10
-0.312400979321524
20
5.39054104494755
30
0
41
1
10
-0.301354650858116
20
5.40411801099191
30
0
41
1
10
-0.296591327986164
20
5.41134235290917
30
0
41
1
10
-0.28792239407619
20
5.42628126698935
30
0
41
1
10
-0.284017391060786
20
5.43403466061349
30
0
41
1
10
-0.273296210573335
20
5.45757128507682
30
0
41
1
10
-0.267463037667511
20
5.47353830586408
30
0
41
1
10
-0.257144178245824
20
5.50574351678898
30
0
41
1
10
-0.252692130238899
20
5.52198910291162
30
0
41
1
10
-0.244699800125915
20
5.55465646091204
30
0
41
1
10
-0.241167183894675
20
5.57107991706795
30
0
41
1
10
-0.231573562776475
20
5.62053570750788
30
0
41
1
10
-0.22653373528064
20
5.65356559342146
30
0
41
1
10
-0.218124597314045
20
5.71937115218233
30
0
41
1
10
-0.214765406462959
20
5.75220767186642
30
0
41
1
10
-0.20923073586448
20
5.81775962891638
30
0
41
1
10
-0.207061534202296
20
5.85047499196594
30
0
41
1
10
-0.201932717755398
20
5.94845143863458
30
0
41
1
10
-0.200330038101583
20
6.01354333629638
30
0
41
1
10
-0.199999999999989
20
6.07843244581235
30
0
0
SPLINE
5
16C
100
AcDbEntity
8
SK1
62
256
6
ByLayer
370
13
48
1
60
0
100
AcDbSpline
70
4
71
3
72
20
73
16
40
0
40
0
40
0
40
0
40
0.0453685402398929
40
0.113618264781273
40
0.181867989322653
40
0.250117713864033
40
0.318367438405413
40
0.386617162946793
40
0.454866887488173
40
0.591366336570933
40
0.727865785653693
40
0.796115510195073
40
0.864365234736452
40
0.932614959277833
40
1
40
1
40
1
40
1
41
1
10
-0.394913799811292
20
-5.38724256160785
30
0
41
1
10
-0.394913799811292
20
-5.7190547501427
30
0
41
1
10
-0.394913799811292
20
-6.5348354946259
30
0
41
1
10
-0.394913799811292
20
-7.7796880789966
30
0
41
1
10
-0.394913799811292
20
-9.09679923539034
30
0
41
1
10
-0.394913799811292
20
-10.3283869583107
30
0
41
1
10
-0.394913799811292
20
-11.4729576347282
30
0
41
1
10
-0.394913799811292
20
-12.5286533763275
30
0
41
1
10
-0.394913799811292
20
-13.8156305223415
30
0
41
1
10
-0.394913799811292
20
-15.1889742433629
30
0
41
1
10
-0.394913799811292
20
-16.224825355641
30
0
41
1
10
-0.394913799811292
20
-16.8259463034278
30
0
41
1
10
-0.394913799811292
20
-17.1536380024563
30
0
41
1
10
-0.394913799811292
20
-17.3456596443479
30
0
41
1
10
-0.394913799811292
20
-17.3741382160724
30
0
41
1
10
-0.394913799811206
20
-17.3602188927072
30
0
0
SPLINE
5
16D
100
AcDbEntity
8
SK1
62
256
6
ByLayer
370
18
48
1
60
0
100
AcDbSpline
70
4
71
3
72
50
73
46
40
0
40
0
40
0
40
0
40
0.0312500000000003
40
0.0312500000000003
40
0.0468750000000004
40
0.0468750000000004
40
0.0625000000000005
40
0.0625000000000005
40
0.0781250000000006
40
0.0781250000000006
40
0.0937500000000008
40
0.0937500000000008
40
0.109375000000001
40
0.109375000000001
40
0.125000000000001
40
0.125000000000001
40
0.140625000000001
40
0.140625000000001
40
0.156250000000001
40
0.156250000000001
40
0.187500000000001
40
0.187500000000001
40
0.218750000000002
40
0.218750000000002
40
0.250000000000002
40
0.250000000000002
40
0.281250000000002
40
0.281250000000002
40
0.312500000000002
40
0.312500000000002
40
0.375000000000002
40
0.375000000000002
40
0.437500000000003
40
0.437500000000003
40
0.500000000000003
40
0.500000000000003
40
0.625000000000003
40
0.625000000000003
40
0.687500000000003
40
0.687500000000003
40
0.750000000000003
40
0.750000000000003
40
0.875000000000001
40
0.875000000000001
40
1
40
1
40
1
40
1
41
1
10
-0.394913799811292
20
-5.38724256160785
30
0
41
1
10
-0.411056331481689
20
-5.40096705709072
30
0
41
1
10
-0.428167571421085
20
-5.41359596702645
30
0
41
1
10
-0.455974774655147
20
-5.43013648208
30
0
41
1
10
-0.465658214706991
20
-5.43526409556435
30
0
41
1
10
-0.485484698823484
20
-5.44430592701531
30
0
41
1
10
-0.495657428995088
20
-5.44824432393753
30
0
41
1
10
-0.516608715435041
20
-5.45476351226009
30
0
41
1
10
-0.527386860231843
20
-5.45734523281897
30
0
41
1
10
-0.549664818445279
20
-5.46089328829356
30
0
41
1
10
-0.560930035443789
20
-5.46180969649637
30
0
41
1
10
-0.58336584661788
20
-5.4618713105761
30
0
41
1
10
-0.594591467840047
20
-5.46102572365922
30
0
41
1
10
-0.617058166617738
20
-5.45757599588921
30
0
41
1
10
-0.627999143283205
20
-5.45501931647436
30
0
41
1
10
-0.649331735085582
20
-5.44848807488123
30
0
41
1
10
-0.659758151599817
20
-5.44449947952498
30
0
41
1
10
-0.68003652504504
20
-5.43533205618729
30
0
41
1
10
-0.689742098894556
20
-5.43022628481569
30
0
41
1
10
-0.717826906306072
20
-5.41366379171245
30
0
41
1
10
-0.735187935399324
20
-5.40097830060952
30
0
41
1
10
-0.768034946557918
20
-5.3733304614868
30
0
41
1
10
-0.783237057424145
20
-5.35859529837754
30
0
41
1
10
-0.811836627358673
20
-5.32802442998909
30
0
41
1
10
-0.825257514876
20
-5.31215335693128
30
0
41
1
10
-0.85080730255018
20
-5.27953884086708
30
0
41
1
10
-0.862932209486871
20
-5.26279281423709
30
0
41
1
10
-0.8861698860768
20
-5.22860723544372
30
0
41
1
10
-0.897260448987026
20
-5.21119248410568
30
0
41
1
10
-0.9290296408507
20
-5.15857889561175
30
0
41
1
10
-0.948347177186236
20
-5.12284414993096
30
0
41
1
10
-0.98448753502646
20
-5.05043807526349
30
0
41
1
10
-1.00129416978024
20
-5.01376164954297
30
0
41
1
10
-1.03304457478234
20
-4.93966608077309
30
0
41
1
10
-1.04798244371665
20
-4.90224508459647
30
0
41
1
10
-1.09059413059555
20
-4.78904752584498
30
0
41
1
10
-1.11609621830422
20
-4.71234577760799
30
0
41
1
10
-1.15135515985605
20
-4.5958383808707
30
0
41
1
10
-1.16260343866753
20
-4.55673847320068
30
0
41
1
10
-1.18417456263643
20
-4.47826299864514
30
0
41
1
10
-1.19450305218299
20
-4.43886894670428
30
0
41
1
10
-1.22429462395718
20
-4.32024366329264
30
0
41
1
10
-1.24257202444835
20
-4.24057073726354
30
0
41
1
10
-1.27661859809459
20
-4.08013408760158
30
0
41
1
10
-1.29238372607517
20
-3.99936988902869
30
0
41
1
10
-1.30710678118655
20
-3.91808269248796
30
0
0
SPLINE
5
16E
100
AcDbEntity
8
SK1
62
256
6
ByLayer
370
18
48
1
60
0
100
AcDbSpline
70
4
71
3
72
38
73
34
40
0
40
0
40
0
40
0
40
0.0624999999999996
40
0.0624999999999996
40
0.124999999999999
40
0.124999999999999
40
0.249999999999999
40
0.249999999999999
40
0.374999999999998
40
0.374999999999998
40
0.390624999999998
40
0.390624999999998
40
0.406249999999998
40
0.406249999999998
40
0.437499999999998
40
0.437499999999998
40
0.499999999999998
40
0.499999999999998
40
0.562499999999998
40
0.562499999999998
40
0.624999999999998
40
0.624999999999998
40
0.749999999999998
40
0.749999999999998
40
0.781249999999998
40
0.781249999999998
40
0.812499999999998
40
0.812499999999998
40
0.874999999999999
40
0.874999999999999
40
0.937499999999999
40
0.937499999999999
40
1
40
1
40
1
40
1
41
1
10
-1.30710678118655
20
-3.91808269248793
30
0
41
1
10
-1.33526487251859
20
-3.76261955749285
30
0
41
1
10
-1.36267126502631
20
-3.60631098585768
30
0
41
1
10
-1.41562242099803
20
-3.29187611045597
30
0
41
1
10
-1.44117770353176
20
-3.13375373985022
30
0
41
1
10
-1.51435013598103
20
-2.65639932915298
30
0
41
1
10
-1.55846884179033
20
-2.33418302861884
30
0
41
1
10
-1.63296978491243
20
-1.6800471987703
30
0
41
1
10
-1.66337509736468
20
-1.34813830750841
30
0
41
1
10
-1.68707319146449
20
-0.968091690681831
30
0
41
1
10
-1.68955923537888
20
-0.925771372654225
30
0
41
1
10
-1.69422507481974
20
-0.840939584978486
30
0
41
1
10
-1.69640659794263
20
-0.798386309984636
30
0
41
1
10
-1.70245250680873
20
-0.670897601193644
30
0
41
1
10
-1.70582437938029
20
-0.58605256890192
30
0
41
1
10
-1.71388361409092
20
-0.331968562038014
30
0
41
1
10
-1.71646782396985
20
-0.163187101305937
30
0
41
1
10
-1.71636335941631
20
0.173213348331842
30
0
41
1
10
-1.71367008139578
20
0.340831662555303
30
0
41
1
10
-1.70293626023371
20
0.674902568806118
30
0
41
1
10
-1.69494665814693
20
0.84136228930052
30
0
41
1
10
-1.66399327242203
20
1.33914312869115
30
0
41
1
10
-1.63408221528164
20
1.66887252592323
30
0
41
1
10
-1.5876007265538
20
2.07872253566575
30
0
41
1
10
-1.57784909269048
20
2.16057674059005
30
0
41
1
10
-1.55749771994263
20
2.32406172494169
30
0
41
1
10
-1.54688933197929
20
2.40575612114199
30
0
41
1
10
-1.51394731043968
20
2.65007047288915
30
0
41
1
10
-1.49055743488208
20
2.81150726182858
30
0
41
1
10
-1.44149329508792
20
3.13180385741538
30
0
41
1
10
-1.41582315096537
20
3.29066553946589
30
0
41
1
10
-1.36271475580057
20
3.60607338167009
30
0
41
1
10
-1.33526589565594
20
3.76261441071907
30
0
41
1
10
-1.30710678118655
20
3.91808311129768
30
0
0
SPLINE
5
16F
100
AcDbEntity
8
SK1
62
256
6
ByLayer
370
18
48
1
60
0
100
AcDbSpline
70
4
71
3
72
53
73
49
40
0
40
0
40
0
40
0
40
0.125000000000001
40
0.125000000000001
40
0.250000000000002
40
0.250000000000002
40
0.312500000000001
40
0.312500000000001
40
0.375
40
0.375
40
0.499999999999998
40
0.499999999999998
40
0.562499999999997
40
0.562499999999997
40
0.624999999999997
40
0.624999999999997
40
0.687499999999996
40
0.687499999999996
40
0.718749999999996
40
0.718749999999996
40
0.749999999999996
40
0.749999999999996
40
0.781249999999996
40
0.781249999999996
40
0.812499999999996
40
0.812499999999996
40
0.843749999999996
40
0.843749999999996
40
0.859374999999996
40
0.859374999999996
40
0.874999999999996
40
0.874999999999996
40
0.890624999999996
40
0.890624999999996
40
0.898437499999996
40
0.898437499999996
40
0.906249999999996
40
0.906249999999996
40
0.921874999999996
40
0.929687499999996
40
0.929687499999996
40
0.937499999999996
40
0.937499999999996
40
0.968749999999998
40
0.968749999999998
40
0.984374999999999
40
0.984374999999999
40
1
40
1
40
1
40
1
41
1
10
-1.30710678118655
20
3.91808311129773
30
0
41
1
10
-1.29239108240532
20
3.99932964943406
30
0
41
1
10
-1.27663490881506
20
4.08005058420358
30
0
41
1
10
-1.24261095077244
20
4.24039497937332
30
0
41
1
10
-1.22434718173432
20
4.32001891689728
30
0
41
1
10
-1.19458151328422
20
4.4385658061575
30
0
41
1
10
-1.18426257821704
20
4.47793290560358
30
0
41
1
10
-1.16271294340757
20
4.55635268985438
30
0
41
1
10
-1.15147501748677
20
4.59543056617446
30
0
41
1
10
-1.11622081339451
20
4.71196262616613
30
0
41
1
10
-1.09072783956063
20
4.7886606233923
30
0
41
1
10
-1.0481521641187
20
4.90181336669085
30
0
41
1
10
-1.0332301135569
20
4.93921284702586
30
0
41
1
10
-1.00152410230015
20
5.01324987497119
30
0
41
1
10
-0.984745886096846
20
5.04988928444084
30
0
41
1
10
-0.948685190430837
20
5.12220258194975
30
0
41
1
10
-0.9294183550615
20
5.15788155457784
30
0
41
1
10
-0.897760317588364
20
5.21039425330497
30
0
41
1
10
-0.88674297083648
20
5.22772922691763
30
0
41
1
10
-0.863513824307887
20
5.26197522516898
30
0
41
1
10
-0.851357742368549
20
5.27880041053604
30
0
41
1
10
-0.825828436847388
20
5.3114635713869
30
0
41
1
10
-0.812437519911725
20
5.32733553299158
30
0
41
1
10
-0.783971777383812
20
5.35785904442625
30
0
41
1
10
-0.768905931142342
20
5.3725169261117
30
0
41
1
10
-0.736341322354406
20
5.40008757388534
30
0
41
1
10
-0.718704728837821
20
5.41307616107991
30
0
41
1
10
-0.690494000998427
20
5.42981903443436
30
0
41
1
10
-0.680770506185979
20
5.43496537787163
30
0
41
1
10
-0.660532703009153
20
5.44418605279546
30
0
41
1
10
-0.650045797816915
20
5.44823342219189
30
0
41
1
10
-0.628779113835947
20
5.45481846069112
30
0
41
1
10
-0.617932285477139
20
5.4573891634796
30
0
41
1
10
-0.601299914959668
20
5.46002170773141
30
0
41
1
10
-0.595695338836947
20
5.46069496960087
30
0
41
1
10
-0.584356912700059
20
5.46160478770398
30
0
41
1
10
-0.578637021974174
20
5.46183701163631
30
0
41
1
10
-0.561675487241871
20
5.46185622962997
30
0
41
1
10
-0.544917445528711
20
5.460540346752
30
0
41
1
10
-0.528445210270348
20
5.45734844847985
30
0
41
1
10
-0.517525389033295
20
5.45481548249097
30
0
41
1
10
-0.512078734988137
20
5.4533397528954
30
0
41
1
10
-0.48545098532486
20
5.44513209892818
30
0
41
1
10
-0.465729936503891
20
5.43590631685376
30
0
41
1
10
-0.437770416117502
20
5.41932732155468
30
0
41
1
10
-0.428743917867422
20
5.41334179407005
30
0
41
1
10
-0.411386251483435
20
5.40075705360886
30
0
41
1
10
-0.403020392727001
20
5.39413717786459
30
0
41
1
10
-0.394913799811292
20
5.38724490303878
30
0
0
SPLINE
5
170
100
AcDbEntity
8
SK1
62
256
6
ByLayer
370
13
48
1
60
0
100
AcDbSpline
70
4
71
3
72
20
73
16
40
0
40
0
40
0
40
0
40
0.0673842631886348
40
0.135634051840884
40
0.203883840493134
40
0.272133629145383
40
0.408633206449882
40
0.545132783754381
40
0.613382572406631
40
0.68163236105888
40
0.74988214971113
40
0.818131938363379
40
0.886381727015629
40
0.954631515667878
40
1
40
1
40
1
40
1
41
1
10
-0.394913799811292
20
17.3602193112327
30
0
41
1
10
-0.394913799811292
20
17.3741378069522
30
0
41
1
10
-0.394913799811292
20
17.3456582492545
30
0
41
1
10
-0.394913799811292
20
17.1536376810083
30
0
41
1
10
-0.394913799811292
20
16.8259464323311
30
0
41
1
10
-0.394913799811292
20
16.2248245878661
30
0
41
1
10
-0.394913799811292
20
15.1889746622834
30
0
41
1
10
-0.394913799811292
20
13.8156301488903
30
0
41
1
10
-0.394913799811292
20
12.5286535254346
30
0
41
1
10
-0.394913799811292
20
11.4729578043957
30
0
41
1
10
-0.394913799811292
20
10.3283867090429
30
0
41
1
10
-0.394913799811292
20
9.09679950047928
30
0
41
1
10
-0.394913799811292
20
7.77968825069564
30
0
41
1
10
-0.394913799811292
20
6.53483606378791
30
0
41
1
10
-0.394913799811292
20
5.71905630139054
30
0
41
1
10
-0.394913799811292
20
5.38724490303878
30
0
0
SPLINE
5
171
100
AcDbEntity
8
SK1
62
256
6
ByLayer
370
13
48
1
60
0
100
AcDbSpline
70
4
71
3
72
45
73
41
40
0
40
0
40
0
40
0
40
0.0139247376828669
40
0.0425174014055547
40
0.0711100651282425
40
0.0997027288509303
40
0.156888056296306
40
0.214073383741682
40
0.242666047464369
40
0.271258711187057
40
0.299851374909745
40
0.328444038632433
40
0.357036702355121
40
0.385629366077808
40
0.414222029800496
40
0.42851836166184
40
0.442814693523184
40
0.471407357245872
40
0.485703689107216
40
0.492851855037888
40
0.50000002096856
40
0.507148186899232
40
0.514296352829903
40
0.528592684691247
40
0.557185348413935
40
0.571481680275279
40
0.585778012136623
40
0.614370675859311
40
0.642963339581999
40
0.671556003304686
40
0.700148667027374
40
0.728741330750062
40
0.75733399447275
40
0.785926658195438
40
0.843111985640813
40
0.900297313086189
40
0.928889976808877
40
0.957482640531565
40
0.986075304254252
40
1
40
1
40
1
40
1
41
1
10
-1.99503997793928
20
17.3200454241272
30
0
41
1
10
-1.99503997793928
20
17.3133442652534
30
0
41
1
10
-1.99503997793928
20
17.2734193806739
30
0
41
1
10
-1.99503997793928
20
17.1138751154123
30
0
41
1
10
-1.99503997793928
20
16.7867763596001
30
0
41
1
10
-1.99503997793928
20
16.1866009265939
30
0
41
1
10
-1.99503997793928
20
15.1524691326423
30
0
41
1
10
-1.99503997793928
20
13.7813331880937
30
0
41
1
10
-1.99503997793928
20
12.4962106263157
30
0
41
1
10
-1.99503997793928
20
11.4421779521075
30
0
41
1
10
-1.99503997793928
20
10.2994799380558
30
0
41
1
10
-1.99503997793928
20
9.07001746022104
30
0
41
1
10
-1.99503997793928
20
7.75535376586828
30
0
41
1
10
-1.99503997793928
20
6.35676341745574
30
0
41
1
10
-1.99503997793928
20
5.12318926412425
30
0
41
1
10
-1.99503997793928
20
4.09531236648536
30
0
41
1
10
-1.99503997793928
20
3.04236295320669
30
0
41
1
10
-1.99503997793928
20
1.95640625727882
30
0
41
1
10
-1.99503997793928
20
0.981337226851394
30
0
41
1
10
-1.99503997793928
20
0.420771319084707
30
0
41
1
10
-1.99503997793928
20
6.88173714E-08
30
0
41
1
10
-1.99503997793928
20
-0.420771221994357
30
0
41
1
10
-1.99503997793928
20
-0.981337209960486
30
0
41
1
10
-1.99503997793928
20
-1.95640624898675
30
0
41
1
10
-1.99503997793928
20
-3.04236280324244
30
0
41
1
10
-1.99503997793928
20
-4.0953123914187
30
0
41
1
10
-1.99503997793928
20
-5.12318891405303
30
0
41
1
10
-1.99503997793928
20
-6.35676356337376
30
0
41
1
10
-1.99503997793928
20
-7.7553535878281
30
0
41
1
10
-1.99503997793928
20
-9.07001720037854
30
0
41
1
10
-1.99503997793928
20
-10.2994801886281
30
0
41
1
10
-1.99503997793928
20
-11.4421777785236
30
0
41
1
10
-1.99503997793928
20
-12.4962104807245
30
0
41
1
10
-1.99503997793928
20
-13.7813335607202
30
0
41
1
10
-1.99503997793931
20
-15.152468715744
30
0
41
1
10
-1.99503997793931
20
-16.1866016937524
30
0
41
1
10
-1.99503997793931
20
-16.786776230537
30
0
41
1
10
-1.99503997793931
20
-17.1138754381145
30
0
41
1
10
-1.99503997793931
20
-17.2734198419457
30
0
41
1
10
-1.99503997793928
20
-17.313344471316
30
0
41
1
10
-1.99503997793928
20
-17.3200455756488
30
0
0
SPLINE
5
172
100
AcDbEntity
8
SK1
62
256
6
ByLayer
370
18
48
1
60
0
100
AcDbSpline
70
4
71
3
72
45
73
41
40
0
40
0
40
0
40
0
40
0.0138970650712242
40
0.0424913613776895
40
0.0710856576841547
40
0.09967995399062
40
0.156868546603551
40
0.214057139216481
40
0.242651435522946
40
0.271245731829411
40
0.299840028135877
40
0.328434324442342
40
0.357028620748807
40
0.385622917055273
40
0.414217213361738
40
0.42851436151497
40
0.442811509668203
40
0.471405805974668
40
0.485702954127901
40
0.492851528204517
40
0.500000102281133
40
0.50714867635775
40
0.514297250434366
40
0.528594398587599
40
0.557188694894064
40
0.571485843047297
40
0.585782991200529
40
0.614377287506994
40
0.64297158381346
40
0.671565880119925
40
0.70016017642639
40
0.728754472732855
40
0.757348769039321
40
0.785943065345786
40
0.843131657958716
40
0.900320250571647
40
0.928914546878112
40
0.957508843184577
40
0.986103139491043
40
1
40
1
40
1
40
1
41
1
10
-2.19999999999999
20
17.5147945433066
30
0
41
1
10
-2.19999999999999
20
17.5080193401224
30
0
41
1
10
-2.19999999999999
20
17.4676802402333
30
0
41
1
10
-2.19999999999999
20
17.3066644250431
30
0
41
1
10
-2.19999999999999
20
16.9766929599708
30
0
41
1
10
-2.19999999999999
20
16.3719288388599
30
0
41
1
10
-2.19999999999999
20
15.3294666616432
30
0
41
1
10
-2.19999999999999
20
13.9476224427057
30
0
41
1
10
-2.19999999999999
20
12.6535104390874
30
0
41
1
10
-2.19999999999999
20
11.5914144609754
30
0
41
1
10
-2.19999999999999
20
10.4396347881955
30
0
41
1
10
-2.19999999999999
20
9.19987052615136
30
0
41
1
10
-2.19999999999999
20
7.87333982787851
30
0
41
1
10
-2.19999999999999
20
6.4607857552443
30
0
41
1
10
-2.19999999999999
20
5.21252898167785
30
0
41
1
10
-2.19999999999999
20
4.17223684682958
30
0
41
1
10
-2.19999999999999
20
3.10486150423552
30
0
41
1
10
-2.19999999999999
20
1.99745537289451
30
0
41
1
10
-2.19999999999999
20
1.00299597482069
30
0
41
1
10
-2.19999999999999
20
0.430523794544825
30
0
41
1
10
-2.19999999999999
20
2.03164063E-08
30
0
41
1
10
-2.19999999999999
20
-0.430523737893537
30
0
41
1
10
-2.19999999999999
20
-1.00299590932914
30
0
41
1
10
-2.19999999999999
20
-1.99745538275133
30
0
41
1
10
-2.19999999999999
20
-3.10486136355075
30
0
41
1
10
-2.19999999999999
20
-4.17223690222141
30
0
41
1
10
-2.19999999999999
20
-5.21252864051553
30
0
41
1
10
-2.19999999999999
20
-6.46078587277509
30
0
41
1
10
-2.19999999999999
20
-7.87333968058334
30
0
41
1
10
-2.19999999999999
20
-9.19987024087132
30
0
41
1
10
-2.19999999999999
20
-10.4396350324424
30
0
41
1
10
-2.19999999999999
20
-11.5914143063801
30
0
41
1
10
-2.19999999999999
20
-12.6535102764493
30
0
41
1
10
-2.19999999999999
20
-13.9476228193307
30
0
41
1
10
-2.19999999999999
20
-15.3294662349403
30
0
41
1
10
-2.19999999999999
20
-16.3719296090069
30
0
41
1
10
-2.19999999999999
20
-16.9766928316826
30
0
41
1
10
-2.19999999999999
20
-17.3066647416643
30
0
41
1
10
-2.19999999999999
20
-17.4676803352332
30
0
41
1
10
-2.19999999999999
20
-17.5080192376098
30
0
41
1
10
-2.19999999999999
20
-17.5147944565538
30
0
0
SPLINE
5
173
100
AcDbEntity
8
SK1
62
256
6
ByLayer
370
18
48
1
60
0
100
AcDbSpline
70
4
71
3
72
45
73
41
40
0
40
0
40
0
40
0
40
0.0275256185867657
40
0.0553182319237927
40
0.0831108452608197
40
0.110903458597847
40
0.166488685271901
40
0.222073911945955
40
0.249866525282982
40
0.277659138620009
40
0.305451751957036
40
0.333244365294063
40
0.36103697863109
40
0.388829591968117
40
0.416622205305144
40
0.430518511973657
40
0.444414818642171
40
0.472207431979198
40
0.486103738647711
40
0.493051891981968
40
0.500000045316225
40
0.506948198650481
40
0.513896351984738
40
0.527792658653252
40
0.555585271990279
40
0.569481578658792
40
0.583377885327306
40
0.611170498664333
40
0.63896311200136
40
0.666755725338386
40
0.694548338675414
40
0.722340952012441
40
0.750133565349468
40
0.777926178686495
40
0.833511405360548
40
0.889096632034603
40
0.91688924537163
40
0.944681858708656
40
0.972474472045684
40
1
40
1
40
1
40
1
41
1
10
-28.5
20
16.8545102400787
30
0
41
1
10
-28.5
20
16.8681141435868
30
0
41
1
10
-28.5
20
16.8405420094298
30
0
41
1
10
-28.5
20
16.6531187925377
30
0
41
1
10
-28.5
20
16.3328856609547
30
0
41
1
10
-28.5
20
15.7436769514769
30
0
41
1
10
-28.5
20
14.7294543359372
30
0
41
1
10
-28.5
20
13.3839106046769
30
0
41
1
10
-28.5
20
12.1202723366856
30
0
41
1
10
-28.5
20
11.0855105352455
30
0
41
1
10
-28.5
20
9.96451720849825
30
0
41
1
10
-28.5
20
8.75967545377557
30
0
41
1
10
-28.5
20
7.47337327542297
30
0
41
1
10
-28.5
20
6.10815549439155
30
0
41
1
10
-28.5
20
4.9096720321497
30
0
41
1
10
-28.5
20
3.9114668992739
30
0
41
1
10
-28.5
20
2.89299469927084
30
0
41
1
10
-28.5
20
1.85830102725041
30
0
41
1
10
-28.5
20
0.929573956929886
30
0
41
1
10
-28.5
20
0.39746341502854
30
0
41
1
10
-28.5
20
1.847321585E-07
30
0
41
1
10
-28.5
20
-0.397463221290877
30
0
41
1
10
-28.5
20
-0.929574056191939
30
0
41
1
10
-28.5
20
-1.85830097558352
30
0
41
1
10
-28.5
20
-2.89299452712916
30
0
41
1
10
-28.5
20
-3.91146685141305
30
0
41
1
10
-28.5
20
-4.90967166078667
30
0
41
1
10
-28.5
20
-6.10815570815362
30
0
41
1
10
-28.5
20
-7.47337302390386
30
0
41
1
10
-28.5
20
-8.75967525472745
30
0
41
1
10
-28.5
20
-9.96451747418803
30
0
41
1
10
-28.5
20
-11.0855103162798
30
0
41
1
10
-28.5
20
-12.1202722318355
30
0
41
1
10
-28.5
20
-13.3839109677473
30
0
41
1
10
-28.5
20
-14.7294539424714
30
0
41
1
10
-28.5
20
-15.7436777114932
30
0
41
1
10
-28.5
20
-16.3328855300396
30
0
41
1
10
-28.5
20
-16.653119129773
30
0
41
1
10
-28.5
20
-16.8405423956861
30
0
41
1
10
-28.5
20
-16.8681141122902
30
0
41
1
10
-28.5
20
-16.8545104814838
30
0
0
SPLINE
5
174
100
AcDbEntity
8
1
62
256
6
ByLayer
370
18
48
1
60
0
100
AcDbSpline
70
4
71
3
72
26
73
22
40
0
40
0
40
0
40
0
40
0.0625000000000169
40
0.0625000000000169
40
0.0937500000000223
40
0.0937500000000223
40
0.125000000000028
40
0.125000000000028
40
0.25000000000003
40
0.25000000000003
40
0.375000000000032
40
0.375000000000032
40
0.43750000000003
40
0.43750000000003
40
0.500000000000029
40
0.500000000000029
40
0.62500000000002
40
0.62500000000002
40
0.750000000000011
40
0.750000000000011
40
1
40
1
40
1
40
1
41
1
10
11.4613248654052
20
23.8391299750502
30
0
41
1
10
11.4772013120199
20
23.8391299750502
30
0
41
1
10
11.4927843117432
20
23.8386381480423
30
0
41
1
10
11.5157579869923
20
23.8372273769848
30
0
41
1
10
11.5233488813096
20
23.8366445991221
30
0
41
1
10
11.5384012334117
20
23.8352611656444
30
0
41
1
10
11.5458956692735
20
23.8344558067494
30
0
41
1
10
11.582404000511
20
23.8299833264009
30
0
41
1
10
11.6089650834003
20
23.8249896713849
30
0
41
1
10
11.6582924559948
20
23.813005969379
30
0
41
1
10
11.6801688454703
20
23.8062336877525
30
0
41
1
10
11.7102266942347
20
23.7952700628808
30
0
41
1
10
11.719773612984
20
23.7914778883489
30
0
41
1
10
11.7380555263963
20
23.7836514357395
30
0
41
1
10
11.7468017366172
20
23.7796095569562
30
0
41
1
10
11.7716769242357
20
23.7673085978343
30
0
41
1
10
11.7865761040498
20
23.7588292909636
30
0
41
1
10
11.8138519277098
20
23.7414211400326
30
0
41
1
10
11.8262196262291
20
23.7324910902464
30
0
41
1
10
11.8602443227467
20
23.7051129235882
30
0
41
1
10
11.8788862370738
20
23.6860331168061
30
0
41
1
10
11.8943375672975
20
23.6665017920808
30
0
0
SPLINE
5
175
100
AcDbEntity
8
1
62
256
6
ByLayer
370
18
48
1
60
0
100
AcDbSpline
70
4
71
3
72
30
73
26
40
0
40
0
40
0
40
0
40
0.249999999999991
40
0.249999999999991
40
0.374999999999989
40
0.374999999999989
40
0.437499999999992
40
0.437499999999992
40
0.499999999999994
40
0.499999999999994
40
0.624999999999992
40
0.624999999999992
40
0.68749999999999
40
0.68749999999999
40
0.749999999999988
40
0.749999999999988
40
0.812499999999986
40
0.812499999999986
40
0.843749999999988
40
0.843749999999988
40
0.874999999999989
40
0.874999999999989
40
0.937499999999995
40
0.937499999999995
40
1
40
1
40
1
40
1
41
1
10
11.8943375672973
20
8.05584836782791
30
0
41
1
10
11.8788923030149
20
7.9984916943493
30
0
41
1
10
11.8604037172645
20
7.94218253951271
30
0
41
1
10
11.8264575712212
20
7.85991012495435
30
0
41
1
10
11.8140962699691
20
7.8328550605851
30
0
41
1
10
11.7935837333005
20
7.79297622996174
30
0
41
1
10
11.7864159259844
20
7.77980127287398
30
0
41
1
10
11.7713191828915
20
7.75372482186646
30
0
41
1
10
11.7633824368151
20
7.74081492713995
30
0
41
1
10
11.7384769785308
20
7.70292805784945
30
0
41
1
10
11.7203772593316
20
7.67866353751199
30
0
41
1
10
11.6901125047558
20
7.64434849039858
30
0
41
1
10
11.6794995583259
20
7.63327217102551
30
0
41
1
10
11.6573691354905
20
7.61232137865167
30
0
41
1
10
11.6458165560481
20
7.60240297286813
30
0
41
1
10
11.6215461384039
20
7.58390025536212
30
0
41
1
10
11.6088302857938
20
7.57531366225035
30
0
41
1
10
11.5886665813883
20
7.56368345606455
30
0
41
1
10
11.5817366894217
20
7.56000567013078
30
0
41
1
10
11.5676991017995
20
7.55323657194805
30
0
41
1
10
11.5605721090663
20
7.55013193108826
30
0
41
1
10
11.5388449404601
20
7.54171396614046
30
0
41
1
10
11.5239007732521
20
7.53729092133952
30
0
41
1
10
11.4929356027573
20
7.53123335639165
30
0
41
1
10
11.477175816822
20
7.52966679426495
30
0
41
1
10
11.4613248654052
20
7.52966679426495
30
0
0
SPLINE
5
176
100
AcDbEntity
8
1
62
256
6
ByLayer
370
18
48
1
60
0
100
AcDbSpline
70
4
71
3
72
26
73
22
40
0
40
0
40
0
40
0
40
0.0625000000000075
40
0.0625000000000075
40
0.0937500000000116
40
0.0937500000000116
40
0.125000000000016
40
0.125000000000016
40
0.250000000000006
40
0.250000000000006
40
0.374999999999997
40
0.374999999999997
40
0.437499999999993
40
0.437499999999993
40
0.499999999999989
40
0.499999999999989
40
0.624999999999989
40
0.624999999999989
40
0.749999999999991
40
0.749999999999991
40
1
40
1
40
1
40
1
41
1
10
8.53867513459488
20
7.52966679426518
30
0
41
1
10
8.52279868798016
20
7.52966679426518
30
0
41
1
10
8.50721568825682
20
7.53122440152961
30
0
41
1
10
8.48424201300779
20
7.53568798536668
30
0
41
1
10
8.47665111869043
20
7.53753139400649
30
0
41
1
10
8.46159876658839
20
7.54190496002269
30
0
41
1
10
8.45410433072652
20
7.54444995843582
30
0
41
1
10
8.41759599948901
20
7.5585736175012
30
0
41
1
10
8.39103491659975
20
7.57431556968126
30
0
41
1
10
8.34170754400523
20
7.61190750686276
30
0
41
1
10
8.31983115452977
20
7.63307325241217
30
0
41
1
10
8.28977330576541
20
7.66715495165658
30
0
41
1
10
8.28022638701603
20
7.67891539799635
30
0
41
1
10
8.26194447360368
20
7.70312184666889
30
0
41
1
10
8.25319826338284
20
7.71559105034078
30
0
41
1
10
8.22832307576431
20
7.75343444963912
30
0
41
1
10
8.21342389595023
20
7.77938351245621
30
0
41
1
10
8.18614807229017
20
7.83234954293013
30
0
41
1
10
8.17378037377094
20
7.85937042586593
30
0
41
1
10
8.13975567725333
20
7.94172327888199
30
0
41
1
10
8.12111376292626
20
7.99846916820718
30
0
41
1
10
8.10566243270253
20
8.05584836782782
30
0
0
SPLINE
5
177
100
AcDbEntity
8
1
62
256
6
ByLayer
370
18
48
1
60
0
100
AcDbSpline
70
4
71
3
72
30
73
26
40
0
40
0
40
0
40
0
40
0.249999999999983
40
0.249999999999983
40
0.374999999999975
40
0.374999999999975
40
0.437499999999971
40
0.437499999999971
40
0.499999999999967
40
0.499999999999967
40
0.624999999999965
40
0.624999999999965
40
0.687499999999966
40
0.687499999999966
40
0.749999999999967
40
0.749999999999967
40
0.812499999999969
40
0.812499999999969
40
0.843749999999972
40
0.843749999999972
40
0.874999999999976
40
0.874999999999976
40
0.937499999999988
40
0.937499999999988
40
1
40
1
40
1
40
1
41
1
10
8.10566243270267
20
23.6665017920808
30
0
41
1
10
8.12110769698509
20
23.6860254491251
30
0
41
1
10
8.13959628273548
20
23.704958919593
30
0
41
1
10
8.17354242877877
20
23.7323123198157
30
0
41
1
10
8.18590373003096
20
23.7412544902041
30
0
41
1
10
8.20641626669956
20
23.7543620682907
30
0
41
1
10
8.21358407401564
20
23.7586801045418
30
0
41
1
10
8.22868081710851
20
23.7672030231185
30
0
41
1
10
8.23661756318495
20
23.7714105724815
30
0
41
1
10
8.2615230214692
20
23.7837256270429
30
0
41
1
10
8.2796227406684
20
23.7915679133937
30
0
41
1
10
8.30988749524428
20
23.8026065911347
30
0
41
1
10
8.3205004416742
20
23.8061604830514
30
0
41
1
10
8.34263086450954
20
23.812868038308
30
0
41
1
10
8.35418344395194
20
23.816035844018
30
0
41
1
10
8.3784538615962
20
23.8219342456095
30
0
41
1
10
8.39116971420628
20
23.8246655611124
30
0
41
1
10
8.41133341861178
20
23.8283593459882
30
0
41
1
10
8.41826331057831
20
23.8295263669799
30
0
41
1
10
8.43230089820059
20
23.8316728303992
30
0
41
1
10
8.43942789093373
20
23.8326565134122
30
0
41
1
10
8.46115505954
20
23.8353222152631
30
0
41
1
10
8.47609922674792
20
23.8367207404254
30
0
41
1
10
8.50706439724274
20
23.838635326325
30
0
41
1
10
8.52282418317805
20
23.8391299750504
30
0
41
1
10
8.5386751345948
20
23.8391299750504
30
0
0
SPLINE
5
178
100
AcDbEntity
8
1
62
256
6
ByLayer
370
18
48
1
60
0
100
AcDbSpline
70
4
71
3
72
26
73
22
40
0
40
0
40
0
40
0
40
0.0624999999999933
40
0.0624999999999933
40
0.09374999999999
40
0.09374999999999
40
0.124999999999987
40
0.124999999999987
40
0.249999999999988
40
0.249999999999988
40
0.37499999999999
40
0.37499999999999
40
0.437499999999992
40
0.437499999999992
40
0.499999999999993
40
0.499999999999993
40
0.624999999999995
40
0.624999999999995
40
0.749999999999996
40
0.749999999999996
40
1
40
1
40
1
40
1
41
1
10
8.53867513459488
20
-23.8391299750503
30
0
41
1
10
8.52279868798016
20
-23.8391299750503
30
0
41
1
10
8.50721568825679
20
-23.8386381480423
30
0
41
1
10
8.48424201300776
20
-23.8372273769848
30
0
41
1
10
8.4766511186904
20
-23.8366445991221
30
0
41
1
10
8.46159876658839
20
-23.8352611656444
30
0
41
1
10
8.45410433072649
20
-23.8344558067494
30
0
41
1
10
8.41759599948898
20
-23.8299833264009
30
0
41
1
10
8.39103491659975
20
-23.8249896713849
30
0
41
1
10
8.3417075440052
20
-23.813005969379
30
0
41
1
10
8.31983115452977
20
-23.8062336877526
30
0
41
1
10
8.28977330576541
20
-23.7952700628808
30
0
41
1
10
8.280226387016
20
-23.7914778883489
30
0
41
1
10
8.26194447360365
20
-23.7836514357395
30
0
41
1
10
8.25319826338284
20
-23.7796095569563
30
0
41
1
10
8.22832307576428
20
-23.7673085978343
30
0
41
1
10
8.21342389595023
20
-23.7588292909636
30
0
41
1
10
8.18614807229017
20
-23.7414211400326
30
0
41
1
10
8.17378037377094
20
-23.7324910902464
30
0
41
1
10
8.13975567725333
20
-23.7051129235882
30
0
41
1
10
8.12111376292626
20
-23.6860331168061
30
0
41
1
10
8.1056624327025
20
-23.6665017920808
30
0
0
SPLINE
5
179
100
AcDbEntity
8
1
62
256
6
ByLayer
370
18
48
1
60
0
100
AcDbSpline
70
4
71
3
72
30
73
26
40
0
40
0
40
0
40
0
40
0.249999999999986
40
0.249999999999986
40
0.374999999999981
40
0.374999999999981
40
0.437499999999979
40
0.437499999999979
40
0.499999999999976
40
0.499999999999976
40
0.624999999999972
40
0.624999999999972
40
0.687499999999972
40
0.687499999999972
40
0.749999999999972
40
0.749999999999972
40
0.812499999999972
40
0.812499999999972
40
0.843749999999975
40
0.843749999999975
40
0.874999999999978
40
0.874999999999978
40
0.937499999999989
40
0.937499999999989
40
1
40
1
40
1
40
1
41
1
10
8.10566243270267
20
-8.05584836782788
30
0
41
1
10
8.12110769698509
20
-7.99849169434924
30
0
41
1
10
8.13959628273551
20
-7.94218253951266
30
0
41
1
10
8.1735424287788
20
-7.8599101249543
30
0
41
1
10
8.18590373003096
20
-7.83285506058505
30
0
41
1
10
8.20641626669956
20
-7.79297622996165
30
0
41
1
10
8.21358407401564
20
-7.77980127287393
30
0
41
1
10
8.22868081710851
20
-7.7537248218664
30
0
41
1
10
8.23661756318495
20
-7.74081492713989
30
0
41
1
10
8.2615230214692
20
-7.70292805784939
30
0
41
1
10
8.2796227406684
20
-7.67866353751194
30
0
41
1
10
8.30988749524428
20
-7.64434849039853
30
0
41
1
10
8.32050044167417
20
-7.63327217102542
30
0
41
1
10
8.34263086450954
20
-7.61232137865161
30
0
41
1
10
8.35418344395194
20
-7.60240297286808
30
0
41
1
10
8.3784538615962
20
-7.58390025536207
30
0
41
1
10
8.39116971420628
20
-7.5753136622503
30
0
41
1
10
8.41133341861178
20
-7.5636834560645
30
0
41
1
10
8.41826331057831
20
-7.56000567013072
30
0
41
1
10
8.43230089820059
20
-7.55323657194799
30
0
41
1
10
8.4394278909337
20
-7.5501319310882
30
0
41
1
10
8.46115505954
20
-7.54171396614041
30
0
41
1
10
8.47609922674792
20
-7.53729092133946
30
0
41
1
10
8.50706439724271
20
-7.5312333563916
30
0
41
1
10
8.52282418317805
20
-7.52966679426487
30
0
41
1
10
8.5386751345948
20
-7.52966679426487
30
0
0
SPLINE
5
17A
100
AcDbEntity
8
1
62
256
6
ByLayer
370
18
48
1
60
0
100
AcDbSpline
70
4
71
3
72
26
73
22
40
0
40
0
40
0
40
0
40
0.0624999999999901
40
0.0624999999999901
40
0.0937499999999878
40
0.0937499999999878
40
0.124999999999985
40
0.124999999999985
40
0.249999999999983
40
0.249999999999983
40
0.374999999999981
40
0.374999999999981
40
0.43749999999998
40
0.43749999999998
40
0.499999999999978
40
0.499999999999978
40
0.62499999999998
40
0.62499999999998
40
0.749999999999986
40
0.749999999999986
40
1
40
1
40
1
40
1
41
1
10
11.4613248654052
20
-7.52966679426524
30
0
41
1
10
11.4772013120199
20
-7.52966679426524
30
0
41
1
10
11.4927843117432
20
-7.53122440152967
30
0
41
1
10
11.5157579869922
20
-7.53568798536674
30
0
41
1
10
11.5233488813096
20
-7.53753139400652
30
0
41
1
10
11.5384012334116
20
-7.54190496002272
30
0
41
1
10
11.5458956692735
20
-7.54444995843588
30
0
41
1
10
11.582404000511
20
-7.55857361750125
30
0
41
1
10
11.6089650834003
20
-7.57431556968129
30
0
41
1
10
11.6582924559948
20
-7.61190750686279
30
0
41
1
10
11.6801688454703
20
-7.6330732524122
30
0
41
1
10
11.7102266942346
20
-7.66715495165661
30
0
41
1
10
11.719773612984
20
-7.67891539799638
30
0
41
1
10
11.7380555263963
20
-7.70312184666892
30
0
41
1
10
11.7468017366172
20
-7.71559105034081
30
0
41
1
10
11.7716769242357
20
-7.75343444963914
30
0
41
1
10
11.7865761040498
20
-7.77938351245621
30
0
41
1
10
11.8138519277098
20
-7.83234954293013
30
0
41
1
10
11.8262196262291
20
-7.85937042586593
30
0
41
1
10
11.8602443227467
20
-7.94172327888199
30
0
41
1
10
11.8788862370737
20
-7.99846916820721
30
0
41
1
10
11.8943375672975
20
-8.05584836782785
30
0
0
SPLINE
5
17B
100
AcDbEntity
8
1
62
256
6
ByLayer
370
18
48
1
60
0
100
AcDbSpline
70
4
71
3
72
30
73
26
40
0
40
0
40
0
40
0
40
0.249999999999994
40
0.249999999999994
40
0.374999999999993
40
0.374999999999993
40
0.437499999999995
40
0.437499999999995
40
0.499999999999998
40
0.499999999999998
40
0.625000000000003
40
0.625000000000003
40
0.687500000000004
40
0.687500000000004
40
0.750000000000005
40
0.750000000000005
40
0.812500000000006
40
0.812500000000006
40
0.843750000000005
40
0.843750000000005
40
0.875000000000005
40
0.875000000000005
40
0.937500000000002
40
0.937500000000002
40
1
40
1
40
1
40
1
41
1
10
11.8943375672973
20
-23.6665017920808
30
0
41
1
10
11.8788923030149
20
-23.6860254491251
30
0
41
1
10
11.8604037172645
20
-23.704958919593
30
0
41
1
10
11.8264575712212
20
-23.7323123198157
30
0
41
1
10
11.8140962699691
20
-23.7412544902041
30
0
41
1
10
11.7935837333005
20
-23.7543620682907
30
0
41
1
10
11.7864159259844
20
-23.7586801045418
30
0
41
1
10
11.7713191828915
20
-23.7672030231185
30
0
41
1
10
11.763382436815
20
-23.7714105724815
30
0
41
1
10
11.7384769785308
20
-23.7837256270429
30
0
41
1
10
11.7203772593316
20
-23.7915679133937
30
0
41
1
10
11.6901125047557
20
-23.8026065911347
30
0
41
1
10
11.6794995583258
20
-23.8061604830514
30
0
41
1
10
11.6573691354905
20
-23.812868038308
30
0
41
1
10
11.6458165560481
20
-23.816035844018
30
0
41
1
10
11.6215461384038
20
-23.8219342456095
30
0
41
1
10
11.6088302857937
20
-23.8246655611124
30
0
41
1
10
11.5886665813883
20
-23.8283593459882
30
0
41
1
10
11.5817366894217
20
-23.8295263669799
30
0
41
1
10
11.5676991017994
20
-23.8316728303992
30
0
41
1
10
11.5605721090663
20
-23.8326565134122
30
0
41
1
10
11.53884494046
20
-23.8353222152631
30
0
41
1
10
11.5239007732521
20
-23.8367207404254
30
0
41
1
10
11.4929356027573
20
-23.8386353263249
30
0
41
1
10
11.477175816822
20
-23.8391299750504
30
0
41
1
10
11.4613248654052
20
-23.8391299750504
30
0
0
SPLINE
5
17C
100
AcDbEntity
8
1
62
256
6
ByLayer
370
18
48
1
60
0
100
AcDbSpline
70
4
71
3
72
83
73
79
40
0
40
0
40
0
40
0
40
0.0068100238737787
40
0.0136848534824089
40
0.0206245975973474
40
0.0276293703658151
40
0.034699291441611
40
0.0418344861189935
40
0.0490350854697559
40
0.0563012264836207
40
0.063633052212087
40
0.0710307119158734
40
0.0784928620688697
40
0.0860163367574887
40
0.0936010748484115
40
0.101247133540495
40
0.108954575390857
40
0.116723468426255
40
0.124553886256837
40
0.132445908192391
40
0.14039961936116
40
0.148415110831328
40
0.156492479735328
40
0.164631829396997
40
0.172833269461766
40
0.181096916029968
40
0.189422891793405
40
0.197811326175289
40
0.206262355473715
40
0.214776123008782
40
0.223352779273532
40
0.231992482088851
40
0.240695396762503
40
0.249461696252443
40
0.258291561334653
40
0.267185180775571
40
0.276142751509428
40
0.285164478820627
40
0.294250576531368
40
0.303401267194843
40
0.312616766345865
40
0.321894145590415
40
0.331231204983887
40
0.340628093881221
40
0.350084969534442
40
0.359601997244781
40
0.369179350519109
40
0.378817211230885
40
0.388515769785788
40
0.398275225292287
40
0.408095785737119
40
0.417977668166561
40
0.42792109887264
40
0.437926313585572
40
0.447993557672093
40
0.45812308634009
40
0.468315164849827
40
0.478570068732026
40
0.488888084013113
40
0.499269507447887
40
0.559503553141657
40
0.621342665662947
40
0.684685602677612
40
0.749591089769805
40
0.811858118275109
40
0.874677219361504
40
0.905800396119597
40
0.937295365029827
40
0.968636495204014
40
0.984315790622768
40
0.992157686993694
40
0.996079205644873
40
0.998040108625889
40
0.999020596225621
40
0.999510849061852
40
0.999755977740193
40
0.999878542644561
40
1
40
1
40
1
40
1
41
1
10
148.067675282232
20
-22.754751137058
30
0
41
1
10
148.06830942389
20
-22.7647486282391
30
0
41
1
10
148.069583741843
20
-22.7848387489995
30
0
41
1
10
148.071419139915
20
-22.8148724625213
30
0
41
1
10
148.073210143933
20
-22.8450067781473
30
0
41
1
10
148.074950122754
20
-22.875218678019
30
0
41
1
10
148.076640413758
20
-22.9055075009221
30
0
41
1
10
148.078280201812
20
-22.9358664370466
30
0
41
1
10
148.079869268835
20
-22.966290273144
30
0
41
1
10
148.081407247677
20
-22.9967732855547
30
0
41
1
10
148.082893819998
20
-23.0273098176986
30
0
41
1
10
148.084328582586
20
-23.057892032929
30
0
41
1
10
148.085710902847
20
-23.088507633893
30
0
41
1
10
148.087040060789
20
-23.119144351764
30
0
41
1
10
148.08831571631
20
-23.1497916187931
30
0
41
1
10
148.089537681017
20
-23.1804432965423
30
0
41
1
10
148.090705797697
20
-23.2110933322306
30
0
41
1
10
148.09181991376
20
-23.2417356308308
30
0
41
1
10
148.092879886448
20
-23.2723640472191
30
0
41
1
10
148.093885581259
20
-23.3029723873491
30
0
41
1
10
148.094836872206
20
-23.3335544069294
30
0
41
1
10
148.095733641602
20
-23.3641038107304
30
0
41
1
10
148.09657577998
20
-23.394614251669
30
0
41
1
10
148.097363185983
20
-23.4250793299027
30
0
41
1
10
148.098095766279
20
-23.4554925918684
30
0
41
1
10
148.098773435479
20
-23.4858475292821
30
0
41
1
10
148.099396116061
20
-23.5161375780933
30
0
41
1
10
148.099963738307
20
-23.5463561173948
30
0
41
1
10
148.100476240246
20
-23.5764964682862
30
0
41
1
10
148.100933567609
20
-23.60655189269
30
0
41
1
10
148.101335673792
20
-23.6365155921182
30
0
41
1
10
148.101682519823
20
-23.6663807063889
30
0
41
1
10
148.101974074348
20
-23.6961403122908
30
0
41
1
10
148.102210313615
20
-23.7257874221979
30
0
41
1
10
148.102391221493
20
-23.7553149826136
30
0
41
1
10
148.102516789424
20
-23.7847158727134
30
0
41
1
10
148.102587016642
20
-23.813982902633
30
0
41
1
10
148.102601909483
20
-23.8431088124248
30
0
41
1
10
148.102561484128
20
-23.8720862682091
30
0
41
1
10
148.102465756531
20
-23.9009078518701
30
0
41
1
10
148.102314798286
20
-23.9295627611144
30
0
41
1
10
148.102108618415
20
-23.9580378953486
30
0
41
1
10
148.101847327294
20
-23.9863202834937
30
0
41
1
10
148.101531117025
20
-24.0144001557225
30
0
41
1
10
148.101160151189
20
-24.042270093942
30
0
41
1
10
148.100734606427
20
-24.0699226149867
30
0
41
1
10
148.100254666023
20
-24.0973501742282
30
0
41
1
10
148.099720521795
20
-24.1245451624631
30
0
41
1
10
148.099132373752
20
-24.1514999045461
30
0
41
1
10
148.09849043038
20
-24.1782066574706
30
0
41
1
10
148.097794908756
20
-24.2046576085339
30
0
41
1
10
148.097046034761
20
-24.2308448733708
30
0
41
1
10
148.096244043251
20
-24.256760493982
30
0
41
1
10
148.095389178258
20
-24.2823964365995
30
0
41
1
10
148.094481693286
20
-24.3077445897403
30
0
41
1
10
148.093521851291
20
-24.3327967612632
30
0
41
1
10
148.092509925908
20
-24.3575446788142
30
0
41
1
10
148.091446198084
20
-24.3819799771499
30
0
41
1
10
148.090330970103
20
-24.4060942345127
30
0
41
1
10
148.087299773402
20
-24.4679017725558
30
0
41
1
10
148.081713634205
20
-24.5621192797206
30
0
41
1
10
148.072604320867
20
-24.6771104887472
30
0
41
1
10
148.062128812903
20
-24.7771451262596
30
0
41
1
10
148.050679262688
20
-24.8589887208495
30
0
41
1
10
148.038527399241
20
-24.922327063109
30
0
41
1
10
148.028096349424
20
-24.959579650762
30
0
41
1
10
148.019545527454
20
-24.9805350605215
30
0
41
1
10
148.013074895502
20
-24.9917567992097
30
0
41
1
10
148.007631267275
20
-24.9973794599142
30
0
41
1
10
148.003818064973
20
-24.9993445317409
30
0
41
1
10
148.00190947551
20
-24.9998360913671
30
0
41
1
10
148.000954828016
20
-24.999959017035
30
0
41
1
10
148.000477434062
20
-24.9999897543087
30
0
41
1
10
148.000238721715
20
-24.9999974374873
30
0
41
1
10
148.000119361988
20
-24.9999993607823
30
0
41
1
10
148.000059681271
20
-24.9999998381889
30
0
41
1
10
148.00002565481
20
-24.9999999797982
30
0
41
1
10
148.000009410947
20
-24.9999999926839
30
0
41
1
10
147.999999533223
20
-25.0000000003628
30
0
0
SPLINE
5
17D
100
AcDbEntity
8
1
62
256
6
ByLayer
370
13
48
1
60
0
100
AcDbSpline
70
4
71
1
72
4
73
2
40
0
40
0
40
1
40
1
41
1
10
147.635350564463
20
-22.9943900756303
30
0
41
1
10
148.067675282232
20
-22.7547511370589
30
0
0
SPLINE
5
17E
100
AcDbEntity
8
1
62
256
6
ByLayer
370
18
48
1
60
0
100
AcDbSpline
70
4
71
3
72
36
73
32
40
0
40
0
40
0
40
0
40
0.0625000000000001
40
0.0625000000000001
40
0.125
40
0.125
40
0.1875
40
0.1875
40
0.25
40
0.25
40
0.3125
40
0.3125
40
0.375
40
0.375
40
0.4375
40
0.4375
40
0.5
40
0.5
40
0.5625
40
0.5625
40
0.625
40
0.625
40
0.6875
40
0.6875
40
0.75
40
0.75
40
0.812500000000001
40
0.812500000000001
40
0.875000000000001
40
0.875000000000001
40
1
40
1
40
1
40
1
41
1
10
149.650480947162
20
-24.6294893682057
30
0
41
1
10
149.643862084188
20
-24.6358650377145
30
0
41
1
10
149.637368158041
20
-24.6420854939392
30
0
41
1
10
149.624658212001
20
-24.6541795144029
30
0
41
1
10
149.618465781099
20
-24.6600302465737
30
0
41
1
10
149.606614451507
20
-24.6711317760501
30
0
41
1
10
149.600930365741
20
-24.6764066912076
30
0
41
1
10
149.590113554064
20
-24.6863246581521
30
0
41
1
10
149.584944456052
20
-24.691000029734
30
0
41
1
10
149.575462300344
20
-24.6994157565418
30
0
41
1
10
149.571165979257
20
-24.7031426233273
30
0
41
1
10
149.563582231134
20
-24.709502599633
30
0
41
1
10
149.560295493777
20
-24.712131438415
30
0
41
1
10
149.555115656292
20
-24.7159495810421
30
0
41
1
10
149.55318093426
20
-24.7171751733806
30
0
41
1
10
149.550745513604
20
-24.7181286395742
30
0
41
1
10
149.550291079597
20
-24.7178363837949
30
0
41
1
10
149.550812662286
20
-24.7158184071475
30
0
41
1
10
149.551796471514
20
-24.7140793421216
30
0
41
1
10
149.555138387984
20
-24.7092388666697
30
0
41
1
10
149.557446708715
20
-24.7062051495601
30
0
41
1
10
149.563158317433
20
-24.6990846204169
30
0
41
1
10
149.566592406128
20
-24.6949623448436
30
0
41
1
10
149.57432482138
20
-24.6859171291032
30
0
41
1
10
149.578590882068
20
-24.681029982191
30
0
41
1
10
149.587802061849
20
-24.6706380732869
30
0
41
1
10
149.592748132286
20
-24.6651324406481
30
0
41
1
10
149.60325464834
20
-24.6535639456442
30
0
41
1
10
149.608756349683
20
-24.6475660845106
30
0
41
1
10
149.625757992912
20
-24.6291819152151
30
0
41
1
10
149.63781344554
20
-24.616338150569
30
0
41
1
10
149.650480947162
20
-24.6030003410692
30
0
0
SPLINE
5
17F
100
AcDbEntity
8
1
62
256
6
ByLayer
370
18
48
1
60
0
100
AcDbSpline
70
4
71
3
72
8
73
4
40
0
40
0
40
0
40
0
40
1
40
1
40
1
40
1
41
1
10
149.650480947162
20
-24.6030003410692
30
0
41
1
10
149.876008003165
20
-24.3655393957385
30
0
41
1
10
150.100791090601
20
-24.1271433496652
30
0
41
1
10
150.324759526419
20
-23.8877233606912
30
0
0
SPLINE
5
180
100
AcDbEntity
8
1
62
256
6
ByLayer
370
18
48
1
60
0
100
AcDbSpline
70
4
71
3
72
8
73
4
40
0
40
0
40
0
40
0
40
1
40
1
40
1
40
1
41
1
10
150.324759526419
20
-23.8429985339383
30
0
41
1
10
150.10033706691
20
-24.0525298860216
30
0
41
1
10
149.875567648883
20
-24.2615638584136
30
0
41
1
10
149.650480947162
20
-24.4701429912256
30
0
0
SPLINE
5
181
100
AcDbEntity
8
1
62
256
6
ByLayer
370
18
48
1
60
0
100
AcDbSpline
70
4
71
3
72
38
73
34
40
0
40
0
40
0
40
0
40
0.0624999999999949
40
0.0624999999999949
40
0.12499999999999
40
0.12499999999999
40
0.187499999999985
40
0.187499999999985
40
0.249999999999979
40
0.249999999999979
40
0.312499999999974
40
0.312499999999974
40
0.374999999999969
40
0.374999999999969
40
0.437499999999964
40
0.437499999999964
40
0.499999999999959
40
0.499999999999959
40
0.531249999999958
40
0.531249999999958
40
0.562499999999958
40
0.562499999999958
40
0.624999999999962
40
0.624999999999962
40
0.687499999999966
40
0.687499999999966
40
0.74999999999997
40
0.74999999999997
40
0.812499999999975
40
0.812499999999975
40
0.874999999999979
40
0.874999999999979
40
1
40
1
40
1
40
1
41
1
10
149.650480947162
20
-24.4701429912256
30
0
41
1
10
149.643726881463
20
-24.4764017224413
30
0
41
1
10
149.637098160743
20
-24.4824675984262
30
0
41
1
10
149.624121587645
20
-24.4941653645858
30
0
41
1
10
149.617742143976
20
-24.4998242703924
30
0
41
1
10
149.605562970484
20
-24.5104136408788
30
0
41
1
10
149.599742695575
20
-24.515363799964
30
0
41
1
10
149.588714807944
20
-24.5244776354345
30
0
41
1
10
149.583471678807
20
-24.5286687146869
30
0
41
1
10
149.573894168183
20
-24.5359672809033
30
0
41
1
10
149.569604727196
20
-24.5390430763004
30
0
41
1
10
149.562140118258
20
-24.5439116287619
30
0
41
1
10
149.558968752714
20
-24.545692521259
30
0
41
1
10
149.55412676766
20
-24.5476893893327
30
0
41
1
10
149.552408786091
20
-24.5479394606952
30
0
41
1
10
149.550449968655
20
-24.5468649480095
30
0
41
1
10
149.550243871428
20
-24.5455532016625
30
0
41
1
10
149.550991933076
20
-24.5425459103022
30
0
41
1
10
149.551417710024
20
-24.5413688368418
30
0
41
1
10
149.552612851189
20
-24.5386745168133
30
0
41
1
10
149.553385026571
20
-24.5371539574101
30
0
41
1
10
149.556141299637
20
-24.5322031740114
30
0
41
1
10
149.558572250333
20
-24.5283601137443
30
0
41
1
10
149.56445428438
20
-24.5197418754224
30
0
41
1
10
149.567937837454
20
-24.5149253101636
30
0
41
1
10
149.575648799551
20
-24.5046892334913
30
0
41
1
10
149.579874304902
20
-24.4992680700742
30
0
41
1
10
149.588959245089
20
-24.4879075907862
30
0
41
1
10
149.593819464948
20
-24.481967630191
30
0
41
1
10
149.604115964568
20
-24.4696181549185
30
0
41
1
10
149.609513235996
20
-24.4632561734392
30
0
41
1
10
149.6261921918
20
-24.4438785061731
30
0
41
1
10
149.638027080278
20
-24.4304881908606
30
0
41
1
10
149.650480947162
20
-24.4166940319327
30
0
0
SPLINE
5
182
100
AcDbEntity
8
1
62
256
6
ByLayer
370
18
48
1
60
0
100
AcDbSpline
70
4
71
3
72
8
73
4
40
0
40
0
40
0
40
0
40
1
40
1
40
1
40
1
41
1
10
149.650480947162
20
-24.4166940319327
30
0
41
1
10
149.876228917632
20
-24.1666509399749
30
0
41
1
10
150.101019214676
20
-23.9154654531765
30
0
41
1
10
150.324759526419
20
-23.6630274540333
30
0
0
SPLINE
5
183
100
AcDbEntity
8
1
62
256
6
ByLayer
370
18
48
1
60
0
100
AcDbSpline
70
4
71
3
72
8
73
4
40
0
40
0
40
0
40
0
40
1
40
1
40
1
40
1
41
1
10
150.324759526419
20
-23.5875252185438
30
0
41
1
10
150.100236859786
20
-23.7895703804292
30
0
41
1
10
149.875470342809
20
-23.9912532251729
30
0
41
1
10
149.650480947162
20
-24.1926049128575
30
0
0
SPLINE
5
184
100
AcDbEntity
8
1
62
256
6
ByLayer
370
18
48
1
60
0
100
AcDbSpline
70
4
71
3
72
39
73
35
40
0
40
0
40
0
40
0
40
0.0624999999999994
40
0.0624999999999994
40
0.124999999999999
40
0.124999999999999
40
0.187499999999998
40
0.187499999999998
40
0.249999999999998
40
0.249999999999998
40
0.312499999999997
40
0.312499999999997
40
0.343749999999998
40
0.343749999999998
40
0.375
40
0.406250000000001
40
0.406250000000001
40
0.437500000000003
40
0.437500000000003
40
0.500000000000002
40
0.500000000000002
40
0.562500000000001
40
0.562500000000001
40
0.625000000000001
40
0.625000000000001
40
0.6875
40
0.6875
40
0.75
40
0.75
40
0.812499999999999
40
0.812499999999999
40
0.874999999999998
40
0.874999999999998
40
1
40
1
40
1
40
1
41
1
10
149.650480947162
20
-24.1926049128576
30
0
41
1
10
149.643561481925
20
-24.1987974091714
30
0
41
1
10
149.636760597053
20
-24.2047594560293
30
0
41
1
10
149.623428732478
20
-24.2161568732048
30
0
41
1
10
149.616868043973
20
-24.221614922343
30
0
41
1
10
149.604372494835
20
-24.2316571174374
30
0
41
1
10
149.598405523108
20
-24.2362705084991
30
0
41
1
10
149.587120780066
20
-24.2445513660951
30
0
41
1
10
149.581757911793
20
-24.248245222261
30
0
41
1
10
149.572161291116
20
-24.2542618829971
30
0
41
1
10
149.567898801765
20
-24.2566113207269
30
0
41
1
10
149.562409953693
20
-24.2590197111092
30
0
41
1
10
149.56074024976
20
-24.2596301418322
30
0
41
1
10
149.557792033825
20
-24.2604382600567
30
0
41
1
10
149.555212841065
20
-24.260843929945
30
0
41
1
10
149.553367705005
20
-24.2604482498083
30
0
41
1
10
149.551893890274
20
-24.259646847812
30
0
41
1
10
149.551341802858
20
-24.2590371274925
30
0
41
1
10
149.550274927363
20
-24.2566430276475
30
0
41
1
10
149.550326458122
20
-24.2543028706035
30
0
41
1
10
149.551787967949
20
-24.2482959791915
30
0
41
1
10
149.553220516284
20
-24.2445964956714
30
0
41
1
10
149.557185296634
20
-24.2362910592424
30
0
41
1
10
149.559719213955
20
-24.2316610587576
30
0
41
1
10
149.565737405588
20
-24.2215788782869
30
0
41
1
10
149.569244994022
20
-24.2160956853224
30
0
41
1
10
149.576918114054
20
-24.2046829541805
30
0
41
1
10
149.581098727558
20
-24.1987255135256
30
0
41
1
10
149.590054837743
20
-24.1863774236135
30
0
41
1
10
149.594830979835
20
-24.1799863029414
30
0
41
1
10
149.604926584524
20
-24.1668094826114
30
0
41
1
10
149.61022432905
20
-24.1600533921706
30
0
41
1
10
149.626598565669
20
-24.1395788033848
30
0
41
1
10
149.638226288089
20
-24.1255569553039
30
0
41
1
10
149.650480947162
20
-24.1112111569994
30
0
0
SPLINE
5
185
100
AcDbEntity
8
1
62
256
6
ByLayer
370
18
48
1
60
0
100
AcDbSpline
70
4
71
3
72
8
73
4
40
0
40
0
40
0
40
0
40
1
40
1
40
1
40
1
41
1
10
149.650480947162
20
-24.1112111569994
30
0
41
1
10
149.876507770666
20
-23.8466150387261
30
0
41
1
10
150.101307459449
20
-23.5806365366889
30
0
41
1
10
150.324759526419
20
-23.3131399205598
30
0
0
SPLINE
5
186
100
AcDbEntity
8
1
62
256
6
ByLayer
370
18
48
1
60
0
100
AcDbSpline
70
4
71
3
72
8
73
4
40
0
40
0
40
0
40
0
40
1
40
1
40
1
40
1
41
1
10
150.324759526419
20
-23.2053177327395
30
0
41
1
10
150.100154848045
20
-23.4009956122068
30
0
41
1
10
149.875390693943
20
-23.5964289589472
30
0
41
1
10
149.650480947162
20
-23.7916390605853
30
0
0
SPLINE
5
187
100
AcDbEntity
8
1
62
256
6
ByLayer
370
18
48
1
60
0
100
AcDbSpline
70
4
71
3
72
32
73
28
40
0
40
0
40
0
40
0
40
0.125000000000012
40
0.125000000000012
40
0.187500000000011
40
0.187500000000011
40
0.250000000000009
40
0.250000000000009
40
0.312500000000008
40
0.312500000000008
40
0.375000000000007
40
0.375000000000007
40
0.437500000000005
40
0.437500000000005
40
0.500000000000004
40
0.500000000000004
40
0.562500000000002
40
0.562500000000002
40
0.625000000000001
40
0.625000000000001
40
0.749999999999994
40
0.749999999999994
40
0.812499999999999
40
0.812499999999999
40
0.875000000000003
40
0.875000000000003
40
1
40
1
40
1
40
1
41
1
10
149.650480947162
20
-23.7916390605853
30
0
41
1
10
149.636218452344
20
-23.8040181731086
30
0
41
1
10
149.622240264368
20
-23.8154173152047
30
0
41
1
10
149.602992291188
20
-23.8296153042808
30
0
41
1
10
149.596826112669
20
-23.8338945401531
30
0
41
1
10
149.585150324815
20
-23.8413094412335
30
0
41
1
10
149.579802545074
20
-23.8443419283293
30
0
41
1
10
149.570193548697
20
-23.8489058516384
30
0
41
1
10
149.565917359671
20
-23.8504253367856
30
0
41
1
10
149.5589614839
20
-23.8516753986743
30
0
41
1
10
149.556219248358
20
-23.8514436933257
30
0
41
1
10
149.552246458667
20
-23.849215664621
30
0
41
1
10
149.551085390741
20
-23.847251677175
30
0
41
1
10
149.550241537347
20
-23.8418614194536
30
0
41
1
10
149.550569080283
20
-23.838382972767
30
0
41
1
10
149.552511726574
20
-23.8303344171844
30
0
41
1
10
149.554109567751
20
-23.8257708187554
30
0
41
1
10
149.558360917358
20
-23.8157342041928
30
0
41
1
10
149.56103952816
20
-23.8102189029185
30
0
41
1
10
149.570274220005
20
-23.7928579231843
30
0
41
1
10
149.578003306719
20
-23.7801749967735
30
0
41
1
10
149.591401058081
20
-23.7598818429372
30
0
41
1
10
149.59613953536
20
-23.7529552766058
30
0
41
1
10
149.605993559771
20
-23.7389641660187
30
0
41
1
10
149.611125160039
20
-23.7318756087926
30
0
41
1
10
149.627074672477
20
-23.7103590621003
30
0
41
1
10
149.638441494712
20
-23.6956828090524
30
0
41
1
10
149.650480947162
20
-23.6807059996443
30
0
0
SPLINE
5
188
100
AcDbEntity
8
1
62
256
6
ByLayer
370
18
48
1
60
0
100
AcDbSpline
70
4
71
3
72
8
73
4
40
0
40
0
40
0
40
0
40
1
40
1
40
1
40
1
41
1
10
149.650480947162
20
-23.6807059996443
30
0
41
1
10
149.876866272617
20
-23.3990877212198
30
0
41
1
10
150.101678442285
20
-23.1158055554848
30
0
41
1
10
150.324759526419
20
-22.8306924641193
30
0
0
SPLINE
5
189
100
AcDbEntity
8
1
62
256
6
ByLayer
370
18
48
1
60
0
100
AcDbSpline
70
4
71
3
72
8
73
4
40
0
40
0
40
0
40
0
40
1
40
1
40
1
40
1
41
1
10
150.324759526419
20
-22.6881625317612
30
0
41
1
10
150.100089025132
20
-22.8786205059025
30
0
41
1
10
149.875326782245
20
-23.0689340213256
30
0
41
1
10
149.650480947162
20
-23.2591159102949
30
0
0
SPLINE
5
18A
100
AcDbEntity
8
1
62
256
6
ByLayer
370
18
48
1
60
0
100
AcDbSpline
70
4
71
3
72
41
73
37
40
0
40
0
40
0
40
0
40
0.0624999999999891
40
0.0624999999999891
40
0.124999999999978
40
0.124999999999978
40
0.156249999999972
40
0.156249999999972
40
0.187499999999966
40
0.187499999999966
40
0.249999999999959
40
0.249999999999959
40
0.281249999999958
40
0.281249999999958
40
0.312499999999956
40
0.343749999999955
40
0.343749999999955
40
0.374999999999953
40
0.374999999999953
40
0.437499999999955
40
0.437499999999955
40
0.468749999999959
40
0.468749999999959
40
0.499999999999962
40
0.499999999999962
40
0.562499999999964
40
0.562499999999964
40
0.624999999999965
40
0.624999999999965
40
0.687499999999967
40
0.687499999999967
40
0.749999999999968
40
0.749999999999968
40
0.874999999999984
40
0.874999999999984
40
1
40
1
40
1
40
1
41
1
10
149.650480947162
20
-23.2591159102949
30
0
41
1
10
149.64312067197
20
-23.2653414694156
30
0
41
1
10
149.635804695088
20
-23.2712773588523
30
0
41
1
10
149.621558337367
20
-23.2822363602348
30
0
41
1
10
149.614658110685
20
-23.2872398905796
30
0
41
1
10
149.604698216193
20
-23.2939087063814
30
0
41
1
10
149.601443651369
20
-23.2959915195195
30
0
41
1
10
149.595080260981
20
-23.2998442241152
30
0
41
1
10
149.591968194618
20
-23.3016142220467
30
0
41
1
10
149.583076629913
20
-23.3062945367747
30
0
41
1
10
149.577668862641
20
-23.3086246746206
30
0
41
1
10
149.570442806861
20
-23.3107695863595
30
0
41
1
10
149.568202442333
20
-23.311249831674
30
0
41
1
10
149.564140466581
20
-23.3117249114427
30
0
41
1
10
149.560469601455
20
-23.3117232880414
30
0
41
1
10
149.557572696077
20
-23.3107769709441
30
0
41
1
10
149.555065784551
20
-23.3093539638441
30
0
41
1
10
149.554012412702
20
-23.3084010300546
30
0
41
1
10
149.551498718449
20
-23.3049318251667
30
0
41
1
10
149.550641696581
20
-23.3017928744913
30
0
41
1
10
149.550431296051
20
-23.2959971988531
30
0
41
1
10
149.550543891767
20
-23.2938771195671
30
0
41
1
10
149.551097439142
20
-23.2893835606951
30
0
41
1
10
149.55153724686
20
-23.2870008336846
30
0
41
1
10
149.553295887259
20
-23.2794861044503
30
0
41
1
10
149.555051097323
20
-23.2739898973757
30
0
41
1
10
149.559557801758
20
-23.2621650826892
30
0
41
1
10
149.562301249488
20
-23.2558684256211
30
0
41
1
10
149.568507240897
20
-23.2428591198074
30
0
41
1
10
149.571983861287
20
-23.2361109336969
30
0
41
1
10
149.579584891849
20
-23.2221925717866
30
0
41
1
10
149.583728003621
20
-23.2149922619385
30
0
41
1
10
149.59691541842
20
-23.1930284474522
30
0
41
1
10
149.606613261902
20
-23.1780492255824
30
0
41
1
10
149.627467863824
20
-23.1475539976571
30
0
41
1
10
149.638630045339
20
-23.1320359563952
30
0
41
1
10
149.650480947162
20
-23.1162678662819
30
0
0
SPLINE
5
18B
100
AcDbEntity
8
1
62
256
6
ByLayer
370
18
48
1
60
0
100
AcDbSpline
70
4
71
3
72
8
73
4
40
0
40
0
40
0
40
0
40
1
40
1
40
1
40
1
41
1
10
149.650480947162
20
-23.1162678662819
30
0
41
1
10
149.877337890168
20
-22.8144257977413
30
0
41
1
10
150.102167049584
20
-22.5105841760994
30
0
41
1
10
150.324759526419
20
-22.204537010626
30
0
0
SPLINE
5
18C
100
AcDbEntity
8
1
62
256
6
ByLayer
370
18
48
1
60
0
100
AcDbSpline
70
4
71
3
72
8
73
4
40
0
40
0
40
0
40
0
40
1
40
1
40
1
40
1
41
1
10
150.324759526419
20
-22.0237655573026
30
0
41
1
10
150.100039125586
20
-22.2102687278776
30
0
41
1
10
149.87527835498
20
-22.3967070563409
30
0
41
1
10
149.650480947162
20
-22.5830864488535
30
0
0
SPLINE
5
18D
100
AcDbEntity
8
1
62
256
6
ByLayer
370
18
48
1
60
0
100
AcDbSpline
70
4
71
3
72
39
73
35
40
0
40
0
40
0
40
0
40
0.0625000000000175
40
0.0625000000000175
40
0.125000000000035
40
0.125000000000035
40
0.187500000000052
40
0.187500000000052
40
0.218750000000063
40
0.218750000000063
40
0.250000000000073
40
0.250000000000073
40
0.312500000000085
40
0.312500000000085
40
0.343750000000089
40
0.343750000000089
40
0.375000000000093
40
0.406250000000097
40
0.406250000000097
40
0.437500000000101
40
0.437500000000101
40
0.500000000000091
40
0.500000000000091
40
0.562500000000081
40
0.562500000000081
40
0.625000000000071
40
0.625000000000071
40
0.687500000000061
40
0.687500000000061
40
0.750000000000051
40
0.750000000000051
40
0.875000000000026
40
0.875000000000026
40
1
40
1
40
1
40
1
41
1
10
149.650480947162
20
-22.5830864488535
30
0
41
1
10
149.642848465984
20
-22.5894145343019
30
0
41
1
10
149.635230044314
20
-22.59539066175
30
0
41
1
10
149.620434193986
20
-22.6061779599126
30
0
41
1
10
149.613255140464
20
-22.6109974845249
30
0
41
1
10
149.599425158374
20
-22.6192459915888
30
0
41
1
10
149.592745263725
20
-22.6226722784097
30
0
41
1
10
149.583692680945
20
-22.6262998168289
30
0
41
1
10
149.580816760607
20
-22.6272697003245
30
0
41
1
10
149.575367399923
20
-22.6286973789872
30
0
41
1
10
149.572783455345
20
-22.6291527982104
30
0
41
1
10
149.565725370173
20
-22.6296830301391
30
0
41
1
10
149.561864611698
20
-22.6289563432164
30
0
41
1
10
149.557292459269
20
-22.6263023228391
30
0
41
1
10
149.555968736541
20
-22.6251453113987
30
0
41
1
10
149.553784251941
20
-22.6223872509873
30
0
41
1
10
149.552040779151
20
-22.6191809187843
30
0
41
1
10
149.551098579189
20
-22.6151589316097
30
0
41
1
10
149.550528264205
20
-22.6107578663772
30
0
41
1
10
149.550430700683
20
-22.6083568813502
30
0
41
1
10
149.550654051541
20
-22.6007652352952
30
0
41
1
10
149.551475794025
20
-22.5951597496354
30
0
41
1
10
149.554198267888
20
-22.5830737854475
30
0
41
1
10
149.556114381686
20
-22.5765557654383
30
0
41
1
10
149.560823333971
20
-22.5629298211241
30
0
41
1
10
149.563597798464
20
-22.5558628914157
30
0
41
1
10
149.569844713144
20
-22.5413066108042
30
0
41
1
10
149.573318283136
20
-22.5338165910066
30
0
41
1
10
149.580882685558
20
-22.5184630726735
30
0
41
1
10
149.584984596991
20
-22.5105829559677
30
0
41
1
10
149.597909096523
20
-22.4868430027664
30
0
41
1
10
149.60740422431
20
-22.4707518266123
30
0
41
1
10
149.627855969026
20
-22.4381338925007
30
0
41
1
10
149.638816630046
20
-22.4216059035292
30
0
41
1
10
149.650480947162
20
-22.4048713342158
30
0
0
SPLINE
5
18E
100
AcDbEntity
8
1
62
256
6
ByLayer
370
18
48
1
60
0
100
AcDbSpline
70
4
71
3
72
8
73
4
40
0
40
0
40
0
40
0
40
1
40
1
40
1
40
1
41
1
10
149.650480947162
20
-22.4048713342158
30
0
41
1
10
149.87797677687
20
-22.0784874839773
30
0
41
1
10
150.10282976625
20
-21.7496954266907
30
0
41
1
10
150.324759526419
20
-21.4182396666025
30
0
0
SPLINE
5
18F
100
AcDbEntity
8
1
62
256
6
ByLayer
370
18
48
1
60
0
100
AcDbSpline
70
4
71
3
72
8
73
4
40
0
40
0
40
0
40
0
40
1
40
1
40
1
40
1
41
1
10
150.324759526419
20
-21.1940141333148
30
0
41
1
10
150.100007511727
20
-21.3780816494066
30
0
41
1
10
149.875247737629
20
-21.562136533403
30
0
41
1
10
149.650480947162
20
-21.746179991572
30
0
0
SPLINE
5
190
100
AcDbEntity
8
1
62
256
6
ByLayer
370
18
48
1
60
0
100
AcDbSpline
70
4
71
3
72
39
73
35
40
0
40
0
40
0
40
0
40
0.062499999999992
40
0.062499999999992
40
0.124999999999984
40
0.124999999999984
40
0.15624999999998
40
0.15624999999998
40
0.187499999999976
40
0.187499999999976
40
0.218749999999972
40
0.218749999999972
40
0.249999999999968
40
0.281249999999964
40
0.281249999999964
40
0.31249999999996
40
0.31249999999996
40
0.374999999999961
40
0.374999999999961
40
0.406249999999961
40
0.406249999999961
40
0.437499999999962
40
0.437499999999962
40
0.499999999999971
40
0.499999999999971
40
0.562499999999979
40
0.562499999999979
40
0.624999999999988
40
0.624999999999988
40
0.749999999999992
40
0.749999999999992
40
0.874999999999996
40
0.874999999999996
40
1
40
1
40
1
40
1
41
1
10
149.650480947162
20
-21.746179991572
30
0
41
1
10
149.642517355018
20
-21.7527007370719
30
0
41
1
10
149.63453440989
20
-21.7587815916506
30
0
41
1
10
149.619042460543
20
-21.7694623151672
30
0
41
1
10
149.611511726718
20
-21.7740895951821
30
0
41
1
10
149.600621370502
20
-21.7796806806255
30
0
41
1
10
149.597061556648
20
-21.7813124621372
30
0
41
1
10
149.590290341915
20
-21.7839856794465
30
0
41
1
10
149.587053841966
20
-21.7850409190089
30
0
41
1
10
149.58089623758
20
-21.7865551188073
30
0
41
1
10
149.577954952722
20
-21.787014546724
30
0
41
1
10
149.572512587958
20
-21.787284276329
30
0
41
1
10
149.567547431314
20
-21.7869134556379
30
0
41
1
10
149.56348717482
20
-21.7853258627772
30
0
41
1
10
149.559865561372
20
-21.7831473720263
30
0
41
1
10
149.558264729514
20
-21.7817488018322
30
0
41
1
10
149.554196953589
20
-21.7767917693807
30
0
41
1
10
149.552440567205
20
-21.772507925753
30
0
41
1
10
149.550959029724
20
-21.7648963564557
30
0
41
1
10
149.550660070545
20
-21.7621461067255
30
0
41
1
10
149.550422720308
20
-21.7563820754731
30
0
41
1
10
149.550481076441
20
-21.7533611718062
30
0
41
1
10
149.551119474505
20
-21.7439343578544
30
0
41
1
10
149.552159177103
20
-21.7371671874764
30
0
41
1
10
149.555239798449
20
-21.7228437690711
30
0
41
1
10
149.557290439547
20
-21.7152746972403
30
0
41
1
10
149.562146245542
20
-21.6997853492488
30
0
41
1
10
149.564959968858
20
-21.6918233983906
30
0
41
1
10
149.574383518436
20
-21.6673835167661
30
0
41
1
10
149.582020418222
20
-21.6502626912241
30
0
41
1
10
149.598905986321
20
-21.6158494363718
30
0
41
1
10
149.608200334979
20
-21.598435293484
30
0
41
1
10
149.628249215424
20
-21.5632547901681
30
0
41
1
10
149.639006636006
20
-21.5454877152687
30
0
41
1
10
149.650480947162
20
-21.5275506630092
30
0
0
SPLINE
5
191
100
AcDbEntity
8
1
62
256
6
ByLayer
370
18
48
1
60
0
100
AcDbSpline
70
4
71
3
72
8
73
4
40
0
40
0
40
0
40
0
40
1
40
1
40
1
40
1
41
1
10
149.650480947162
20
-21.5275506630092
30
0
41
1
10
149.878876276632
20
-21.1705149416585
30
0
41
1
10
150.103764009202
20
-20.8105598495161
30
0
41
1
10
150.324759526419
20
-20.4473652688735
30
0
0
SPLINE
5
192
100
AcDbEntity
8
1
62
256
6
ByLayer
370
18
48
1
60
0
100
AcDbSpline
70
4
71
3
72
8
73
4
40
0
40
0
40
0
40
0
40
1
40
1
40
1
40
1
41
1
10
150.324759526419
20
-20.1718025873658
30
0
41
1
10
150.10000187134
20
-20.3554472734957
30
0
41
1
10
149.875242279349
20
-20.5390887989485
30
0
41
1
10
149.650480947162
20
-20.7227274845173
30
0
0
SPLINE
5
193
100
AcDbEntity
8
1
62
256
6
ByLayer
370
18
48
1
60
0
100
AcDbSpline
70
4
71
3
72
38
73
34
40
0
40
0
40
0
40
0
40
0.0625000000000017
40
0.0625000000000017
40
0.0937499999999999
40
0.0937499999999999
40
0.124999999999998
40
0.124999999999998
40
0.187499999999998
40
0.187499999999998
40
0.249999999999998
40
0.249999999999998
40
0.281249999999995
40
0.281249999999995
40
0.312499999999993
40
0.312499999999993
40
0.374999999999996
40
0.374999999999996
40
0.4375
40
0.4375
40
0.500000000000003
40
0.500000000000003
40
0.562500000000006
40
0.562500000000006
40
0.62500000000001
40
0.62500000000001
40
0.687500000000013
40
0.687500000000013
40
0.750000000000017
40
0.750000000000017
40
0.875000000000008
40
0.875000000000008
40
1
40
1
40
1
40
1
41
1
10
149.650480947162
20
-20.7227274845173
30
0
41
1
10
149.642084189611
20
-20.7295879596027
30
0
41
1
10
149.633635577278
20
-20.7358730778346
30
0
41
1
10
149.621331349082
20
-20.7438542779431
30
0
41
1
10
149.617278610407
20
-20.7462841546203
30
0
41
1
10
149.609284196945
20
-20.7506167225567
30
0
41
1
10
149.605312533919
20
-20.7525309641125
30
0
41
1
10
149.59384949108
20
-20.7572404234738
30
0
41
1
10
149.586793021271
20
-20.7590261770071
30
0
41
1
10
149.574217814694
20
-20.7594741859468
30
0
41
1
10
149.568995280752
20
-20.7581391109119
30
0
41
1
10
149.562595860953
20
-20.7540283498169
30
0
41
1
10
149.560701051961
20
-20.7522911875497
30
0
41
1
10
149.557471003325
20
-20.7482678595017
30
0
41
1
10
149.556116901746
20
-20.7459736675126
30
0
41
1
10
149.552741344183
20
-20.7383459141707
30
0
41
1
10
149.551412871276
20
-20.7322137165055
30
0
41
1
10
149.550260898918
20
-20.7189622551589
30
0
41
1
10
149.550404629694
20
-20.7117851145455
30
0
41
1
10
149.551786707426
20
-20.6965886813014
30
0
41
1
10
149.55302900844
20
-20.6885664010888
30
0
41
1
10
149.556428844899
20
-20.6718153503687
30
0
41
1
10
149.558575785074
20
-20.6631531994731
30
0
41
1
10
149.563557184201
20
-20.6455384394753
30
0
41
1
10
149.566399025426
20
-20.6365545230316
30
0
41
1
10
149.5726862554
20
-20.6182825742094
30
0
41
1
10
149.576143791446
20
-20.6089656304771
30
0
41
1
10
149.58354639268
20
-20.5902008455657
30
0
41
1
10
149.587481021919
20
-20.5807754721037
30
0
41
1
10
149.599905559109
20
-20.5523851374537
30
0
41
1
10
149.609009839549
20
-20.5333070438349
30
0
41
1
10
149.628661740995
20
-20.4948880043345
30
0
41
1
10
149.639211392285
20
-20.4755466757466
30
0
41
1
10
149.650480947162
20
-20.4560769820827
30
0
0
SPLINE
5
194
100
AcDbEntity
8
1
62
256
6
ByLayer
370
18
48
1
60
0
100
AcDbSpline
70
4
71
3
72
8
73
4
40
0
40
0
40
0
40
0
40
1
40
1
40
1
40
1
41
1
10
149.650480947162
20
-20.4560769820827
30
0
41
1
10
149.880211532645
20
-20.0591860512804
30
0
41
1
10
150.105152654041
20
-19.6587123242203
30
0
41
1
10
150.324759526419
20
-19.2542482702526
30
0
0
SPLINE
5
195
100
AcDbEntity
8
1
62
256
6
ByLayer
370
18
48
1
60
0
100
AcDbSpline
70
4
71
3
72
8
73
4
40
0
40
0
40
0
40
0
40
1
40
1
40
1
40
1
41
1
10
150.324759526419
20
-18.9147796874403
30
0
41
1
10
150.10004293855
20
-19.1009918745286
30
0
41
1
10
149.87528177088
20
-19.2871322907612
30
0
41
1
10
149.650480947162
20
-19.4732088630914
30
0
0
SPLINE
5
196
100
AcDbEntity
8
1
62
256
6
ByLayer
370
18
48
1
60
0
100
AcDbSpline
70
4
71
3
72
34
73
30
40
0
40
0
40
0
40
0
40
0.0625000000000042
40
0.0625000000000042
40
0.0937500000000062
40
0.0937500000000062
40
0.125000000000008
40
0.125000000000008
40
0.187500000000002
40
0.187500000000002
40
0.249999999999995
40
0.249999999999995
40
0.281249999999995
40
0.281249999999995
40
0.312499999999995
40
0.312499999999995
40
0.374999999999997
40
0.374999999999997
40
0.4375
40
0.4375
40
0.500000000000002
40
0.500000000000002
40
0.625000000000002
40
0.625000000000002
40
0.750000000000001
40
0.750000000000001
40
0.875000000000001
40
0.875000000000001
40
1
40
1
40
1
40
1
41
1
10
149.650480947162
20
-19.4732088630923
30
0
41
1
10
149.641610746045
20
-19.4805510809384
30
0
41
1
10
149.632717594853
20
-19.4870974260139
30
0
41
1
10
149.619328414583
20
-19.4952053949897
30
0
41
1
10
149.614948765932
20
-19.4975617119472
30
0
41
1
10
149.606376490095
20
-19.5014961459086
30
0
41
1
10
149.602156895126
20
-19.5030818509566
30
0
41
1
10
149.590005767027
20
-19.5064329261962
30
0
41
1
10
149.582819857639
20
-19.50675740049
30
0
41
1
10
149.570335823892
20
-19.5034485559455
30
0
41
1
10
149.565449926247
20
-19.4999293623084
30
0
41
1
10
149.559738856258
20
-19.4925438009568
30
0
41
1
10
149.558096977763
20
-19.4897010183206
30
0
41
1
10
149.555363676397
20
-19.4835186121857
30
0
41
1
10
149.554261456695
20
-19.4801742613041
30
0
41
1
10
149.551618606382
20
-19.4695040698853
30
0
41
1
10
149.55074024509
20
-19.4614886218092
30
0
41
1
10
149.550322100162
20
-19.4446421416498
30
0
41
1
10
149.550767880495
20
-19.4357693456112
30
0
41
1
10
149.552650600946
20
-19.4173396015764
30
0
41
1
10
149.554097560382
20
-19.407748304117
30
0
41
1
10
149.559624326733
20
-19.3783622980696
30
0
41
1
10
149.564840271178
20
-19.3580458003157
30
0
41
1
10
149.577466630171
20
-19.3164151731891
30
0
41
1
10
149.584781622077
20
-19.2954445124742
30
0
41
1
10
149.600983403359
20
-19.2532582502718
30
0
41
1
10
149.609876729726
20
-19.2320416953016
30
0
41
1
10
149.629096511696
20
-19.1893876202437
30
0
41
1
10
149.639424130324
20
-19.1679499081217
30
0
41
1
10
149.650480947162
20
-19.1464023848396
30
0
0
SPLINE
5
197
100
AcDbEntity
8
1
62
256
6
ByLayer
370
18
48
1
60
0
100
AcDbSpline
70
4
71
3
72
8
73
4
40
0
40
0
40
0
40
0
40
1
40
1
40
1
40
1
41
1
10
149.650480947162
20
-19.1464023848396
30
0
41
1
10
149.882352997816
20
-18.6945301612787
30
0
41
1
10
150.107382666912
20
-18.2381665161971
30
0
41
1
10
150.324759526419
20
-17.7767794748912
30
0
0
SPLINE
5
198
100
AcDbEntity
8
1
62
256
6
ByLayer
370
18
48
1
60
0
100
AcDbSpline
70
4
71
3
72
8
73
4
40
0
40
0
40
0
40
0
40
1
40
1
40
1
40
1
41
1
10
150.324759526419
20
-17.3514611989837
30
0
41
1
10
150.100191536751
20
-17.5453578173506
30
0
41
1
10
149.875423713527
20
-17.7389451074582
30
0
41
1
10
149.650480947162
20
-17.9322615979162
30
0
0
SPLINE
5
199
100
AcDbEntity
8
1
62
256
6
ByLayer
370
18
48
1
60
0
100
AcDbSpline
70
4
71
3
72
39
73
35
40
0
40
0
40
0
40
0
40
0.0312500000000061
40
0.0312500000000061
40
0.0625000000000123
40
0.0625000000000123
40
0.0937500000000185
40
0.0937500000000185
40
0.125000000000025
40
0.125000000000025
40
0.156250000000031
40
0.156250000000031
40
0.187500000000037
40
0.187500000000037
40
0.218750000000043
40
0.218750000000043
40
0.25000000000005
40
0.25000000000005
40
0.281250000000056
40
0.281250000000056
40
0.312500000000062
40
0.312500000000062
40
0.375000000000063
40
0.375000000000063
40
0.500000000000066
40
0.500000000000066
40
0.562500000000063
40
0.562500000000063
40
0.62500000000006
40
0.62500000000006
40
0.75000000000004
40
0.75000000000004
40
0.87500000000002
40
1
40
1
40
1
40
1
41
1
10
149.650480947162
20
-17.932261597918
30
0
41
1
10
149.645659559597
20
-17.9364051129035
30
0
41
1
10
149.640801078904
20
-17.9402752725336
30
0
41
1
10
149.630992180374
20
-17.947336656015
30
0
41
1
10
149.626006027204
20
-17.950544709167
30
0
41
1
10
149.616213206618
20
-17.9559198413893
30
0
41
1
10
149.611384546088
20
-17.9581090210066
30
0
41
1
10
149.601890289183
20
-17.9612844521533
30
0
41
1
10
149.597355810905
20
-17.9622204837452
30
0
41
1
10
149.588820720175
20
-17.9627189554139
30
0
41
1
10
149.584759371
20
-17.9622658825154
30
0
41
1
10
149.577453125654
20
-17.9600256025938
30
0
41
1
10
149.574191909539
20
-17.9582620751234
30
0
41
1
10
149.568356163976
20
-17.9536047091898
30
0
41
1
10
149.565807208947
20
-17.9507159173006
30
0
41
1
10
149.561457307646
20
-17.944216322145
30
0
41
1
10
149.559626662752
20
-17.9405816268441
30
0
41
1
10
149.556523269337
20
-17.9326866584442
30
0
41
1
10
149.555247510152
20
-17.9284035299872
30
0
41
1
10
149.55319751331
20
-17.9194434140329
30
0
41
1
10
149.552418485904
20
-17.9147636089492
30
0
41
1
10
149.550682498191
20
-17.9002343493949
30
0
41
1
10
149.550325735068
20
-17.8898556133685
30
0
41
1
10
149.550966789172
20
-17.8579922826173
30
0
41
1
10
149.553590221519
20
-17.8355866876121
30
0
41
1
10
149.559524476594
20
-17.8009026027304
30
0
41
1
10
149.561860927053
20
-17.789113806189
30
0
41
1
10
149.567088729835
20
-17.7654205868506
30
0
41
1
10
149.569973709317
20
-17.7535355328583
30
0
41
1
10
149.579321527427
20
-17.7177809868877
30
0
41
1
10
149.58646953122
20
-17.6938130910537
30
0
41
1
10
149.602267862415
20
-17.6456594779338
30
0
41
1
10
149.619577003328
20
-17.5972869331207
30
0
41
1
10
149.639694160572
20
-17.5485106461847
30
0
41
1
10
149.650480947162
20
-17.5240203286135
30
0
0
SPLINE
5
19A
100
AcDbEntity
8
1
62
256
6
ByLayer
370
18
48
1
60
0
100
AcDbSpline
70
4
71
3
72
8
73
4
40
0
40
0
40
0
40
0
40
1
40
1
40
1
40
1
41
1
10
149.650480947162
20
-17.5240203286135
30
0
41
1
10
149.886241901321
20
-16.9887487173423
30
0
41
1
10
150.111437539985
20
-16.4476285217347
30
0
41
1
10
150.324759526419
20
-15.8999354929284
30
0
0
SPLINE
5
19B
100
AcDbEntity
8
1
62
256
6
ByLayer
370
18
48
1
60
0
100
AcDbSpline
70
4
71
3
72
8
73
4
40
0
40
0
40
0
40
0
40
1
40
1
40
1
40
1
41
1
10
150.324759526419
20
-15.3438916153448
30
0
41
1
10
150.100672937923
20
-15.5561625919072
30
0
41
1
10
149.875878259423
20
-15.7674293885324
30
0
41
1
10
149.650480947162
20
-15.9778415583032
30
0
0
SPLINE
5
19C
100
AcDbEntity
8
1
62
256
6
ByLayer
370
18
48
1
60
0
100
AcDbSpline
70
4
71
3
72
39
73
35
40
0
40
0
40
0
40
0
40
0.0312500000000002
40
0.0312500000000002
40
0.0625000000000004
40
0.0625000000000004
40
0.0781249999999983
40
0.0781249999999983
40
0.0937499999999963
40
0.0937499999999963
40
0.124999999999992
40
0.124999999999992
40
0.156249999999988
40
0.156249999999988
40
0.187499999999984
40
0.187499999999984
40
0.21874999999998
40
0.21874999999998
40
0.249999999999976
40
0.249999999999976
40
0.281249999999972
40
0.281249999999972
40
0.312499999999968
40
0.312499999999968
40
0.374999999999968
40
0.374999999999968
40
0.499999999999974
40
0.499999999999974
40
0.624999999999981
40
0.624999999999981
40
0.749999999999987
40
0.749999999999987
40
0.874999999999994
40
1
40
1
40
1
40
1
41
1
10
149.650480947162
20
-15.9778415583049
30
0
41
1
10
149.645070573186
20
-15.9828922331164
30
0
41
1
10
149.639513106979
20
-15.9875792288373
30
0
41
1
10
149.628225225349
20
-15.9957597995137
30
0
41
1
10
149.622572736454
20
-15.9992033141719
30
0
41
1
10
149.614077225303
20
-16.0030918810384
30
0
41
1
10
149.611222335286
20
-16.0041768835953
30
0
41
1
10
149.605677702528
20
-16.00579678088
30
0
41
1
10
149.602973531995
20
-16.0063414516261
30
0
41
1
10
149.595073068045
20
-16.007149022522
30
0
41
1
10
149.590031566255
20
-16.0065324890335
30
0
41
1
10
149.581193349521
20
-16.0032210025211
30
0
41
1
10
149.577280359417
20
-16.0005431411248
30
0
41
1
10
149.570434037439
20
-15.9936129589071
30
0
41
1
10
149.567567506173
20
-15.9894554602356
30
0
41
1
10
149.562642849808
20
-15.9801311836335
30
0
41
1
10
149.560603852079
20
-15.9749764931912
30
0
41
1
10
149.557229405652
20
-15.9641977522338
30
0
41
1
10
149.555875895449
20
-15.9585336597286
30
0
41
1
10
149.553672457203
20
-15.9467890170158
30
0
41
1
10
149.552823959493
20
-15.9407073042583
30
0
41
1
10
149.551532822405
20
-15.9282066799278
30
0
41
1
10
149.551090778585
20
-15.9217691865271
30
0
41
1
10
149.550280304693
20
-15.9022578233617
30
0
41
1
10
149.550409275107
20
-15.8889336262739
30
0
41
1
10
149.552194406003
20
-15.8482913762712
30
0
41
1
10
149.555225580055
20
-15.8203143302208
30
0
41
1
10
149.56364088965
20
-15.7632072654731
30
0
41
1
10
149.568989094997
20
-15.7344845311726
30
0
41
1
10
149.581324248186
20
-15.6768917217863
30
0
41
1
10
149.588324868774
20
-15.6479991733814
30
0
41
1
10
149.603732419277
20
-15.5900484071946
30
0
41
1
10
149.620551977068
20
-15.5319314186676
30
0
41
1
10
149.640038964386
20
-15.473501799807
30
0
41
1
10
149.650480947162
20
-15.4442074830623
30
0
0
SPLINE
5
19D
100
AcDbEntity
8
1
62
256
6
ByLayer
370
18
48
1
60
0
100
AcDbSpline
70
4
71
3
72
8
73
4
40
0
40
0
40
0
40
0
40
1
40
1
40
1
40
1
41
1
10
149.650480947162
20
-15.4442074830623
30
0
41
1
10
149.895186418447
20
-14.7577018893114
30
0
41
1
10
150.120774732857
20
-14.0629544043436
30
0
41
1
10
150.324759526419
20
-13.3588930935859
30
0
0
SPLINE
5
19E
100
AcDbEntity
8
1
62
256
6
ByLayer
370
18
48
1
60
0
100
AcDbSpline
70
4
71
3
72
8
73
4
40
0
40
0
40
0
40
0
40
1
40
1
40
1
40
1
41
1
10
150.324759526419
20
-12.545435292281
30
0
41
1
10
150.102856207575
20
-12.8081293930666
30
0
41
1
10
149.87789393872
20
-13.067289478253
30
0
41
1
10
149.650480947162
20
-13.3236182349672
30
0
0
SPLINE
5
19F
100
AcDbEntity
8
1
62
256
6
ByLayer
370
18
48
1
60
0
100
AcDbSpline
70
4
71
3
72
38
73
34
40
0
40
0
40
0
40
0
40
0.0312499999999963
40
0.0312499999999963
40
0.0468749999999972
40
0.0468749999999972
40
0.0624999999999981
40
0.0624999999999981
40
0.078124999999999
40
0.078124999999999
40
0.09375
40
0.09375
40
0.109375000000001
40
0.109375000000001
40
0.125000000000002
40
0.125000000000002
40
0.156250000000008
40
0.156250000000008
40
0.187500000000014
40
0.187500000000014
40
0.250000000000016
40
0.250000000000016
40
0.312500000000018
40
0.312500000000018
40
0.37500000000002
40
0.37500000000002
40
0.500000000000016
40
0.500000000000016
40
0.625000000000011
40
0.625000000000011
40
0.750000000000007
40
0.750000000000007
40
1
40
1
40
1
40
1
41
1
10
149.650480947163
20
-13.3236182349705
30
0
41
1
10
149.643984522043
20
-13.330940686352
30
0
41
1
10
149.637087099727
20
-13.3376812441221
30
0
41
1
10
149.626354747428
20
-13.3456807010566
30
0
41
1
10
149.622672786077
20
-13.3480197519197
30
0
41
1
10
149.615227174174
20
-13.3516964069812
30
0
41
1
10
149.611531397854
20
-13.3530045516319
30
0
41
1
10
149.604203715131
20
-13.3543660752698
30
0
41
1
10
149.600638398742
20
-13.3543893446795
30
0
41
1
10
149.593959541195
20
-13.3531406766523
30
0
41
1
10
149.590782123263
20
-13.351847986693
30
0
41
1
10
149.58507026222
20
-13.3482820732699
30
0
41
1
10
149.582488099225
20
-13.346011336494
30
0
41
1
10
149.577753050436
20
-13.3407033141977
30
0
41
1
10
149.575612489275
20
-13.3376705393072
30
0
41
1
10
149.569849274635
20
-13.3279202867125
30
0
41
1
10
149.566789889395
20
-13.3204354378219
30
0
41
1
10
149.561775920044
20
-13.3047772034488
30
0
41
1
10
149.559797491318
20
-13.2965426252911
30
0
41
1
10
149.554893629213
20
-13.2710419424099
30
0
41
1
10
149.552983754743
20
-13.2528841812447
30
0
41
1
10
149.550722421526
20
-13.2163879167963
30
0
41
1
10
149.550369579247
20
-13.1978998584485
30
0
41
1
10
149.550648562
20
-13.1606122640511
30
0
41
1
10
149.551290415845
20
-13.1418097737327
30
0
41
1
10
149.5543116466
20
-13.0850476350127
30
0
41
1
10
149.557768451239
20
-13.0467387011074
30
0
41
1
10
149.566574464434
20
-12.9694791711001
30
0
41
1
10
149.571943356467
20
-12.9305227713767
30
0
41
1
10
149.584191791777
20
-12.8520814043073
30
0
41
1
10
149.591049423945
20
-12.812771089896
30
0
41
1
10
149.613451439318
20
-12.6948596061425
30
0
41
1
10
149.630794068013
20
-12.6161561624276
30
0
41
1
10
149.650480947162
20
-12.5373639096824
30
0
0
SPLINE
5
1A0
100
AcDbEntity
8
1
62
256
6
ByLayer
370
18
48
1
60
0
100
AcDbSpline
70
4
71
3
72
8
73
4
40
0
40
0
40
0
40
0
40
1
40
1
40
1
40
1
41
1
10
149.650480947162
20
-12.5373639096824
30
0
41
1
10
149.936650314553
20
-11.3920361533961
30
0
41
1
10
150.164101740032
20
-10.2315551818873
30
0
41
1
10
150.324759526419
20
-9.05383691704506
30
0
0
SPLINE
5
1A1
100
AcDbEntity
8
1
62
256
6
ByLayer
370
18
48
1
60
0
100
AcDbSpline
70
4
71
3
72
10
73
6
40
0
40
0
40
0
40
0
40
0.499999999999999
40
0.499999999999999
40
1
40
1
40
1
40
1
41
1
10
150.324759526415
20
-6.53983562436423
30
0
41
1
10
150.253343637489
20
-6.91394777515399
30
0
41
1
10
150.158489259991
20
-7.27822115563211
30
0
41
1
10
149.9309865447
20
-7.9909031523834
30
0
41
1
10
149.798334418939
20
-8.3393101785818
30
0
41
1
10
149.650480947162
20
-8.68133613838094
30
0
0
SPLINE
5
1A2
100
AcDbEntity
8
1
62
256
6
ByLayer
370
18
48
1
60
0
100
AcDbSpline
70
4
71
3
72
57
73
53
40
0
40
0
40
0
40
0
40
0.125000000000001
40
0.125000000000001
40
0.250000000000002
40
0.375000000000003
40
0.375000000000003
40
0.500000000000003
40
0.500000000000003
40
0.625000000000004
40
0.625000000000004
40
0.687500000000005
40
0.687500000000005
40
0.750000000000005
40
0.750000000000005
40
0.812500000000005
40
0.812500000000005
40
0.875000000000005
40
0.875000000000005
40
0.906250000000005
40
0.906250000000005
40
0.921875000000006
40
0.921875000000006
40
0.937500000000006
40
0.937500000000006
40
0.945312500000005
40
0.945312500000005
40
0.953125000000005
40
0.953125000000005
40
0.960937500000004
40
0.960937500000004
40
0.964843750000004
40
0.964843750000004
40
0.968750000000004
40
0.968750000000004
40
0.972656250000004
40
0.972656250000004
40
0.976562500000004
40
0.976562500000004
40
0.978515625000003
40
0.978515625000003
40
0.980468750000003
40
0.980468750000003
40
0.982421875000003
40
0.982421875000003
40
0.984375000000003
40
0.984375000000003
40
0.988281250000002
40
0.988281250000002
40
0.992187500000002
40
0.992187500000002
40
1
40
1
40
1
40
1
41
1
10
149.650480947162
20
-5.20552241900097
30
0
41
1
10
149.649474914009
20
-5.3574271769202
30
0
41
1
10
149.647352403027
20
-5.50931806643757
30
0
41
1
10
149.641079448038
20
-5.81307104231263
30
0
41
1
10
149.632780577668
20
-6.11679520448905
30
0
41
1
10
149.621220285853
20
-6.42045756542169
30
0
41
1
10
149.608599227804
20
-6.7240859621451
30
0
41
1
10
149.601754923346
20
-6.87588319884028
30
0
41
1
10
149.587790157286
20
-7.1794394073718
30
0
41
1
10
149.580656945612
20
-7.33119845239045
30
0
41
1
10
149.570656270951
20
-7.558803253197
30
0
41
1
10
149.567443146173
20
-7.63466586964654
30
0
41
1
10
149.561508805656
20
-7.78637838337633
30
0
41
1
10
149.558783648494
20
-7.8622523268607
30
0
41
1
10
149.554227791731
20
-8.01360192235103
30
0
41
1
10
149.552384521753
20
-8.08911791731452
30
0
41
1
10
149.550304819929
20
-8.23969455938928
30
0
41
1
10
149.550017507499
20
-8.31476474005123
30
0
41
1
10
149.552116127572
20
-8.42678061902876
30
0
41
1
10
149.553241725102
20
-8.46402017693413
30
0
41
1
10
149.556066196098
20
-8.51963782520784
30
0
41
1
10
149.557199844787
20
-8.53813623287243
30
0
41
1
10
149.560032561575
20
-8.57501750617831
30
0
41
1
10
149.561724621638
20
-8.59340168463615
30
0
41
1
10
149.564962866512
20
-8.62083957542089
30
0
41
1
10
149.566160648091
20
-8.62996216256647
30
0
41
1
10
149.568892543204
20
-8.64814192597885
30
0
41
1
10
149.570429233634
20
-8.65722701901228
30
0
41
1
10
149.574003223349
20
-8.67517038949723
30
0
41
1
10
149.576022559128
20
-8.68398056808817
30
0
41
1
10
149.579665375541
20
-8.69677304463283
30
0
41
1
10
149.580983473112
20
-8.70096570128914
30
0
41
1
10
149.583925806698
20
-8.70914096325532
30
0
41
1
10
149.585555704597
20
-8.71313687493387
30
0
41
1
10
149.589214864265
20
-8.72059319090056
30
0
41
1
10
149.59124291104
20
-8.72408197853559
30
0
41
1
10
149.596024190781
20
-8.73018722525998
30
0
41
1
10
149.598791925149
20
-8.73279255037579
30
0
41
1
10
149.603585192062
20
-8.73502813093472
30
0
41
1
10
149.605238544653
20
-8.73546904733729
30
0
41
1
10
149.608667422954
20
-8.73568290628663
30
0
41
1
10
149.61045752744
20
-8.73544033002645
30
0
41
1
10
149.613936585578
20
-8.73433323985267
30
0
41
1
10
149.615671884936
20
-8.73346228202689
30
0
41
1
10
149.61899339339
20
-8.73128844497847
30
0
41
1
10
149.620581409002
20
-8.72999412036484
30
0
41
1
10
149.625186557665
20
-8.72565845068033
30
0
41
1
10
149.628021131566
20
-8.7221900981294
30
0
41
1
10
149.633249794903
20
-8.71485248827463
30
0
41
1
10
149.635679061346
20
-8.71093331943857
30
0
41
1
10
149.642616772462
20
-8.69870333450086
30
0
41
1
10
149.646685962344
20
-8.69011498752855
30
0
41
1
10
149.650480947162
20
-8.68133613838094
30
0
0
SPLINE
5
1A3
100
AcDbEntity
8
1
62
256
6
ByLayer
370
18
48
1
60
0
100
AcDbSpline
70
4
71
3
72
8
73
4
40
0
40
0
40
0
40
0
40
1
40
1
40
1
40
1
41
1
10
149.650480947162
20
-5.20552241900097
30
0
41
1
10
149.651388368233
20
-5.06850747300032
30
0
41
1
10
149.651388368233
20
-4.9314925269997
30
0
41
1
10
149.650480947162
20
-4.79447758099909
30
0
0
SPLINE
5
1A4
100
AcDbEntity
8
1
62
256
6
ByLayer
370
18
48
1
60
0
100
AcDbSpline
70
4
71
3
72
59
73
55
40
0
40
0
40
0
40
0
40
0.125
40
0.125
40
0.249999999999999
40
0.374999999999999
40
0.374999999999999
40
0.499999999999998
40
0.499999999999998
40
0.624999999999998
40
0.624999999999998
40
0.687499999999998
40
0.687499999999998
40
0.749999999999998
40
0.749999999999998
40
0.812499999999998
40
0.812499999999998
40
0.843749999999998
40
0.843749999999998
40
0.874999999999998
40
0.874999999999998
40
0.906249999999998
40
0.906249999999998
40
0.921874999999998
40
0.921874999999998
40
0.937499999999998
40
0.937499999999998
40
0.945312499999997
40
0.945312499999997
40
0.953124999999997
40
0.953124999999997
40
0.960937499999996
40
0.960937499999996
40
0.964843749999996
40
0.964843749999996
40
0.968749999999996
40
0.968749999999996
40
0.972656249999995
40
0.972656249999995
40
0.976562499999995
40
0.976562499999995
40
0.978515624999995
40
0.978515624999995
40
0.980468749999995
40
0.980468749999995
40
0.982421874999995
40
0.982421874999995
40
0.984374999999995
40
0.984374999999995
40
0.988281249999996
40
0.988281249999996
40
0.992187499999998
40
0.992187499999998
40
1
40
1
40
1
40
1
41
1
10
149.650480947162
20
-4.79447758099909
30
0
41
1
10
149.649474529164
20
-4.64251471388164
30
0
41
1
10
149.647350571744
20
-4.49053796568143
30
0
41
1
10
149.641070593963
20
-4.18655560661949
30
0
41
1
10
149.632760419544
20
-3.88254437671779
30
0
41
1
10
149.621178756172
20
-3.578471135879
30
0
41
1
10
149.608531759673
20
-3.27436377042295
30
0
41
1
10
149.601672191192
20
-3.12229304533889
30
0
41
1
10
149.587676377915
20
-2.81811307991163
30
0
41
1
10
149.580530180473
20
-2.66605426235276
30
0
41
1
10
149.570536139854
20
-2.43839190151581
30
0
41
1
10
149.567328862802
20
-2.36256092266666
30
0
41
1
10
149.561413484972
20
-2.21103091425223
30
0
41
1
10
149.558701689912
20
-2.13533160187032
30
0
41
1
10
149.554167978853
20
-1.98409466407668
30
0
41
1
10
149.552334555853
20
-1.90855615929866
30
0
41
1
10
149.550799054594
20
-1.7954114536748
30
0
41
1
10
149.550492739192
20
-1.75772396308994
30
0
41
1
10
149.550469812771
20
-1.68241745721332
30
0
41
1
10
149.550750183483
20
-1.64476113344736
30
0
41
1
10
149.552208755407
20
-1.56976737828575
30
0
41
1
10
149.553373181025
20
-1.53242702314441
30
0
41
1
10
149.556275212278
20
-1.47680109279528
30
0
41
1
10
149.557437968645
20
-1.4583240656921
30
0
41
1
10
149.560336644401
20
-1.42155428916445
30
0
41
1
10
149.562065629678
20
-1.40325947003933
30
0
41
1
10
149.565365531574
20
-1.37603795457693
30
0
41
1
10
149.566584913132
20
-1.36700140207378
30
0
41
1
10
149.569361551694
20
-1.34903242569209
30
0
41
1
10
149.570921073671
20
-1.34008083847718
30
0
41
1
10
149.574516938715
20
-1.32254623548266
30
0
41
1
10
149.576547962152
20
-1.31394003657061
30
0
41
1
10
149.58021552862
20
-1.30145618741173
30
0
41
1
10
149.581543102687
20
-1.29736686038095
30
0
41
1
10
149.584510409302
20
-1.28940126076259
30
0
41
1
10
149.586161611328
20
-1.28549603561791
30
0
41
1
10
149.589888240219
20
-1.27822223260506
30
0
41
1
10
149.591955510826
20
-1.27483725148843
30
0
41
1
10
149.59684579735
20
-1.26899837969745
30
0
41
1
10
149.599637337106
20
-1.26661628239299
30
0
41
1
10
149.604411839463
20
-1.26472938390171
30
0
41
1
10
149.606061767276
20
-1.26439804135336
30
0
41
1
10
149.609492008733
20
-1.26439900739575
30
0
41
1
10
149.611227428267
20
-1.2647377215138
30
0
41
1
10
149.61463552521
20
-1.26599300532953
30
0
41
1
10
149.616332222931
20
-1.2669203538857
30
0
41
1
10
149.619554834059
20
-1.2691517646121
30
0
41
1
10
149.621102908113
20
-1.27046166889051
30
0
41
1
10
149.62560527577
20
-1.27482664274473
30
0
41
1
10
149.628363216431
20
-1.2782523551565
30
0
41
1
10
149.633516183583
20
-1.28556367863078
30
0
41
1
10
149.635914818984
20
-1.2894637385163
30
0
41
1
10
149.642693644436
20
-1.30147160711704
30
0
41
1
10
149.646722359183
20
-1.30996920842148
30
0
41
1
10
149.650480947162
20
-1.31866386161752
30
0
0
SPLINE
5
1A5
100
AcDbEntity
8
1
62
256
6
ByLayer
370
18
48
1
60
0
100
AcDbSpline
70
4
71
3
72
10
73
6
40
0
40
0
40
0
40
0
40
0.5
40
0.5
40
1
40
1
40
1
40
1
41
1
10
149.650480947161
20
-1.31866386161775
30
0
41
1
10
149.798334418938
20
-1.66068982141715
30
0
41
1
10
149.9309865447
20
-2.00909684761587
30
0
41
1
10
150.158489259991
20
-2.72177884436775
30
0
41
1
10
150.253343637489
20
-3.08605222484618
30
0
41
1
10
150.324759526415
20
-3.46016437563625
30
0
0
SPLINE
5
1A6
100
AcDbEntity
8
1
62
256
6
ByLayer
370
18
48
1
60
0
100
AcDbSpline
70
4
71
3
72
8
73
4
40
0
40
0
40
0
40
0
40
1
40
1
40
1
40
1
41
1
10
150.324759526419
20
-0.946163082954968
30
0
41
1
10
150.164101740032
20
0.231555181887245
30
0
41
1
10
149.936650314553
20
1.39203615339611
30
0
41
1
10
149.650480947162
20
2.5373639096824
30
0
0
SPLINE
5
1A7
100
AcDbEntity
8
1
62
256
6
ByLayer
370
18
48
1
60
0
100
AcDbSpline
70
4
71
3
72
42
73
38
40
0
40
0
40
0
40
0
40
0.25
40
0.25
40
0.375
40
0.375
40
0.5
40
0.5
40
0.625
40
0.625
40
0.687499999999998
40
0.687499999999998
40
0.749999999999995
40
0.749999999999995
40
0.781249999999996
40
0.781249999999996
40
0.812499999999997
40
0.812499999999997
40
0.843749999999998
40
0.843749999999998
40
0.859374999999998
40
0.859374999999998
40
0.874999999999998
40
0.874999999999998
40
0.890624999999999
40
0.890624999999999
40
0.906249999999999
40
0.906249999999999
40
0.921874999999999
40
0.921874999999999
40
0.9375
40
0.9375
40
0.953125
40
0.953125
40
0.96875
40
0.96875
40
1
40
1
40
1
40
1
41
1
10
149.650480947161
20
2.5373639096824
30
0
41
1
10
149.63076897837
20
2.61625657801235
30
0
41
1
10
149.61346059995
20
2.69484838754948
30
0
41
1
10
149.591140780514
20
2.81227186098141
30
0
41
1
10
149.584320719394
20
2.85133461566428
30
0
41
1
10
149.572124668301
20
2.92928471022256
30
0
41
1
10
149.566742521326
20
2.96817257525149
30
0
41
1
10
149.557864378317
20
3.04573416545694
30
0
41
1
10
149.55434285781
20
3.08444008797414
30
0
41
1
10
149.551271377319
20
3.14217806187318
30
0
41
1
10
149.550630005146
20
3.16123086440578
30
0
41
1
10
149.550377159459
20
3.19882638523853
30
0
41
1
10
149.550757044975
20
3.21737314192137
30
0
41
1
10
149.552486535079
20
3.24462984001568
30
0
41
1
10
149.553258656099
20
3.25362040287675
30
0
41
1
10
149.555324288495
20
3.27135071684887
30
0
41
1
10
149.556619146011
20
3.28011323257636
30
0
41
1
10
149.559941779673
20
3.2971873027509
30
0
41
1
10
149.56194845637
20
3.30541747543916
30
0
41
1
10
149.565733288872
20
3.31707909554294
30
0
41
1
10
149.567125496084
20
3.32085109081433
30
0
41
1
10
149.570248978874
20
3.32809687353611
30
0
41
1
10
149.571992418155
20
3.33159059857061
30
0
41
1
10
149.575857623531
20
3.33803499233542
30
0
41
1
10
149.577978928924
20
3.34099480065311
30
0
41
1
10
149.582717557109
20
3.3462264145773
30
0
41
1
10
149.58536880188
20
3.34851669927167
30
0
41
1
10
149.591140283969
20
3.35201750539352
30
0
41
1
10
149.594278886941
20
3.35324654098008
30
0
41
1
10
149.601038610781
20
3.35441280864799
30
0
41
1
10
149.604547324229
20
3.35433579846574
30
0
41
1
10
149.611812347963
20
3.35291576298346
30
0
41
1
10
149.615579957294
20
3.3515498926707
30
0
41
1
10
149.622949675614
20
3.3478528590455
30
0
41
1
10
149.626634528598
20
3.3454932373682
30
0
41
1
10
149.637401170667
20
3.3374023255912
30
0
41
1
10
149.644079218297
20
3.33083394937941
30
0
41
1
10
149.650480947162
20
3.3236182349672
30
0
0
SPLINE
5
1A8
100
AcDbEntity
8
1
62
256
6
ByLayer
370
18
48
1
60
0
100
AcDbSpline
70
4
71
3
72
8
73
4
40
0
40
0
40
0
40
0
40
1
40
1
40
1
40
1
41
1
10
149.650480947162
20
3.3236182349672
30
0
41
1
10
149.877893938717
20
3.06728947825619
30
0
41
1
10
150.102856207569
20
2.80812939307304
30
0
41
1
10
150.324759526411
20
2.54543529229093
30
0
0
SPLINE
5
1A9
100
AcDbEntity
8
1
62
256
6
ByLayer
370
18
48
1
60
0
100
AcDbSpline
70
4
71
3
72
8
73
4
40
0
40
0
40
0
40
0
40
1
40
1
40
1
40
1
41
1
10
150.324759526419
20
3.35889309358586
30
0
41
1
10
150.120774732857
20
4.06295440434354
30
0
41
1
10
149.895186418447
20
4.75770188931131
30
0
41
1
10
149.650480947162
20
5.44420748306223
30
0
0
SPLINE
5
1AA
100
AcDbEntity
8
1
62
256
6
ByLayer
370
18
48
1
60
0
100
AcDbSpline
70
4
71
3
72
40
73
36
40
0
40
0
40
0
40
0
40
0.125000000000001
40
0.125000000000001
40
0.250000000000001
40
0.250000000000001
40
0.375000000000002
40
0.375000000000002
40
0.500000000000002
40
0.500000000000002
40
0.562500000000005
40
0.562500000000005
40
0.625000000000008
40
0.625000000000008
40
0.687500000000012
40
0.687500000000012
40
0.750000000000015
40
0.750000000000015
40
0.781250000000013
40
0.781250000000013
40
0.812500000000012
40
0.812500000000012
40
0.84375000000001
40
0.84375000000001
40
0.875000000000009
40
0.875000000000009
40
0.906250000000007
40
0.906250000000007
40
0.921875000000006
40
0.921875000000006
40
0.937500000000005
40
0.937500000000005
40
0.968750000000003
40
0.968750000000003
40
1
40
1
40
1
40
1
41
1
10
149.650480947162
20
5.44420748306223
30
0
41
1
10
149.640025010736
20
5.47354094588272
30
0
41
1
10
149.630210989746
20
5.50296730764455
30
0
41
1
10
149.611958545041
20
5.56160023228455
30
0
41
1
10
149.603523410692
20
5.590786552845
30
0
41
1
10
149.588102337404
20
5.64888549281653
30
0
41
1
10
149.581113785878
20
5.67779854521189
30
0
41
1
10
149.5688291768
20
5.73530933063228
30
0
41
1
10
149.56352332279
20
5.76390865542419
30
0
41
1
10
149.557268698592
20
5.80649914666961
30
0
41
1
10
149.555468305322
20
5.82068229639537
30
0
41
1
10
149.552619223369
20
5.84861134073245
30
0
41
1
10
149.551563972929
20
5.86238012842739
30
0
41
1
10
149.550399909879
20
5.88942147328419
30
0
41
1
10
149.550285829804
20
5.90269668368924
30
0
41
1
10
149.55138586223
20
5.92855850520976
30
0
41
1
10
149.552608640832
20
5.94123313026901
30
0
41
1
10
149.555948456209
20
5.95886082305827
30
0
41
1
10
149.557314290988
20
5.96451854128014
30
0
41
1
10
149.56070997398
20
5.97526294264901
30
0
41
1
10
149.562757184409
20
5.98038816815134
30
0
41
1
10
149.567691285185
20
5.98964730968393
30
0
41
1
10
149.570555797839
20
5.99376039591695
30
0
41
1
10
149.57735811212
20
6.0005969404051
30
0
41
1
10
149.581328265331
20
6.00329955266869
30
0
41
1
10
149.590209516905
20
6.00657015800479
30
0
41
1
10
149.595238130169
20
6.00715473388277
30
0
41
1
10
149.603144568995
20
6.0063121242097
30
0
41
1
10
149.605853809947
20
6.00575588771423
30
0
41
1
10
149.611415566325
20
6.00410914666764
30
0
41
1
10
149.614249175209
20
6.00302066552027
30
0
41
1
10
149.622685087213
20
5.99913628534782
30
0
41
1
10
149.628307688267
20
5.99570468914564
30
0
41
1
10
149.639550729521
20
5.98754726072514
30
0
41
1
10
149.645089621271
20
5.98287445141
30
0
41
1
10
149.650480947162
20
5.9778415583049
30
0
0
SPLINE
5
1AB
100
AcDbEntity
8
1
62
256
6
ByLayer
370
18
48
1
60
0
100
AcDbSpline
70
4
71
3
72
8
73
4
40
0
40
0
40
0
40
0
40
1
40
1
40
1
40
1
41
1
10
149.650480947162
20
5.97784155830314
30
0
41
1
10
149.875878259423
20
5.76742938853238
30
0
41
1
10
150.100672937923
20
5.55616259190714
30
0
41
1
10
150.324759526419
20
5.34389161534477
30
0
0
SPLINE
5
1AC
100
AcDbEntity
8
1
62
256
6
ByLayer
370
18
48
1
60
0
100
AcDbSpline
70
4
71
3
72
8
73
4
40
0
40
0
40
0
40
0
40
1
40
1
40
1
40
1
41
1
10
150.324759526419
20
5.89993549292839
30
0
41
1
10
150.111437539985
20
6.4476285217346
30
0
41
1
10
149.886241901321
20
6.98874871734222
30
0
41
1
10
149.650480947162
20
7.52402032861346
30
0
0
SPLINE
5
1AD
100
AcDbEntity
8
1
62
256
6
ByLayer
370
18
48
1
60
0
100
AcDbSpline
70
4
71
3
72
40
73
36
40
0
40
0
40
0
40
0
40
0.124999999999994
40
0.124999999999994
40
0.249999999999989
40
0.249999999999989
40
0.374999999999984
40
0.374999999999984
40
0.499999999999978
40
0.499999999999978
40
0.562499999999977
40
0.562499999999977
40
0.624999999999977
40
0.624999999999977
40
0.687499999999976
40
0.687499999999976
40
0.718749999999978
40
0.718749999999978
40
0.749999999999981
40
0.749999999999981
40
0.781249999999983
40
0.781249999999983
40
0.812499999999986
40
0.812499999999986
40
0.843749999999988
40
0.843749999999988
40
0.87499999999999
40
0.87499999999999
40
0.906249999999993
40
0.906249999999993
40
0.937499999999995
40
0.937499999999995
40
0.968749999999998
40
0.968749999999998
40
1
40
1
40
1
40
1
41
1
10
149.650480947162
20
7.52402032861346
30
0
41
1
10
149.639690471916
20
7.54851902090937
30
0
41
1
10
149.629613916005
20
7.5729486554888
30
0
41
1
10
149.610849297583
20
7.62166893814194
30
0
41
1
10
149.602160592807
20
7.64595966229564
30
0
41
1
10
149.586289625029
20
7.69438871252993
30
0
41
1
10
149.579096154492
20
7.71855252249162
30
0
41
1
10
149.566584682111
20
7.76659241475653
30
0
41
1
10
149.561339273704
20
7.79015656612427
30
0
41
1
10
149.555481361028
20
7.82460605543008
30
0
41
1
10
149.553867302615
20
7.83593824799172
30
0
41
1
10
149.551487852271
20
7.85822714870949
30
0
41
1
10
149.550718615151
20
7.86923965219529
30
0
41
1
10
149.550336211257
20
7.89048928224679
30
0
41
1
10
149.550714779598
20
7.90067875148344
30
0
41
1
10
149.552465551096
20
7.915065565048
30
0
41
1
10
149.553248182532
20
7.91971019776577
30
0
41
1
10
149.555309097648
20
7.9286248501684
30
0
41
1
10
149.556593904736
20
7.93290109950462
30
0
41
1
10
149.559717301251
20
7.94077561669533
30
0
41
1
10
149.561559358519
20
7.94440024947428
30
0
41
1
10
149.565937706079
20
7.95087774233281
30
0
41
1
10
149.568504767017
20
7.95375190251823
30
0
41
1
10
149.574349248947
20
7.95835750704185
30
0
41
1
10
149.577621102576
20
7.96010347271039
30
0
41
1
10
149.584977180313
20
7.96230488223375
30
0
41
1
10
149.589008029016
20
7.9627276846837
30
0
41
1
10
149.597554413791
20
7.96218830663901
30
0
41
1
10
149.602165047507
20
7.96121031139938
30
0
41
1
10
149.61156352127
20
7.95803052781361
30
0
41
1
10
149.616343834585
20
7.95585324386116
30
0
41
1
10
149.626039774226
20
7.95052099647526
30
0
41
1
10
149.630992916634
20
7.94733636270502
30
0
41
1
10
149.640809613647
20
7.9402688914594
30
0
41
1
10
149.64566607499
20
7.93639951355365
30
0
41
1
10
149.650480947162
20
7.93226159791715
30
0
0
SPLINE
5
1AE
100
AcDbEntity
8
1
62
256
6
ByLayer
370
18
48
1
60
0
100
AcDbSpline
70
4
71
3
72
8
73
4
40
0
40
0
40
0
40
0
40
1
40
1
40
1
40
1
41
1
10
149.650480947162
20
7.93226159791615
30
0
41
1
10
149.875423713527
20
7.73894510745819
30
0
41
1
10
150.100191536751
20
7.54535781735058
30
0
41
1
10
150.324759526419
20
7.35146119898369
30
0
0
SPLINE
5
1AF
100
AcDbEntity
8
1
62
256
6
ByLayer
370
18
48
1
60
0
100
AcDbSpline
70
4
71
3
72
8
73
4
40
0
40
0
40
0
40
0
40
1
40
1
40
1
40
1
41
1
10
150.324759526419
20
7.77677947489116
30
0
41
1
10
150.107382666912
20
8.23816651619705
30
0
41
1
10
149.882352997816
20
8.69453016127872
30
0
41
1
10
149.650480947162
20
9.14640238483955
30
0
0
SPLINE
5
1B0
100
AcDbEntity
8
1
62
256
6
ByLayer
370
18
48
1
60
0
100
AcDbSpline
70
4
71
3
72
40
73
36
40
0
40
0
40
0
40
0
40
0.124999999999989
40
0.124999999999989
40
0.249999999999978
40
0.249999999999978
40
0.374999999999968
40
0.374999999999968
40
0.437499999999964
40
0.437499999999964
40
0.499999999999961
40
0.499999999999961
40
0.562499999999958
40
0.562499999999958
40
0.624999999999955
40
0.624999999999955
40
0.687499999999952
40
0.687499999999952
40
0.718749999999956
40
0.718749999999956
40
0.74999999999996
40
0.74999999999996
40
0.781249999999964
40
0.781249999999964
40
0.812499999999968
40
0.812499999999968
40
0.843749999999972
40
0.843749999999972
40
0.874999999999977
40
0.874999999999977
40
0.937499999999987
40
0.937499999999987
40
0.968749999999993
40
0.968749999999993
40
1
40
1
40
1
40
1
41
1
10
149.650480947162
20
9.14640238483955
30
0
41
1
10
149.639414958228
20
9.16796778270182
30
0
41
1
10
149.629040809079
20
9.1894982781842
30
0
41
1
10
149.609683150239
20
9.23248443205554
30
0
41
1
10
149.600665700982
20
9.25403048225789
30
0
41
1
10
149.584409180772
20
9.29647166063836
30
0
41
1
10
149.577153956557
20
9.31737839548009
30
0
41
1
10
149.56784509696
20
9.34817408247096
30
0
41
1
10
149.565006721943
20
9.35834447277094
30
0
41
1
10
149.55994833633
20
9.37846448887726
30
0
41
1
10
149.557723039423
20
9.38843673902431
30
0
41
1
10
149.554054354314
20
9.40801378137996
30
0
41
1
10
149.552625671844
20
9.41753047952153
30
0
41
1
10
149.550759790623
20
9.43590263268726
30
0
41
1
10
149.550318779816
20
9.44476057189613
30
0
41
1
10
149.550749497916
20
9.46160565458786
30
0
41
1
10
149.551636822927
20
9.46961043770679
30
0
41
1
10
149.554281873644
20
9.48024000518279
30
0
41
1
10
149.555383473851
20
9.48357031541414
30
0
41
1
10
149.55811068237
20
9.48972500719628
30
0
41
1
10
149.559751087798
20
9.49256724841072
30
0
41
1
10
149.5635955558
20
9.4975235357781
30
0
41
1
10
149.565792502249
20
9.49963974055277
30
0
41
1
10
149.570810054821
20
9.50305244188471
30
0
41
1
10
149.573662929114
20
9.50435108560654
30
0
41
1
10
149.579852338377
20
9.50594893745301
30
0
41
1
10
149.583198210382
20
9.50626627341154
30
0
41
1
10
149.59039654148
20
9.50593180130375
30
0
41
1
10
149.594295692839
20
9.50526513931652
30
0
41
1
10
149.606418497699
20
9.50187462243764
30
0
41
1
10
149.61493133613
20
9.49786692547212
30
0
41
1
10
149.628201605806
20
9.48983271770786
30
0
41
1
10
149.632697891773
20
9.48681559981955
30
0
41
1
10
149.641605111238
20
9.48034788222927
30
0
41
1
10
149.646047713552
20
9.47687842666696
30
0
41
1
10
149.650480947162
20
9.47320886309191
30
0
0
SPLINE
5
1B1
100
AcDbEntity
8
1
62
256
6
ByLayer
370
18
48
1
60
0
100
AcDbSpline
70
4
71
3
72
8
73
4
40
0
40
0
40
0
40
0
40
1
40
1
40
1
40
1
41
1
10
149.650480947162
20
9.47320886309134
30
0
41
1
10
149.87528177088
20
9.28713229076112
30
0
41
1
10
150.10004293855
20
9.10099187452857
30
0
41
1
10
150.324759526419
20
8.91477968744024
30
0
0
SPLINE
5
1B2
100
AcDbEntity
8
1
62
256
6
ByLayer
370
18
48
1
60
0
100
AcDbSpline
70
4
71
3
72
8
73
4
40
0
40
0
40
0
40
0
40
1
40
1
40
1
40
1
41
1
10
150.324759526419
20
9.25424827025256
30
0
41
1
10
150.105152654041
20
9.65871232422029
30
0
41
1
10
149.880211532645
20
10.0591860512804
30
0
41
1
10
149.650480947162
20
10.4560769820826
30
0
0
SPLINE
5
1B3
100
AcDbEntity
8
1
62
256
6
ByLayer
370
18
48
1
60
0
100
AcDbSpline
70
4
71
3
72
39
73
35
40
0
40
0
40
0
40
0
40
0.125000000000007
40
0.125000000000007
40
0.250000000000014
40
0.250000000000014
40
0.375000000000021
40
0.375000000000021
40
0.437500000000024
40
0.437500000000024
40
0.500000000000028
40
0.500000000000028
40
0.562500000000031
40
0.562500000000031
40
0.593750000000029
40
0.593750000000029
40
0.625000000000028
40
0.625000000000028
40
0.687500000000028
40
0.687500000000028
40
0.718750000000026
40
0.718750000000026
40
0.750000000000024
40
0.750000000000024
40
0.781250000000022
40
0.781250000000022
40
0.81250000000002
40
0.843750000000018
40
0.843750000000018
40
0.875000000000016
40
0.875000000000016
40
0.937500000000008
40
0.937500000000008
40
1
40
1
40
1
40
1
41
1
10
149.650480947162
20
10.4560769820826
30
0
41
1
10
149.639193035731
20
10.4755783891984
30
0
41
1
10
149.628590160519
20
10.4950150973001
30
0
41
1
10
149.608789608101
20
10.5337506274621
30
0
41
1
10
149.59955440175
20
10.553139477002
30
0
41
1
10
149.582996045851
20
10.5910738569026
30
0
41
1
10
149.575636447461
20
10.6096683647398
30
0
41
1
10
149.566297083473
20
10.6368716168552
30
0
41
1
10
149.563469944102
20
10.645823579614
30
0
41
1
10
149.558498129876
20
10.6634519327067
30
0
41
1
10
149.556355985995
20
10.6721338879737
30
0
41
1
10
149.552992495483
20
10.6887880728007
30
0
41
1
10
149.551755667217
20
10.6968054930674
30
0
41
1
10
149.550731607718
20
10.7082552465153
30
0
41
1
10
149.550529643809
20
10.7119751829311
30
0
41
1
10
149.550447718715
20
10.719192264216
30
0
41
1
10
149.550569803588
20
10.7227031448462
30
0
41
1
10
149.551489172924
20
10.7326767960533
30
0
41
1
10
149.552823866437
20
10.738626638058
30
0
41
1
10
149.556235634613
20
10.7461914297908
30
0
41
1
10
149.557622786118
20
10.7484972729628
30
0
41
1
10
149.560888621489
20
10.7524800239255
30
0
41
1
10
149.562763444322
20
10.7541622265617
30
0
41
1
10
149.567039967856
20
10.7568546457306
30
0
41
1
10
149.569461523802
20
10.7578691446226
30
0
41
1
10
149.574799687778
20
10.7591280609591
30
0
41
1
10
149.580568003688
20
10.7596147416129
30
0
41
1
10
149.587174135165
20
10.7586005535335
30
0
41
1
10
149.594197904459
20
10.7568396148944
30
0
41
1
10
149.597925489672
20
10.7555764856679
30
0
41
1
10
149.609307892352
20
10.7508672481532
30
0
41
1
10
149.617324482498
20
10.7464633141779
30
0
41
1
10
149.63384879861
20
10.7357246214997
30
0
41
1
10
149.642150093394
20
10.7295341136678
30
0
41
1
10
149.650480947162
20
10.7227274845176
30
0
0
SPLINE
5
1B4
100
AcDbEntity
8
1
62
256
6
ByLayer
370
18
48
1
60
0
100
AcDbSpline
70
4
71
3
72
8
73
4
40
0
40
0
40
0
40
0
40
1
40
1
40
1
40
1
41
1
10
149.650480947162
20
10.7227274845173
30
0
41
1
10
149.875242279349
20
10.5390887989485
30
0
41
1
10
150.10000187134
20
10.3554472734957
30
0
41
1
10
150.324759526419
20
10.1718025873658
30
0
0
SPLINE
5
1B5
100
AcDbEntity
8
1
62
256
6
ByLayer
370
18
48
1
60
0
100
AcDbSpline
70
4
71
3
72
8
73
4
40
0
40
0
40
0
40
0
40
1
40
1
40
1
40
1
41
1
10
150.324759526419
20
10.4473652688735
30
0
41
1
10
150.103764009202
20
10.810559849516
30
0
41
1
10
149.878876276632
20
11.1705149416585
30
0
41
1
10
149.650480947162
20
11.5275506630092
30
0
0
SPLINE
5
1B6
100
AcDbEntity
8
1
62
256
6
ByLayer
370
18
48
1
60
0
100
AcDbSpline
70
4
71
3
72
41
73
37
40
0
40
0
40
0
40
0
40
0.124999999999997
40
0.124999999999997
40
0.187499999999998
40
0.187499999999998
40
0.249999999999998
40
0.249999999999998
40
0.374999999999987
40
0.374999999999987
40
0.437499999999985
40
0.437499999999985
40
0.499999999999984
40
0.499999999999984
40
0.562499999999981
40
0.562499999999981
40
0.624999999999979
40
0.624999999999979
40
0.656249999999978
40
0.656249999999978
40
0.687499999999978
40
0.687499999999978
40
0.718749999999976
40
0.718749999999976
40
0.749999999999976
40
0.749999999999976
40
0.81249999999998
40
0.81249999999998
40
0.843749999999983
40
0.843749999999983
40
0.874999999999985
40
0.906249999999988
40
0.906249999999988
40
0.93749999999999
40
0.93749999999999
40
1
40
1
40
1
40
1
41
1
10
149.650480947162
20
11.5275506630092
30
0
41
1
10
149.638981804677
20
11.5455265324871
30
0
41
1
10
149.62814548197
20
11.5634206151345
30
0
41
1
10
149.612939206481
20
11.5901281849026
30
0
41
1
10
149.608042788563
20
11.5990169496372
30
0
41
1
10
149.598721928768
20
11.6165648982946
30
0
41
1
10
149.594284643271
20
11.6252457634574
30
0
41
1
10
149.581686936374
20
11.6509896479143
30
0
41
1
10
149.574223281786
20
11.6677610781085
30
0
41
1
10
149.564837577099
20
11.6921604462441
30
0
41
1
10
149.562006278076
20
11.7001981661704
30
0
41
1
10
149.557184605238
20
11.7156477088207
30
0
41
1
10
149.555179368067
20
11.7230904973063
30
0
41
1
10
149.552137250522
20
11.7373043165412
30
0
41
1
10
149.551097322754
20
11.7440774273189
30
0
41
1
10
149.550263647968
20
11.7567617390192
30
0
41
1
10
149.550482593648
20
11.7625191878593
30
0
41
1
10
149.551971457481
20
11.7700613230136
30
0
41
1
10
149.552662227263
20
11.7723934928276
30
0
41
1
10
149.554488589318
20
11.7766425722051
30
0
41
1
10
149.555629696968
20
11.7785582671374
30
0
41
1
10
149.558347744801
20
11.781828174281
30
0
41
1
10
149.559929168047
20
11.7831969176479
30
0
41
1
10
149.563569638857
20
11.7853637195283
30
0
41
1
10
149.565645521329
20
11.7861647789785
30
0
41
1
10
149.572537810431
20
11.7876065271336
30
0
41
1
10
149.57792665398
20
11.7872966647606
30
0
41
1
10
149.587151619285
20
11.7850110816938
30
0
41
1
10
149.590446302725
20
11.7839313072075
30
0
41
1
10
149.597241521147
20
11.7812338486901
30
0
41
1
10
149.604247829043
20
11.7780072079684
30
0
41
1
10
149.61163322165
20
11.7738322488324
30
0
41
1
10
149.619193271317
20
11.7692211157922
30
0
41
1
10
149.623071327699
20
11.7666886267638
30
0
41
1
10
149.634714931172
20
11.7586489532194
30
0
41
1
10
149.642563586242
20
11.7526628820392
30
0
41
1
10
149.650480947162
20
11.7461799915722
30
0
0
SPLINE
5
1B7
100
AcDbEntity
8
1
62
256
6
ByLayer
370
18
48
1
60
0
100
AcDbSpline
70
4
71
3
72
8
73
4
40
0
40
0
40
0
40
0
40
1
40
1
40
1
40
1
41
1
10
149.650480947162
20
11.7461799915719
30
0
41
1
10
149.875247737629
20
11.562136533403
30
0
41
1
10
150.100007511727
20
11.3780816494066
30
0
41
1
10
150.324759526419
20
11.1940141333148
30
0
0
SPLINE
5
1B8
100
AcDbEntity
8
1
62
256
6
ByLayer
370
18
48
1
60
0
100
AcDbSpline
70
4
71
3
72
8
73
4
40
0
40
0
40
0
40
0
40
1
40
1
40
1
40
1
41
1
10
150.324759526419
20
11.4182396666025
30
0
41
1
10
150.10282976625
20
11.7496954266907
30
0
41
1
10
149.87797677687
20
12.0784874839773
30
0
41
1
10
149.650480947162
20
12.4048713342158
30
0
0
SPLINE
5
1B9
100
AcDbEntity
8
1
62
256
6
ByLayer
370
18
48
1
60
0
100
AcDbSpline
70
4
71
3
72
34
73
30
40
0
40
0
40
0
40
0
40
0.125000000000016
40
0.125000000000016
40
0.250000000000033
40
0.250000000000033
40
0.312500000000035
40
0.312500000000035
40
0.375000000000037
40
0.375000000000037
40
0.500000000000041
40
0.500000000000041
40
0.562500000000041
40
0.562500000000041
40
0.625000000000042
40
0.625000000000042
40
0.687500000000043
40
0.687500000000043
40
0.718750000000042
40
0.718750000000042
40
0.750000000000042
40
0.750000000000042
40
0.812500000000032
40
0.812500000000032
40
0.875000000000021
40
0.875000000000021
40
0.937500000000011
40
0.937500000000011
40
1
40
1
40
1
40
1
41
1
10
149.650480947162
20
12.4048713342158
30
0
41
1
10
149.638779782576
20
12.4216587678787
30
0
41
1
10
149.627693116502
20
12.4383758860407
30
0
41
1
10
149.607002473869
20
12.4714107933081
30
0
41
1
10
149.597504579954
20
12.4875524832557
30
0
41
1
10
149.584701626499
20
12.5111204626935
30
0
41
1
10
149.580676613219
20
12.518868159681
30
0
41
1
10
149.57317678391
20
12.534117596638
30
0
41
1
10
149.569687169971
20
12.5416532144368
30
0
41
1
10
149.560306547285
20
12.5635746306861
30
0
41
1
10
149.555515793997
20
12.5771559030129
30
0
41
1
10
149.551444442405
20
12.595334081104
30
0
41
1
10
149.550629414815
20
12.6010158296479
30
0
41
1
10
149.550369704541
20
12.6110410235757
30
0
41
1
10
149.550906911697
20
12.6154408318442
30
0
41
1
10
149.553649785601
20
12.6227119306336
30
0
41
1
10
149.555833495618
20
12.625479638909
30
0
41
1
10
149.560418657478
20
12.6281044544242
30
0
41
1
10
149.562180578905
20
12.6287302685931
30
0
41
1
10
149.56612484049
20
12.629429998826
30
0
41
1
10
149.568286199411
20
12.6295043011147
30
0
41
1
10
149.575316333567
20
12.6289333978027
30
0
41
1
10
149.580743615076
20
12.6274928474924
30
0
41
1
10
149.592956646791
20
12.6225760263927
30
0
41
1
10
149.599500450861
20
12.619204439914
30
0
41
1
10
149.613308831925
20
12.6109620758323
30
0
41
1
10
149.620630234374
20
12.606041751766
30
0
41
1
10
149.635395579301
20
12.5952630873197
30
0
41
1
10
149.642891402848
20
12.5893789353748
30
0
41
1
10
149.650480947162
20
12.5830864488536
30
0
0
SPLINE
5
1BA
100
AcDbEntity
8
1
62
256
6
ByLayer
370
18
48
1
60
0
100
AcDbSpline
70
4
71
3
72
8
73
4
40
0
40
0
40
0
40
0
40
1
40
1
40
1
40
1
41
1
10
149.650480947162
20
12.5830864488534
30
0
41
1
10
149.87527835498
20
12.3967070563409
30
0
41
1
10
150.100039125586
20
12.2102687278776
30
0
41
1
10
150.324759526419
20
12.0237655573025
30
0
0
SPLINE
5
1BB
100
AcDbEntity
8
1
62
256
6
ByLayer
370
18
48
1
60
0
100
AcDbSpline
70
4
71
3
72
8
73
4
40
0
40
0
40
0
40
0
40
1
40
1
40
1
40
1
41
1
10
150.324759526419
20
12.204537010626
30
0
41
1
10
150.102167049584
20
12.5105841760994
30
0
41
1
10
149.877337890168
20
12.8144257977413
30
0
41
1
10
149.650480947162
20
13.1162678662819
30
0
0
SPLINE
5
1BC
100
AcDbEntity
8
1
62
256
6
ByLayer
370
18
48
1
60
0
100
AcDbSpline
70
4
71
3
72
41
73
37
40
0
40
0
40
0
40
0
40
0.0625000000000068
40
0.0625000000000068
40
0.125000000000014
40
0.125000000000014
40
0.25000000000002
40
0.25000000000002
40
0.312500000000018
40
0.312500000000018
40
0.375000000000017
40
0.375000000000017
40
0.437500000000016
40
0.468750000000016
40
0.468750000000016
40
0.500000000000016
40
0.500000000000016
40
0.562500000000015
40
0.562500000000015
40
0.625000000000014
40
0.625000000000014
40
0.687500000000013
40
0.687500000000013
40
0.750000000000013
40
0.750000000000013
40
0.781250000000011
40
0.781250000000011
40
0.812500000000009
40
0.812500000000009
40
0.875000000000009
40
0.875000000000009
40
0.906250000000005
40
0.906250000000005
40
0.937500000000001
40
0.937500000000001
40
1
40
1
40
1
40
1
41
1
10
149.650480947162
20
13.1162678662819
30
0
41
1
10
149.644530707472
20
13.1241848937819
30
0
41
1
10
149.638734660478
20
13.1320661881962
30
0
41
1
10
149.627462614209
20
13.1477537676446
30
0
41
1
10
149.621983627572
20
13.1555655854397
30
0
41
1
10
149.606226071217
20
13.1786319055696
30
0
41
1
10
149.59655639816
20
13.1936038516693
30
0
41
1
10
149.583525644729
20
13.2153410699518
30
0
41
1
10
149.579429881241
20
13.2224656317339
30
0
41
1
10
149.571814377828
20
13.2364325284525
30
0
41
1
10
149.568318980523
20
13.2432345542673
30
0
41
1
10
149.562151731737
20
13.2562021368569
30
0
41
1
10
149.558116055743
20
13.2654991328198
30
0
41
1
10
149.555124307769
20
13.2740375850842
30
0
41
1
10
149.553390593519
20
13.2795405045769
30
0
41
1
10
149.552653442229
20
13.2822028365412
30
0
41
1
10
149.550910298472
20
13.2897406107663
30
0
41
1
10
149.550352356246
20
13.2942147484468
30
0
41
1
10
149.550659068286
20
13.3018677379402
30
0
41
1
10
149.551551382701
20
13.3050594781882
30
0
41
1
10
149.554942046485
20
13.3096266601921
30
0
41
1
10
149.55744201508
20
13.31105029367
30
0
41
1
10
149.564147905172
20
13.3119608702219
30
0
41
1
10
149.568227742826
20
13.3114399048529
30
0
41
1
10
149.575359496822
20
13.3093034854225
30
0
41
1
10
149.577906330663
20
13.3083642815716
30
0
41
1
10
149.583336023074
20
13.3060366334107
30
0
41
1
10
149.586212296449
20
13.3046487760991
30
0
41
1
10
149.595094710497
20
13.2999585110497
30
0
41
1
10
149.601422754011
20
13.2961049586613
30
0
41
1
10
149.611436330013
20
13.2893955044817
30
0
41
1
10
149.614876803774
20
13.2869917365593
30
0
41
1
10
149.62181975771
20
13.2819650556374
30
0
41
1
10
149.625327553302
20
13.2793394829975
30
0
41
1
10
149.635948792471
20
13.271161122513
30
0
41
1
10
149.643159471795
20
13.2653086512668
30
0
41
1
10
149.650480947162
20
13.259115910295
30
0
0
SPLINE
5
1BD
100
AcDbEntity
8
1
62
256
6
ByLayer
370
18
48
1
60
0
100
AcDbSpline
70
4
71
3
72
8
73
4
40
0
40
0
40
0
40
0
40
1
40
1
40
1
40
1
41
1
10
149.650480947162
20
13.2591159102949
30
0
41
1
10
149.875326782245
20
13.0689340213255
30
0
41
1
10
150.100089025132
20
12.8786205059024
30
0
41
1
10
150.324759526419
20
12.6881625317612
30
0
0
SPLINE
5
1BE
100
AcDbEntity
8
1
62
256
6
ByLayer
370
18
48
1
60
0
100
AcDbSpline
70
4
71
3
72
8
73
4
40
0
40
0
40
0
40
0
40
1
40
1
40
1
40
1
41
1
10
150.324759526419
20
12.8306924641192
30
0
41
1
10
150.101678442285
20
13.1158055554848
30
0
41
1
10
149.876866272617
20
13.3990877212198
30
0
41
1
10
149.650480947162
20
13.6807059996443
30
0
0
SPLINE
5
1BF
100
AcDbEntity
8
1
62
256
6
ByLayer
370
18
48
1
60
0
100
AcDbSpline
70
4
71
3
72
38
73
34
40
0
40
0
40
0
40
0
40
0.0624999999999961
40
0.0624999999999961
40
0.124999999999992
40
0.124999999999992
40
0.249999999999986
40
0.249999999999986
40
0.312499999999984
40
0.312499999999984
40
0.374999999999982
40
0.374999999999982
40
0.43749999999998
40
0.43749999999998
40
0.499999999999978
40
0.499999999999978
40
0.562499999999976
40
0.562499999999976
40
0.624999999999974
40
0.624999999999974
40
0.687499999999971
40
0.687499999999971
40
0.749999999999969
40
0.749999999999969
40
0.781249999999972
40
0.781249999999972
40
0.812499999999974
40
0.812499999999974
40
0.874999999999983
40
0.874999999999983
40
0.937499999999991
40
0.937499999999991
40
1
40
1
40
1
40
1
41
1
10
149.650480947162
20
13.6807059996443
30
0
41
1
10
149.644435066045
20
13.6882269404489
30
0
41
1
10
149.638541009106
20
13.6956954835845
30
0
41
1
10
149.627070710279
20
13.7105219541045
30
0
41
1
10
149.621478397149
20
13.7179019338334
30
0
41
1
10
149.605382543492
20
13.7396367381104
30
0
41
1
10
149.59552307329
20
13.7536213176681
30
0
41
1
10
149.582291758194
20
13.7736882743325
30
0
41
1
10
149.578143409899
20
13.7802241905302
30
0
41
1
10
149.570463431254
20
13.792935050527
30
0
41
1
10
149.566983467967
20
13.7990266725007
30
0
41
1
10
149.560894095359
20
13.8105111646514
30
0
41
1
10
149.558273629461
20
13.815921115396
30
0
41
1
10
149.554041861198
20
13.8259505318495
30
0
41
1
10
149.552432376484
20
13.8305864249236
30
0
41
1
10
149.550538980103
20
13.8385889334806
30
0
41
1
10
149.550233118891
20
13.8420039082263
30
0
41
1
10
149.551141496283
20
13.8474028832892
30
0
41
1
10
149.552342069685
20
13.8493113044687
30
0
41
1
10
149.556322566542
20
13.8514574493095
30
0
41
1
10
149.559156903261
20
13.8516693992415
30
0
41
1
10
149.566155193741
20
13.8503516061791
30
0
41
1
10
149.570327284129
20
13.8488516643691
30
0
41
1
10
149.57754044284
20
13.845411474338
30
0
41
1
10
149.580121827421
20
13.8440551043984
30
0
41
1
10
149.585487525657
20
13.8410134790065
30
0
41
1
10
149.588275661537
20
13.8393280740423
30
0
41
1
10
149.596927885113
20
13.8338227337175
30
0
41
1
10
149.603078037699
20
13.8295564416253
30
0
41
1
10
149.616050433374
20
13.8199786606838
30
0
41
1
10
149.622764082909
20
13.8147458022603
30
0
41
1
10
149.636420273296
20
13.8036638171371
30
0
41
1
10
149.643389119659
20
13.7977944023938
30
0
41
1
10
149.650480947162
20
13.7916390605853
30
0
0
SPLINE
5
1C0
100
AcDbEntity
8
1
62
256
6
ByLayer
370
18
48
1
60
0
100
AcDbSpline
70
4
71
3
72
8
73
4
40
0
40
0
40
0
40
0
40
1
40
1
40
1
40
1
41
1
10
149.650480947162
20
13.7916390605852
30
0
41
1
10
149.875390693943
20
13.5964289589472
30
0
41
1
10
150.100154848045
20
13.4009956122068
30
0
41
1
10
150.324759526419
20
13.2053177327395
30
0
0
SPLINE
5
1C1
100
AcDbEntity
8
1
62
256
6
ByLayer
370
18
48
1
60
0
100
AcDbSpline
70
4
71
3
72
8
73
4
40
0
40
0
40
0
40
0
40
1
40
1
40
1
40
1
41
1
10
150.324759526419
20
13.3131399205597
30
0
41
1
10
150.101307459449
20
13.5806365366888
30
0
41
1
10
149.876507770666
20
13.8466150387261
30
0
41
1
10
149.650480947162
20
14.1112111569994
30
0
0
SPLINE
5
1C2
100
AcDbEntity
8
1
62
256
6
ByLayer
370
18
48
1
60
0
100
AcDbSpline
70
4
71
3
72
37
73
33
40
0
40
0
40
0
40
0
40
0.125000000000005
40
0.125000000000005
40
0.25000000000001
40
0.25000000000001
40
0.312500000000011
40
0.312500000000011
40
0.375000000000013
40
0.375000000000013
40
0.437500000000015
40
0.437500000000015
40
0.468750000000016
40
0.468750000000016
40
0.500000000000017
40
0.531250000000018
40
0.531250000000018
40
0.56250000000002
40
0.56250000000002
40
0.62500000000002
40
0.62500000000002
40
0.656250000000018
40
0.656250000000018
40
0.687500000000016
40
0.687500000000016
40
0.750000000000013
40
0.750000000000013
40
0.81250000000001
40
0.81250000000001
40
0.875000000000006
40
0.875000000000006
40
1
40
1
40
1
40
1
41
1
10
149.650480947162
20
14.1112111569994
30
0
41
1
10
149.638202144537
20
14.1255852187202
30
0
41
1
10
149.626485867576
20
14.1397144945021
30
0
41
1
10
149.604552320067
20
14.1671510631429
30
0
41
1
10
149.594502099815
20
14.1802445976579
30
0
41
1
10
149.581082092083
20
14.1987490698133
30
0
41
1
10
149.57688735265
20
14.20472606789
30
0
41
1
10
149.569160111633
20
14.2162246159392
30
0
41
1
10
149.565703840036
20
14.2216334116342
30
0
41
1
10
149.559712993625
20
14.2316731893742
30
0
41
1
10
149.557175330865
20
14.236307773251
30
0
41
1
10
149.554189582967
20
14.2425686008373
30
0
41
1
10
149.55333114082
20
14.2445439196842
30
0
41
1
10
149.551945089713
20
14.2481706791233
30
0
41
1
10
149.550880306039
20
14.2514915212535
30
0
41
1
10
149.550493173189
20
14.2541672783632
30
0
41
1
10
149.550469840073
20
14.2564968771615
30
0
41
1
10
149.55064329357
20
14.2574911476068
30
0
41
1
10
149.551729677775
20
14.2598627622591
30
0
41
1
10
149.553197894126
20
14.2606567256917
30
0
41
1
10
149.556546564706
20
14.2606368151033
30
0
41
1
10
149.557864176504
20
14.2604245190905
30
0
41
1
10
149.56084962648
20
14.2595937482397
30
0
41
1
10
149.562509311231
20
14.2589798099646
30
0
41
1
10
149.567961306001
20
14.256576233022
30
0
41
1
10
149.572230449554
20
14.254223815366
30
0
41
1
10
149.581924074944
20
14.2481356233894
30
0
41
1
10
149.587203153222
20
14.2444931606372
30
0
41
1
10
149.598484907468
20
14.2362099822945
30
0
41
1
10
149.604518790299
20
14.231543271623
30
0
41
1
10
149.623400016941
20
14.2163577993823
30
0
41
1
10
149.636681697516
20
14.2049543935825
30
0
41
1
10
149.650480947162
20
14.1926049128575
30
0
0
SPLINE
5
1C3
100
AcDbEntity
8
1
62
256
6
ByLayer
370
18
48
1
60
0
100
AcDbSpline
70
4
71
3
72
8
73
4
40
0
40
0
40
0
40
0
40
1
40
1
40
1
40
1
41
1
10
149.650480947162
20
14.1926049128575
30
0
41
1
10
149.875470342809
20
13.9912532251729
30
0
41
1
10
150.100236859786
20
13.7895703804292
30
0
41
1
10
150.324759526419
20
13.5875252185437
30
0
0
SPLINE
5
1C4
100
AcDbEntity
8
1
62
256
6
ByLayer
370
18
48
1
60
0
100
AcDbSpline
70
4
71
3
72
8
73
4
40
0
40
0
40
0
40
0
40
1
40
1
40
1
40
1
41
1
10
150.324759526419
20
13.6630274540333
30
0
41
1
10
150.101019214676
20
13.9154654531765
30
0
41
1
10
149.876228917632
20
14.1666509399748
30
0
41
1
10
149.650480947162
20
14.4166940319326
30
0
0
SPLINE
5
1C5
100
AcDbEntity
8
1
62
256
6
ByLayer
370
18
48
1
60
0
100
AcDbSpline
70
4
71
3
72
37
73
33
40
0
40
0
40
0
40
0
40
0.0625000000000038
40
0.0625000000000038
40
0.125000000000007
40
0.125000000000007
40
0.250000000000016
40
0.250000000000016
40
0.31250000000002
40
0.31250000000002
40
0.375000000000024
40
0.406250000000024
40
0.406250000000024
40
0.437500000000024
40
0.437500000000024
40
0.500000000000025
40
0.500000000000025
40
0.531250000000025
40
0.531250000000025
40
0.562500000000024
40
0.562500000000024
40
0.62500000000002
40
0.62500000000002
40
0.687500000000015
40
0.687500000000015
40
0.750000000000011
40
0.750000000000011
40
0.812500000000007
40
0.812500000000007
40
0.875000000000003
40
0.875000000000003
40
1
40
1
40
1
40
1
41
1
10
149.650480947162
20
14.4166940319326
30
0
41
1
10
149.644233516261
20
14.4236138148035
30
0
41
1
10
149.638128791671
20
14.4304472421319
30
0
41
1
10
149.626224587922
20
14.4439282469415
30
0
41
1
10
149.620408632679
20
14.4505953398455
30
0
41
1
10
149.603696944729
20
14.4700187730248
30
0
41
1
10
149.593459438986
20
14.4822776869191
30
0
41
1
10
149.579801977808
20
14.499359790977
30
0
41
1
10
149.575513158025
20
14.5048653228669
30
0
41
1
10
149.56782727776
20
14.515076174795
30
0
41
1
10
149.562698992221
20
14.5221718288959
30
0
41
1
10
149.55866279162
20
14.5283005792956
30
0
41
1
10
149.556240243351
20
14.5321488241232
30
0
41
1
10
149.555161120897
20
14.5339584350359
30
0
41
1
10
149.552417952635
20
14.5389021635935
30
0
41
1
10
149.551221826353
20
14.5415884195284
30
0
41
1
10
149.550485616375
20
14.5445985953608
30
0
41
1
10
149.550419091259
20
14.5454340249258
30
0
41
1
10
149.550661814729
20
14.5467128369886
30
0
41
1
10
149.550968230582
20
14.5471605417463
30
0
41
1
10
149.552439131489
20
14.5479324593434
30
0
41
1
10
149.554154903999
20
14.5476875862862
30
0
41
1
10
149.559095757758
20
14.545630029289
30
0
41
1
10
149.562230525272
20
14.5438567909988
30
0
41
1
10
149.569682176899
20
14.5389883407314
30
0
41
1
10
149.574051131848
20
14.535851615375
30
0
41
1
10
149.583612877603
20
14.528557039509
30
0
41
1
10
149.58879748384
20
14.5244110022476
30
0
41
1
10
149.599860114334
20
14.5152650369474
30
0
41
1
10
149.605784818522
20
14.510223577669
30
0
41
1
10
149.624098620595
20
14.4942917137734
30
0
41
1
10
149.637015243456
20
14.482621137558
30
0
41
1
10
149.650480947162
20
14.4701429912256
30
0
0
SPLINE
5
1C6
100
AcDbEntity
8
1
62
256
6
ByLayer
370
18
48
1
60
0
100
AcDbSpline
70
4
71
3
72
8
73
4
40
0
40
0
40
0
40
0
40
1
40
1
40
1
40
1
41
1
10
149.650480947162
20
14.4701429912256
30
0
41
1
10
149.875567648883
20
14.2615638584136
30
0
41
1
10
150.10033706691
20
14.0525298860215
30
0
41
1
10
150.324759526419
20
13.8429985339382
30
0
0
SPLINE
5
1C7
100
AcDbEntity
8
1
62
256
6
ByLayer
370
18
48
1
60
0
100
AcDbSpline
70
4
71
3
72
8
73
4
40
0
40
0
40
0
40
0
40
1
40
1
40
1
40
1
41
1
10
150.324759526419
20
13.8877233606912
30
0
41
1
10
150.100791090601
20
14.1271433496652
30
0
41
1
10
149.876008003165
20
14.3655393957385
30
0
41
1
10
149.650480947162
20
14.6030003410692
30
0
0
SPLINE
5
1C8
100
AcDbEntity
8
1
62
256
6
ByLayer
370
18
48
1
60
0
100
AcDbSpline
70
4
71
3
72
37
73
33
40
0
40
0
40
0
40
0
40
0.125000000000019
40
0.125000000000019
40
0.187500000000026
40
0.187500000000026
40
0.250000000000033
40
0.250000000000033
40
0.31250000000004
40
0.343750000000043
40
0.343750000000043
40
0.375000000000046
40
0.375000000000046
40
0.437500000000047
40
0.437500000000047
40
0.468750000000045
40
0.468750000000045
40
0.500000000000044
40
0.500000000000044
40
0.562500000000038
40
0.562500000000038
40
0.625000000000033
40
0.625000000000033
40
0.687500000000027
40
0.687500000000027
40
0.750000000000022
40
0.750000000000022
40
0.812500000000016
40
0.812500000000016
40
0.875000000000011
40
0.875000000000011
40
1
40
1
40
1
40
1
41
1
10
149.650480947162
20
14.6030003410692
30
0
41
1
10
149.637713524711
20
14.6164433587645
30
0
41
1
10
149.625555134204
20
14.6293990848537
30
0
41
1
10
149.60856985031
20
14.6477688699773
30
0
41
1
10
149.603108564082
20
14.6537238617308
30
0
41
1
10
149.592645038061
20
14.6652469120385
30
0
41
1
10
149.587628553198
20
14.6708318448452
30
0
41
1
10
149.578394061833
20
14.6812540907382
30
0
41
1
10
149.572016535815
20
14.6885648297592
30
0
41
1
10
149.566579562048
20
14.6950058114147
30
0
41
1
10
149.563185659207
20
14.6990862291317
30
0
41
1
10
149.561600856608
20
14.7010238889255
30
0
41
1
10
149.557303071354
20
14.7063893319181
30
0
41
1
10
149.555014755975
20
14.7094065301894
30
0
41
1
10
149.552553203198
20
14.7129894842049
30
0
41
1
10
149.551893247071
20
14.7140301161126
30
0
41
1
10
149.550941407315
20
14.7157401602286
30
0
41
1
10
149.550646743411
20
14.716412469459
30
0
41
1
10
149.550307456757
20
14.7178803359909
30
0
41
1
10
149.550804218981
20
14.7181301453525
30
0
41
1
10
149.553323180194
20
14.7170929258188
30
0
41
1
10
149.555303382755
20
14.7158212919829
30
0
41
1
10
149.560517793468
20
14.7119566589441
30
0
41
1
10
149.563756830219
20
14.7093608741009
30
0
41
1
10
149.571431586465
20
14.7029148992649
30
0
41
1
10
149.575773222109
20
14.699143259072
30
0
41
1
10
149.585223568068
20
14.6907486294537
30
0
41
1
10
149.59034747327
20
14.6861125346104
30
0
41
1
10
149.601310018783
20
14.6760560925488
30
0
41
1
10
149.607046357809
20
14.670729424597
30
0
41
1
10
149.624771194315
20
14.6541190568011
30
0
41
1
10
149.637325338164
20
14.642161607454
30
0
41
1
10
149.650480947162
20
14.6294893682057
30
0
0
SPLINE
5
1C9
100
AcDbEntity
8
1
62
256
6
ByLayer
370
18
48
1
60
0
100
AcDbSpline
70
4
71
3
72
8
73
4
40
0
40
0
40
0
40
0
40
1
40
1
40
1
40
1
41
1
10
149.650480947162
20
14.6294893682057
30
0
41
1
10
149.875685997486
20
14.4125589107668
30
0
41
1
10
150.100458994954
20
14.1950332762281
30
0
41
1
10
150.324759526419
20
13.97685679321
30
0
0
SPLINE
5
1CA
100
AcDbEntity
8
1
62
256
6
ByLayer
370
18
48
1
60
0
100
AcDbSpline
70
4
71
3
72
8
73
4
40
0
40
0
40
0
40
0
40
1
40
1
40
1
40
1
41
1
10
150.324759526419
20
13.991671694456
30
0
41
1
10
150.100607863251
20
14.2197546698709
30
0
41
1
10
149.875830405165
20
14.4470125106997
30
0
41
1
10
149.650480947162
20
14.6735161477106
30
0
0
SPLINE
5
1CB
100
AcDbEntity
8
1
62
256
6
ByLayer
370
18
48
1
60
0
100
AcDbSpline
70
4
71
3
72
32
73
28
40
0
40
0
40
0
40
0
40
0.0960893971588463
40
0.0960893971588463
40
0.192178794317692
40
0.192178794317692
40
0.384357588635385
40
0.384357588635385
40
0.480446985794231
40
0.480446985794231
40
0.528491684373657
40
0.528491684373657
40
0.576536382953084
40
0.576536382953084
40
0.672625780111941
40
0.672625780111941
40
0.720670478691369
40
0.720670478691369
40
0.768715177270798
40
0.768715177270798
40
0.864804574429655
40
0.864804574429655
40
0.912849273009084
40
0.912849273009084
40
0.960893971588513
40
0.960893971588513
40
1
40
1
40
1
40
1
41
1
10
149.650480947162
20
14.6735161477106
30
0
41
1
10
149.643995528497
20
14.6800347829365
30
0
41
1
10
149.637641930968
20
14.6864240983025
30
0
41
1
10
149.625223781212
20
14.6989177330083
30
0
41
1
10
149.619159362558
20
14.7050219490506
30
0
41
1
10
149.601760540395
20
14.7225422830358
30
0
41
1
10
149.591092877904
20
14.7332946246385
30
0
41
1
10
149.576962978984
20
14.7475455477897
30
0
41
1
10
149.572665768936
20
14.7518812199195
30
0
41
1
10
149.566937041454
20
14.7576626687887
30
0
41
1
10
149.565146159727
20
14.7594703034833
30
0
41
1
10
149.561821741835
20
14.7628262012985
30
0
41
1
10
149.560285385347
20
14.7643773132462
30
0
41
1
10
149.556170769704
20
14.7685318245776
30
0
41
1
10
149.554054662599
20
14.7706689842464
30
0
41
1
10
149.551904777519
20
14.7728403855655
30
0
41
1
10
149.551358069514
20
14.7733926014477
30
0
41
1
10
149.550642684802
20
14.7741152032568
30
0
41
1
10
149.550471174801
20
14.7742884504568
30
0
41
1
10
149.550501778366
20
14.7742575373637
30
0
41
1
10
149.551246131199
20
14.7735056170718
30
0
41
1
10
149.553449587003
20
14.77128011912
30
0
41
1
10
149.554366440456
20
14.7703541331463
30
0
41
1
10
149.556507437831
20
14.7681920072893
30
0
41
1
10
149.557735591993
20
14.7669518171103
30
0
41
1
10
149.560231347123
20
14.7644318873772
30
0
41
1
10
149.561451218113
20
14.7632002921376
30
0
41
1
10
149.562764838353
20
14.7618741856936
30
0
0
SPLINE
5
1CC
100
AcDbEntity
8
1
62
256
6
ByLayer
370
18
48
1
60
0
100
AcDbSpline
70
4
71
3
72
24
73
20
40
0
40
0
40
0
40
0
40
0.0032691651402422
40
0.0032691651402422
40
0.127860519497717
40
0.127860519497717
40
0.190156196676452
40
0.190156196676452
40
0.252451873855186
40
0.252451873855186
40
0.377043228212654
40
0.377043228212654
40
0.501634582570123
40
0.501634582570123
40
0.626225936927592
40
0.626225936927592
40
0.75081729128506
40
0.75081729128506
40
1
40
1
40
1
40
1
41
1
10
149.55048172496
20
-24.774277793562
30
0
41
1
10
149.550480102094
20
-24.774279432804
30
0
41
1
10
149.550481293723
20
-24.7742782291913
30
0
41
1
10
149.550501778366
20
-24.7742575373637
30
0
41
1
10
149.551246131199
20
-24.7735056170718
30
0
41
1
10
149.553449587003
20
-24.77128011912
30
0
41
1
10
149.554366440456
20
-24.7703541331463
30
0
41
1
10
149.556507437831
20
-24.7681920072894
30
0
41
1
10
149.557735591993
20
-24.7669518171103
30
0
41
1
10
149.561863192775
20
-24.7627842351986
30
0
41
1
10
149.565218581561
20
-24.7593968992317
30
0
41
1
10
149.572951716671
20
-24.7515926878474
30
0
41
1
10
149.57725230246
20
-24.7472536906846
30
0
41
1
10
149.586584704884
20
-24.7378414692272
30
0
41
1
10
149.591617667416
20
-24.7327670857882
30
0
41
1
10
149.602342916789
20
-24.7219581556354
30
0
41
1
10
149.607954623723
20
-24.716304835688
30
0
41
1
10
149.625296915117
20
-24.6988417531482
30
0
41
1
10
149.637586054382
20
-24.6864770846455
30
0
41
1
10
149.650480947162
20
-24.6735161477106
30
0
0
SPLINE
5
1CD
100
AcDbEntity
8
1
62
256
6
ByLayer
370
18
48
1
60
0
100
AcDbSpline
70
4
71
3
72
8
73
4
40
0
40
0
40
0
40
0
40
1
40
1
40
1
40
1
41
1
10
149.650480947162
20
-24.6735161477106
30
0
41
1
10
149.875830405165
20
-24.4470125106997
30
0
41
1
10
150.100607863251
20
-24.2197546698709
30
0
41
1
10
150.324759526419
20
-23.991671694456
30
0
0
SPLINE
5
1CE
100
AcDbEntity
8
1
62
256
6
ByLayer
370
18
48
1
60
0
100
AcDbSpline
70
4
71
3
72
8
73
4
40
0
40
0
40
0
40
0
40
1
40
1
40
1
40
1
41
1
10
150.324759526419
20
-23.97685679321
30
0
41
1
10
150.100458994954
20
-24.1950332762281
30
0
41
1
10
149.875685997486
20
-24.4125589107669
30
0
41
1
10
149.650480947162
20
-24.6294893682057
30
0
0
SPLINE
5
1CF
100
AcDbEntity
8
1
62
256
6
ByLayer
370
13
48
1
60
0
100
AcDbSpline
70
4
71
3
72
34
73
30
40
0
40
0
40
0
40
0
40
0.0625
40
0.0625
40
0.125
40
0.125
40
0.25
40
0.25
40
0.3125
40
0.3125
40
0.375000000000001
40
0.375000000000001
40
0.500000000000001
40
0.500000000000001
40
0.562500000000001
40
0.562500000000001
40
0.593750000000001
40
0.593750000000001
40
0.625000000000001
40
0.75
40
0.75
40
0.8125
40
0.8125
40
0.84375
40
0.84375
40
0.875
40
0.9375
40
0.9375
40
1
40
1
40
1
40
1
41
1
10
148.5
20
-22.5365853658537
30
0
41
1
10
148.5
20
-22.6373314104483
30
0
41
1
10
148.498725623193
20
-22.7351579663316
30
0
41
1
10
148.494026128838
20
-22.9249759938792
30
0
41
1
10
148.490600456538
20
-23.0169088242218
30
0
41
1
10
148.477575832709
20
-23.2835274913128
30
0
41
1
10
148.465247523275
20
-23.4491666082499
30
0
41
1
10
148.442617490402
20
-23.6795117451516
30
0
41
1
10
148.43437761318
20
-23.7532778952764
30
0
41
1
10
148.416673292151
20
-23.8947236348472
30
0
41
1
10
148.40722530712
20
-23.9622722142623
30
0
41
1
10
148.377321211602
20
-24.1554500642225
30
0
41
1
10
148.355312517615
20
-24.2716211294421
30
0
41
1
10
148.319918394851
20
-24.426998130297
30
0
41
1
10
148.3077213716
20
-24.475641430203
30
0
41
1
10
148.288902986092
20
-24.5438661551302
30
0
41
1
10
148.282544446913
20
-24.5658113771959
30
0
41
1
10
148.269682158228
20
-24.6080642925878
30
0
41
1
10
148.237152682466
20
-24.7096352615529
30
0
41
1
10
148.20291630061
20
-24.7909839098411
30
0
41
1
10
148.160712834102
20
-24.8692332625331
30
0
41
1
10
148.146457520478
20
-24.8920857452443
30
0
41
1
10
148.124852375046
20
-24.9215017564265
30
0
41
1
10
148.117611926543
20
-24.9304980569007
30
0
41
1
10
148.103081239536
20
-24.9468494149342
30
0
41
1
10
148.081206597765
20
-24.968920778016
30
0
41
1
10
148.059139800026
20
-24.9836371974736
30
0
41
1
10
148.029622238173
20
-24.9967241358796
30
0
41
1
10
148.014812739614
20
-25
30
0
41
1
10
148
20
-25
30
0
0
SPLINE
5
1D0
100
AcDbEntity
8
1
62
256
6
ByLayer
370
18
48
1
60
0
100
AcDbSpline
70
4
71
3
72
60
73
56
40
0
40
0
40
0
40
0
40
0.0161075874728687
40
0.0323222605505195
40
0.0486439616083481
40
0.0650726331557479
40
0.0816082178506601
40
0.0982506585142144
40
0.114999898145533
40
0.131855879936633
40
0.148818547287494
40
0.165887843821231
40
0.183063713399398
40
0.200346100137423
40
0.217734948420179
40
0.235230202917667
40
0.252831808600828
40
0.270539710757483
40
0.288353855008396
40
0.306274187323454
40
0.324300654037977
40
0.342433201869127
40
0.360671777932457
40
0.379016329758564
40
0.397466805309867
40
0.416023152997461
40
0.434685321698144
40
0.453453260771485
40
0.472326920077046
40
0.491306249991681
40
0.510391201426961
40
0.529581725846676
40
0.548877775284413
40
0.568279302361308
40
0.58778626030379
40
0.607398602961491
40
0.627116284825175
40
0.646939261044839
40
0.666867487447782
40
0.68690092055684
40
0.707039517608651
40
0.727283236572017
40
0.747632036166291
40
0.768085875879865
40
0.788644715988706
40
0.809308517574935
40
0.830077242545484
40
0.850950853650769
40
0.871929314503429
40
0.893012589597106
40
0.914200644325232
40
0.935493444999902
40
0.956890958870706
40
0.97839315414364
40
1
40
1
40
1
40
1
41
1
10
148
20
-20.5
30
0
41
1
10
148.000004223372
20
-20.5139622784084
30
0
41
1
10
148.000012698193
20
-20.5419796585004
30
0
41
1
10
148.000081029519
20
-20.5839237606168
30
0
41
1
10
148.000190375541
20
-20.6259798703545
30
0
41
1
10
148.000345090432
20
-20.6681279427222
30
0
41
1
10
148.000544382326
20
-20.7103681144686
30
0
41
1
10
148.000788847537
20
-20.7526950184516
30
0
41
1
10
148.001078702342
20
-20.7951047338594
30
0
41
1
10
148.001414261289
20
-20.8375929056057
30
0
41
1
10
148.001795807669
20
-20.8801552530666
30
0
41
1
10
148.002223628435
20
-20.9227874323819
30
0
41
1
10
148.002698004636
20
-20.9654850736398
30
0
41
1
10
148.003219213878
20
-21.0082437707539
30
0
41
1
10
148.003787529536
20
-21.0510590841381
30
0
41
1
10
148.004403220845
20
-21.0939265399215
30
0
41
1
10
148.005066552745
20
-21.1368416300992
30
0
41
1
10
148.005777785801
20
-21.1797998124321
30
0
41
1
10
148.006537176099
20
-21.2227965104154
30
0
41
1
10
148.007344975144
20
-21.2658271132293
30
0
41
1
10
148.008201429762
20
-21.3088869756956
30
0
41
1
10
148.009106781998
20
-21.3519714182341
30
0
41
1
10
148.010061269015
20
-21.3950757268197
30
0
41
1
10
148.011065122993
20
-21.4381951529401
30
0
41
1
10
148.012118571025
20
-21.4813249135549
30
0
41
1
10
148.01322183502
20
-21.5244601910542
30
0
41
1
10
148.014375131592
20
-21.5675961332194
30
0
41
1
10
148.015578671963
20
-21.6107278531833
30
0
41
1
10
148.016832661859
20
-21.6538504293916
30
0
41
1
10
148.018137301405
20
-21.6969589055645
30
0
41
1
10
148.019492785024
20
-21.7400482906597
30
0
41
1
10
148.020899301328
20
-21.783113558835
30
0
41
1
10
148.022357033019
20
-21.8261496494119
30
0
41
1
10
148.023866156782
20
-21.8691514668398
30
0
41
1
10
148.025426843181
20
-21.9121138806605
30
0
41
1
10
148.027039256556
20
-21.9550317254732
30
0
41
1
10
148.028703554916
20
-21.9978998009001
30
0
41
1
10
148.030419889834
20
-22.040712871552
30
0
41
1
10
148.032188406346
20
-22.0834656669951
30
0
41
1
10
148.03400924284
20
-22.1261528817175
30
0
41
1
10
148.035882530958
20
-22.1687691750949
30
0
41
1
10
148.037808395485
20
-22.2113091713643
30
0
41
1
10
148.039786954251
20
-22.2537674595678
30
0
41
1
10
148.041818318013
20
-22.2961385936104
30
0
41
1
10
148.043902590391
20
-22.3384170918907
30
0
41
1
10
148.046039867615
20
-22.38059743854
30
0
41
1
10
148.048230238977
20
-22.4226740786124
30
0
41
1
10
148.050473784646
20
-22.4646414360242
30
0
41
1
10
148.05277058337
20
-22.5064938459506
30
0
41
1
10
148.055120683035
20
-22.5482258088782
30
0
41
1
10
148.057524210866
20
-22.5898310352178
30
0
41
1
10
148.059980958594
20
-22.6313060373029
30
0
41
1
10
148.062491941624
20
-22.6726366242808
30
0
41
1
10
148.065053536719
20
-22.7138486756626
30
0
41
1
10
148.066799953872
20
-22.7410949357813
30
0
41
1
10
148.067675282232
20
-22.7547511370589
30
0
0
SPLINE
5
1D1
100
AcDbEntity
8
1
62
256
6
ByLayer
370
18
48
1
60
0
100
AcDbSpline
70
4
71
3
72
8
73
4
40
0
40
0
40
0
40
0
40
1
40
1
40
1
40
1
41
1
10
147.5
20
-20.9183673469388
30
0
41
1
10
147.666666666667
20
-20.7789115646259
30
0
41
1
10
147.833333333333
20
-20.639455782313
30
0
41
1
10
148
20
-20.5
30
0
0
SPLINE
5
1D2
100
AcDbEntity
8
1
62
256
6
ByLayer
370
18
48
1
60
0
100
AcDbSpline
70
4
71
3
72
76
73
72
40
0
40
0
40
0
40
0
40
0.0072444893880527
40
0.014408426400839
40
0.0214918110372645
40
0.0284946432962834
40
0.0354169231769021
40
0.0422586506781787
40
0.0490198257992236
40
0.0557004485391985
40
0.0623005188973221
40
0.068820036872874
40
0.0752590024651899
40
0.081617415673668
40
0.0878952764977724
40
0.0940925849370269
40
0.100209340991028
40
0.106245544659443
40
0.112201195942011
40
0.118076294838545
40
0.123870841348938
40
0.129584835473173
40
0.135218277211302
40
0.140771166563486
40
0.146243503529963
40
0.151635288111079
40
0.156946520307282
40
0.162177200119121
40
0.167327327547265
40
0.172396902592498
40
0.17738592525573
40
0.182294395538001
40
0.187122313440494
40
0.191869678964537
40
0.196536492111614
40
0.201122752883374
40
0.205628461281644
40
0.210053617308433
40
0.214398220965957
40
0.218662272256638
40
0.222845771183127
40
0.226948717748321
40
0.230971111955378
40
0.234912953807733
40
0.238774243309131
40
0.242554980463638
40
0.246255165275673
40
0.249874797750042
40
0.318965070309348
40
0.383667777513488
40
0.443982903997756
40
0.499910446143919
40
0.568074394463956
40
0.632426645265802
40
0.69296732735975
40
0.74969660545251
40
0.76862324549681
40
0.787229859014659
40
0.805516458136585
40
0.82348305564679
40
0.841129665030464
40
0.858456300525427
40
0.875462977178632
40
0.89214971090809
40
0.908516518570827
40
0.924563418037611
40
0.940290428275267
40
0.955697569437523
40
0.970784862965479
40
0.985552331698933
40
1
40
1
40
1
40
1
41
1
10
148
20
-25
30
0
41
1
10
147.999287357861
20
-24.9999794739588
30
0
41
1
10
147.997869997538
20
-24.999938650108
30
0
41
1
10
147.995754893828
20
-24.9996112372637
30
0
41
1
10
147.993662862955
20
-24.9990971454827
30
0
41
1
10
147.99159383902
20
-24.9983843432537
30
0
41
1
10
147.989547839387
20
-24.997484725007
30
0
41
1
10
147.987524859489
20
-24.9964037842353
30
0
41
1
10
147.985524900531
20
-24.995148601378
30
0
41
1
10
147.983547962203
20
-24.9937257400341
30
0
41
1
10
147.981594044591
20
-24.992141800692
30
0
41
1
10
147.979663147678
20
-24.9904032747912
30
0
41
1
10
147.977755271475
20
-24.9885165829667
30
0
41
1
10
147.975870415984
20
-24.9864880648317
30
0
41
1
10
147.974008581213
20
-24.9843239815215
30
0
41
1
10
147.972169767165
20
-24.9820305148895
30
0
41
1
10
147.970353973847
20
-24.9796137675939
30
0
41
1
10
147.968561201265
20
-24.9770797629579
30
0
41
1
10
147.966791449425
20
-24.9744344448996
30
0
41
1
10
147.965044718335
20
-24.9716836778507
30
0
41
1
10
147.963321008001
20
-24.968833246687
30
0
41
1
10
147.96162031843
20
-24.9658888566638
30
0
41
1
10
147.959942649632
20
-24.9628561333569
30
0
41
1
10
147.958288001614
20
-24.9597406226101
30
0
41
1
10
147.956656374386
20
-24.9565477904879
30
0
41
1
10
147.955047767957
20
-24.9532830232338
30
0
41
1
10
147.953462182336
20
-24.9499516272329
30
0
41
1
10
147.951899617536
20
-24.9465588289808
30
0
41
1
10
147.950360073567
20
-24.9431097750561
30
0
41
1
10
147.948843550441
20
-24.9396095320982
30
0
41
1
10
147.947350048172
20
-24.9360630867888
30
0
41
1
10
147.945879566772
20
-24.9324753458383
30
0
41
1
10
147.944432106258
20
-24.9288511359758
30
0
41
1
10
147.943007666644
20
-24.9251952039427
30
0
41
1
10
147.941606247948
20
-24.9215122164904
30
0
41
1
10
147.940227850187
20
-24.9178067603813
30
0
41
1
10
147.938872473381
20
-24.914083342393
30
0
41
1
10
147.93754011755
20
-24.9103463893255
30
0
41
1
10
147.936230782718
20
-24.9066002480117
30
0
41
1
10
147.934944468904
20
-24.9028491853307
30
0
41
1
10
147.933681176151
20
-24.8990973882218
30
0
41
1
10
147.932440904424
20
-24.8953489637098
30
0
41
1
10
147.931223653982
20
-24.8916079388989
30
0
41
1
10
147.930029424031
20
-24.8878782610919
30
0
41
1
10
147.928858217593
20
-24.8841637974663
30
0
41
1
10
147.92771002391
20
-24.8804683363599
30
0
41
1
10
147.926584882044
20
-24.8767955827489
30
0
41
1
10
147.918828886027
20
-24.8511371429987
30
0
41
1
10
147.904734962618
20
-24.7982517395485
30
0
41
1
10
147.884381030388
20
-24.7060876895951
30
0
41
1
10
147.864930035747
20
-24.605022048775
30
0
41
1
10
147.844542995992
20
-24.4877282437395
30
0
41
1
10
147.822943471159
20
-24.3523383504698
30
0
41
1
10
147.799837999124
20
-24.1967550872167
30
0
41
1
10
147.777063240399
20
-24.0355213773928
30
0
41
1
10
147.759103397088
20
-23.9042187024564
30
0
41
1
10
147.746191895118
20
-23.8087396375966
30
0
41
1
10
147.738396635818
20
-23.7508494164027
30
0
41
1
10
147.730583649033
20
-23.6926544296009
30
0
41
1
10
147.722752894531
20
-23.6342256056735
30
0
41
1
10
147.714904385916
20
-23.5756325130506
30
0
41
1
10
147.707038123748
20
-23.5169432510698
30
0
41
1
10
147.699154109468
20
-23.4582244691023
30
0
41
1
10
147.691252354676
20
-23.3995414161011
30
0
41
1
10
147.683332832009
20
-23.3409577543359
30
0
41
1
10
147.675395657367
20
-23.2825362642794
30
0
41
1
10
147.667440428802
20
-23.2243363144379
30
0
41
1
10
147.659468620595
20
-23.1664230505041
30
0
41
1
10
147.651474920531
20
-23.1088341747647
30
0
41
1
10
147.643478555297
20
-23.0517001068777
30
0
41
1
10
147.638040050737
20
-23.0133535003443
30
0
41
1
10
147.635350564468
20
-22.9943900756302
30
0
0
SPLINE
5
1D3
100
AcDbEntity
8
1
62
256
6
ByLayer
370
18
48
1
60
0
100
AcDbSpline
70
4
71
3
72
50
73
46
40
0
40
0
40
0
40
0
40
0.0180629118965067
40
0.0360668607232199
40
0.054011856540822
40
0.0718979095094775
40
0.0897250298901567
40
0.107493228045908
40
0.125202514443243
40
0.142852899653485
40
0.160444394354135
40
0.177977009330308
40
0.195450755476141
40
0.212865643796258
40
0.230221685407255
40
0.247518891539182
40
0.264757273537082
40
0.281936842862551
40
0.299057611095304
40
0.316119589934785
40
0.333122791201788
40
0.350067226840147
40
0.36695290891839
40
0.383779849631464
40
0.400548061302495
40
0.417257556384549
40
0.433908347462431
40
0.45050044725454
40
0.467033868614725
40
0.483508624534181
40
0.499924728143394
40
0.537381524700107
40
0.57457036896205
40
0.611491425614791
40
0.648144862954028
40
0.684530852989497
40
0.720649571552562
40
0.756501198407586
40
0.792085917367365
40
0.827403916412649
40
0.862455387816026
40
0.897240528270314
40
0.931759539021669
40
0.966012626007573
40
1
40
1
40
1
40
1
41
1
10
147.635350564463
20
-22.9943900756303
30
0
41
1
10
147.633876334265
20
-22.983968072844
30
0
41
1
10
147.630932686225
20
-22.9631580879918
30
0
41
1
10
147.626599165492
20
-22.9316993235011
30
0
41
1
10
147.622334889061
20
-22.9001296584639
30
0
41
1
10
147.618145170024
20
-22.8684304909776
30
0
41
1
10
147.61402859173
20
-22.8366099891185
30
0
41
1
10
147.609985531892
20
-22.8046691691695
30
0
41
1
10
147.606015889794
20
-22.772610940174
30
0
41
1
10
147.602119692283
20
-22.7404376923866
30
0
41
1
10
147.598296932193
20
-22.7081519402161
30
0
41
1
10
147.594547611427
20
-22.6757561507765
30
0
41
1
10
147.590871729471
20
-22.6432527895705
30
0
41
1
10
147.587269286454
20
-22.610644308284
30
0
41
1
10
147.583740282333
20
-22.5779331480151
30
0
41
1
10
147.580284717112
20
-22.5451217383896
30
0
41
1
10
147.576902590782
20
-22.5122124977747
30
0
41
1
10
147.573593903338
20
-22.4792078332005
30
0
41
1
10
147.570358654773
20
-22.4461101403612
30
0
41
1
10
147.56719684508
20
-22.4129218035958
30
0
41
1
10
147.564108474253
20
-22.379645195876
30
0
41
1
10
147.561093542285
20
-22.346282678792
30
0
41
1
10
147.558152049171
20
-22.3128366025425
30
0
41
1
10
147.555283994897
20
-22.2793093059196
30
0
41
1
10
147.552489379485
20
-22.2457031163111
30
0
41
1
10
147.549768202817
20
-22.2120203496469
30
0
41
1
10
147.547120465303
20
-22.1782633105528
30
0
41
1
10
147.544546165385
20
-22.1444342917429
30
0
41
1
10
147.542045308814
20
-22.1105355762384
30
0
41
1
10
147.539617874203
20
-22.0765694291007
30
0
41
1
10
147.536255451372
20
-22.0279581859111
30
0
41
1
10
147.53210060817
20
-21.9644703084691
30
0
41
1
10
147.52735239172
20
-21.8857346961014
30
0
41
1
10
147.522983221403
20
-21.8066312207922
30
0
41
1
10
147.518993052103
20
-21.7271832247243
30
0
41
1
10
147.515381894437
20
-21.6474137682474
30
0
41
1
10
147.512149748714
20
-21.5673456620877
30
0
41
1
10
147.509296601456
20
-21.4870014998185
30
0
41
1
10
147.506822503762
20
-21.4064034967654
30
0
41
1
10
147.504727264763
20
-21.3255740947852
30
0
41
1
10
147.503011587399
20
-21.2445337276396
30
0
41
1
10
147.501672876358
20
-21.1633090674559
30
0
41
1
10
147.500720705253
20
-21.0819025993903
30
0
41
1
10
147.500119754042
20
-21.0004048697216
30
0
41
1
10
147.500039814258
20
-20.9456421099134
30
0
41
1
10
147.5
20
-20.9183673469388
30
0
0
SPLINE
5
1D4
100
AcDbEntity
8
SK1
62
256
6
ByLayer
370
18
48
1
60
0
100
AcDbSpline
70
4
71
3
72
11
73
7
40
0
40
0
40
0
40
0
40
0.242589954178611
40
0.502544718947534
40
0.761087572808619
40
1
40
1
40
1
40
1
41
1
10
-0.199999999999989
20
17.5545583467655
30
0
41
1
10
-0.200957889270342
20
17.5289140231062
30
0
41
1
10
-0.211248315226214
20
17.4799022728818
30
0
41
1
10
-0.255179720944142
20
17.4139496110851
30
0
41
1
10
-0.321113897423771
20
17.3707504109673
30
0
41
1
10
-0.369683795840189
20
17.3607068368228
30
0
41
1
10
-0.394913799811292
20
17.3597802673791
30
0
0
SPLINE
5
1D5
100
AcDbEntity
8
SK1
62
256
6
ByLayer
370
18
48
1
60
0
100
AcDbSpline
70
4
71
3
72
11
73
7
40
0
40
0
40
0
40
0
40
0.238912427113142
40
0.497455280942537
40
0.757410045745086
40
1
40
1
40
1
40
1
41
1
10
-0.394913799811292
20
-17.3597801301672
30
0
41
1
10
-0.369683795838398
20
-17.3607066995757
30
0
41
1
10
-0.321113897416438
20
-17.3707502735068
30
0
41
1
10
-0.255179720936354
20
-17.4139494728386
30
0
41
1
10
-0.211248315224566
20
-17.4799021334559
30
0
41
1
10
-0.200957889268722
20
-17.5289138828004
30
0
41
1
10
-0.199999999999989
20
-17.5545582060014
30
0
0
SPLINE
5
1D6
100
AcDbEntity
8
SK1
62
256
6
ByLayer
370
18
48
1
60
0
100
AcDbSpline
70
4
71
2
72
6
73
3
40
0
40
0
40
0
40
1
40
1
40
1
41
1
10
-28.5
20
16.8588088260863
30
0
41
1
10
-29.2499999297871
20
16.4259984461422
30
0
41
1
10
-30
20
15.9931873508859
30
0
0
SPLINE
5
1D7
100
AcDbEntity
8
SK1
62
256
6
ByLayer
370
18
48
1
60
0
100
AcDbSpline
70
4
71
2
72
6
73
3
40
0
40
0
40
0
40
1
40
1
40
1
41
1
10
-30
20
-15.9931874249211
30
0
41
1
10
-29.2499999297894
20
-16.425998517687
30
0
41
1
10
-28.5
20
-16.8588088951667
30
0
0
SPLINE
5
1D8
100
AcDbEntity
8
SK1
62
256
6
ByLayer
370
18
48
1
60
0
100
AcDbSpline
70
4
71
2
72
6
73
3
40
0
40
0
40
0
40
1
40
1
40
1
41
1
10
-0.394913799811292
20
17.3602209523781
30
0
41
1
10
-1.19497688886898
20
17.3401342706943
30
0
41
1
10
-1.99503997793928
20
17.3200475850767
30
0
0
SPLINE
5
1D9
100
AcDbEntity
8
SK1
62
256
6
ByLayer
370
18
48
1
60
0
100
AcDbSpline
70
4
71
2
72
6
73
3
40
0
40
0
40
0
40
1
40
1
40
1
41
1
10
-1.99503997793931
20
-17.3200478774323
30
0
41
1
10
-1.19497688886898
20
-17.340134563042
30
0
41
1
10
-0.394913799811292
20
-17.3602212447177
30
0
0
SPLINE
5
1DA
100
AcDbEntity
8
SK1
62
256
6
ByLayer
370
18
48
1
60
0
100
AcDbSpline
70
4
71
3
72
13
73
9
40
0
40
0
40
0
40
0
40
0.239505987673083
40
0.368426538155688
40
0.500072261058321
40
0.631705987654816
40
0.760593443052916
40
1
40
1
40
1
40
1
41
1
10
-1.99503997793928
20
17.3252686883828
30
0
41
1
10
-2.02110925982339
20
17.3248665791032
30
0
41
1
10
-2.05883863809936
20
17.3310361992814
30
0
41
1
10
-2.10627567686484
20
17.3540696096461
30
0
41
1
10
-2.13886243911924
20
17.3792256041407
30
0
41
1
10
-2.16563490776915
20
17.4104933211739
30
0
41
1
10
-2.19103207710595
20
17.4566915621889
30
0
41
1
10
-2.19909121921685
20
17.4940488942773
30
0
41
1
10
-2.19999999999999
20
17.5200961072231
30
0
0
SPLINE
5
1DB
100
AcDbEntity
8
SK1
62
256
6
ByLayer
370
18
48
1
60
0
100
AcDbSpline
70
4
71
3
72
13
73
9
40
0
40
0
40
0
40
0
40
0.239406556342956
40
0.368294011542631
40
0.499927738071791
40
0.631573461053609
40
0.76049401174041
40
1
40
1
40
1
40
1
41
1
10
-2.19999999999999
20
-17.5200962264206
30
0
41
1
10
-2.19909121920765
20
-17.4940490135991
30
0
41
1
10
-2.19103207709688
20
-17.4566916816953
30
0
41
1
10
-2.16563490775661
20
-17.4104934409328
30
0
41
1
10
-2.13886243910255
20
-17.379225724067
30
0
41
1
10
-2.10627567684702
20
-17.3540697297104
30
0
41
1
10
-2.05883863807622
20
-17.3310363194718
30
0
41
1
10
-2.0211092598112
20
-17.3248666993254
30
0
41
1
10
-1.99503997793931
20
-17.3252688086104
30
0
0
SPLINE
5
1DC
100
AcDbEntity
8
SK1
62
256
6
ByLayer
370
18
48
1
60
0
100
AcDbSpline
70
4
71
2
72
6
73
3
40
0
40
0
40
0
40
1
40
1
40
1
41
1
10
-2.19999999999999
20
17.5148287077807
30
0
41
1
10
-15.3499999982431
20
17.1846805562453
30
0
41
1
10
-28.5
20
16.8545313165689
30
0
0
SPLINE
5
1DD
100
AcDbEntity
8
SK1
62
256
6
ByLayer
370
18
48
1
60
0
100
AcDbSpline
70
4
71
2
72
6
73
3
40
0
40
0
40
0
40
1
40
1
40
1
41
1
10
-28.5
20
-16.8545316091351
30
0
41
1
10
-15.3499999982428
20
-17.1846808487114
30
0
41
1
10
-2.19999999999999
20
-17.5148290000611
30
0
0
LINE
5
9F
100
AcDbEntity
8
80
62
256
6
ByLayer
370
18
48
1
60
0
100
AcDbLine
10
0
20
0
30
0
11
-5
21
0
31
0
39
0
210
0
220
0
230
1
0
LINE
5
A0
100
AcDbEntity
8
SK4
62
256
6
ByLayer
370
18
48
0.05
60
0
100
AcDbLine
10
4
20
0
30
0
11
146
21
0
31
0
39
0
210
0
220
0
230
1
0
LINE
5
A2
100
AcDbEntity
8
81
62
256
6
ByLayer
370
18
48
1
60
0
100
AcDbLine
10
150
20
-5
30
0
11
155
21
-5
31
0
39
0
210
0
220
0
230
1
0
LINE
5
A3
100
AcDbEntity
8
4
62
256
6
ByLayer
370
18
48
0.05
60
0
100
AcDbLine
10
146
20
-5
30
0
11
150
21
-5
31
0
39
0
210
0
220
0
230
1
0
LINE
5
A5
100
AcDbEntity
8
1
62
256
6
ByLayer
370
18
48
1
60
0
100
AcDbLine
10
154.8
20
7.899495
30
0
11
154.8
21
1.899495
31
0
39
0
210
0
220
0
230
1
0
LINE
5
A6
100
AcDbEntity
8
1
62
256
6
ByLayer
370
13
48
1
60
0
100
AcDbLine
10
150.324503
20
2.453995
30
0
11
154.8
21
2.453995
31
0
39
0
210
0
220
0
230
1
0
LINE
5
A7
100
AcDbEntity
8
1
62
256
6
ByLayer
370
13
48
1
60
0
100
AcDbLine
10
150.324503
20
7.344995
30
0
11
154.8
21
7.344995
31
0
39
0
210
0
220
0
230
1
0
LINE
5
A8
100
AcDbEntity
8
1
62
256
6
ByLayer
370
18
48
1
60
0
100
AcDbLine
10
154.8
20
-11.899495
30
0
11
154.8
21
-17.899495
31
0
39
0
210
0
220
0
230
1
0
LINE
5
A9
100
AcDbEntity
8
1
62
256
6
ByLayer
370
13
48
1
60
0
100
AcDbLine
10
150.324503
20
-17.344995
30
0
11
154.8
21
-17.344995
31
0
39
0
210
0
220
0
230
1
0
LINE
5
AA
100
AcDbEntity
8
1
62
256
6
ByLayer
370
13
48
1
60
0
100
AcDbLine
10
150.324503
20
-12.453995
30
0
11
154.8
21
-12.453995
31
0
39
0
210
0
220
0
230
1
0
LINE
5
AB
100
AcDbEntity
8
SK1
62
256
6
ByLayer
370
18
48
1
60
0
100
AcDbLine
10
-0.2
20
-6.078431
30
0
11
-0.2
21
-17.833485
31
0
39
0
210
0
220
0
230
1
0
LINE
5
AD
100
AcDbEntity
8
SK1
62
256
6
ByLayer
370
18
48
1
60
0
100
AcDbLine
10
-0.2
20
17.833485
30
0
11
-0.2
21
6.078432
31
0
39
0
210
0
220
0
230
1
0
LINE
5
AE
100
AcDbEntity
8
SK1
62
256
6
ByLayer
370
13
48
1
60
0
100
AcDbLine
10
-1.307107
20
3.918083
30
0
11
-1.307107
21
-3.918083
31
0
39
0
210
0
220
0
230
1
0
LINE
5
AF
100
AcDbEntity
8
SK1
62
256
6
ByLayer
370
18
48
1
60
0
100
AcDbLine
10
-1.99504
20
17.325269
30
0
11
-1.99504
21
17.320045
31
0
39
0
210
0
220
0
230
1
0
LINE
5
B0
100
AcDbEntity
8
SK1
62
256
6
ByLayer
370
18
48
1
60
0
100
AcDbLine
10
-1.99504
20
-17.320045
30
0
11
-1.99504
21
-17.325269
31
0
39
0
210
0
220
0
230
1
0
LINE
5
B1
100
AcDbEntity
8
1
62
256
6
ByLayer
370
13
48
1
60
0
100
AcDbLine
10
11.461325
20
-7.529667
30
0
11
11.461325
21
-23.83913
31
0
39
0
210
0
220
0
230
1
0
LINE
5
B2
100
AcDbEntity
8
1
62
256
6
ByLayer
370
13
48
1
60
0
100
AcDbLine
10
11.894338
20
-8.055848
30
0
11
11.894338
21
-23.666502
31
0
39
0
210
0
220
0
230
1
0
LINE
5
B3
100
AcDbEntity
8
1
62
256
6
ByLayer
370
13
48
1
60
0
100
AcDbLine
10
8.105662
20
23.666502
30
0
11
8.105662
21
8.055848
31
0
39
0
210
0
220
0
230
1
0
LINE
5
B4
100
AcDbEntity
8
1
62
256
6
ByLayer
370
13
48
1
60
0
100
AcDbLine
10
8.538675
20
23.83913
30
0
11
8.538675
21
7.529667
31
0
39
0
210
0
220
0
230
1
0
LINE
5
B5
100
AcDbEntity
8
1
62
256
6
ByLayer
370
13
48
1
60
0
100
AcDbLine
10
11.461325
20
23.83913
30
0
11
11.461325
21
7.529667
31
0
39
0
210
0
220
0
230
1
0
LINE
5
B6
100
AcDbEntity
8
1
62
256
6
ByLayer
370
13
48
1
60
0
100
AcDbLine
10
11.894338
20
23.666502
30
0
11
11.894338
21
8.055848
31
0
39
0
210
0
220
0
230
1
0
LINE
5
B7
100
AcDbEntity
8
1
62
256
6
ByLayer
370
13
48
1
60
0
100
AcDbLine
10
8.105662
20
-8.055848
30
0
11
8.105662
21
-23.666502
31
0
39
0
210
0
220
0
230
1
0
LINE
5
B8
100
AcDbEntity
8
1
62
256
6
ByLayer
370
13
48
1
60
0
100
AcDbLine
10
8.538675
20
-7.529667
30
0
11
8.538675
21
-23.83913
31
0
39
0
210
0
220
0
230
1
0
LINE
5
B9
100
AcDbEntity
8
1
62
256
6
ByLayer
370
18
48
1
60
0
100
AcDbLine
10
146
20
24.8
30
0
11
146
21
-24.8
31
0
39
0
210
0
220
0
230
1
0
LINE
5
BA
100
AcDbEntity
8
1
62
256
6
ByLayer
370
18
48
1
60
0
100
AcDbLine
10
0
20
-24.7
30
0
11
0
21
24.7
31
0
39
0
210
0
220
0
230
1
0
LINE
5
BB
100
AcDbEntity
8
1
62
256
6
ByLayer
370
13
48
1
60
0
100
AcDbLine
10
145.8
20
25
30
0
11
145.8
21
-25
31
0
39
0
210
0
220
0
230
1
0
LINE
5
BC
100
AcDbEntity
8
1
62
256
6
ByLayer
370
18
48
1
60
0
100
AcDbLine
10
0.3
20
-25
30
0
11
0.3
21
25
31
0
39
0
210
0
220
0
230
1
0
LINE
5
BD
100
AcDbEntity
8
1
62
256
6
ByLayer
370
18
48
1
60
0
100
AcDbLine
10
11.461325
20
7.529667
30
0
11
8.538675
21
7.529667
31
0
39
0
210
0
220
0
230
1
0
LINE
5
BE
100
AcDbEntity
8
1
62
256
6
ByLayer
370
18
48
1
60
0
100
AcDbLine
10
8.538675
20
23.83913
30
0
11
11.461325
21
23.83913
31
0
39
0
210
0
220
0
230
1
0
LINE
5
BF
100
AcDbEntity
8
1
62
256
6
ByLayer
370
18
48
1
60
0
100
AcDbLine
10
8.538675
20
-7.529667
30
0
11
11.461325
21
-7.529667
31
0
39
0
210
0
220
0
230
1
0
LINE
5
C0
100
AcDbEntity
8
1
62
256
6
ByLayer
370
18
48
1
60
0
100
AcDbLine
10
11.461325
20
-23.83913
30
0
11
8.538675
21
-23.83913
31
0
39
0
210
0
220
0
230
1
0
LINE
5
C1
100
AcDbEntity
8
1
62
256
6
ByLayer
370
13
48
1
60
0
100
AcDbLine
10
154.8
20
7.899495
30
0
11
154.8
21
1.899495
31
0
39
0
210
0
220
0
230
1
0
LINE
5
C2
100
AcDbEntity
8
1
62
256
6
ByLayer
370
18
48
1
60
0
100
AcDbLine
10
161
20
9.299495
30
0
11
161
21
0.499495
31
0
39
0
210
0
220
0
230
1
0
LINE
5
C3
100
AcDbEntity
8
1
62
256
6
ByLayer
370
13
48
1
60
0
100
AcDbLine
10
160.4
20
9.899495
30
0
11
160.4
21
-0.100505
31
0
39
0
210
0
220
0
230
1
0
LINE
5
C4
100
AcDbEntity
8
1
62
256
6
ByLayer
370
18
48
1
60
0
100
AcDbLine
10
155
20
9.899495
30
0
11
155
21
-0.100505
31
0
39
0
210
0
220
0
230
1
0
LINE
5
C5
100
AcDbEntity
8
1
62
256
6
ByLayer
370
13
48
1
60
0
100
AcDbLine
10
154.8
20
-17.899495
30
0
11
154.8
21
-11.899495
31
0
39
0
210
0
220
0
230
1
0
LINE
5
C6
100
AcDbEntity
8
1
62
256
6
ByLayer
370
18
48
1
60
0
100
AcDbLine
10
155
20
-19.899495
30
0
11
155
21
-9.899495
31
0
39
0
210
0
220
0
230
1
0
LINE
5
C7
100
AcDbEntity
8
1
62
256
6
ByLayer
370
13
48
1
60
0
100
AcDbLine
10
160.4
20
-19.899495
30
0
11
160.4
21
-9.899495
31
0
39
0
210
0
220
0
230
1
0
LINE
5
C8
100
AcDbEntity
8
1
62
256
6
ByLayer
370
18
48
1
60
0
100
AcDbLine
10
161
20
-19.299495
30
0
11
161
21
-10.499495
31
0
39
0
210
0
220
0
230
1
0
LINE
5
C9
100
AcDbEntity
8
1
62
256
6
ByLayer
370
18
48
1
60
0
100
AcDbLine
10
150.32476
20
13.887542
30
0
11
150.32476
21
13.976857
31
0
39
0
210
0
220
0
230
1
0
LINE
5
CA
100
AcDbEntity
8
1
62
256
6
ByLayer
370
18
48
1
60
0
100
AcDbLine
10
150.32476
20
-23.976857
30
0
11
150.32476
21
-23.887542
31
0
39
0
210
0
220
0
230
1
0
LINE
5
CB
100
AcDbEntity
8
1
62
256
6
ByLayer
370
13
48
1
60
0
100
AcDbLine
10
149.650481
20
14.602807
30
0
11
149.650481
21
14.629489
31
0
39
0
210
0
220
0
230
1
0
LINE
5
CC
100
AcDbEntity
8
1
62
256
6
ByLayer
370
13
48
1
60
0
100
AcDbLine
10
149.650481
20
-24.629489
30
0
11
149.650481
21
-24.602807
31
0
39
0
210
0
220
0
230
1
0
LINE
5
CD
100
AcDbEntity
8
1
62
256
6
ByLayer
370
18
48
1
60
0
100
AcDbLine
10
150.32476
20
-23.842999
30
0
11
150.32476
21
-23.662842
31
0
39
0
210
0
220
0
230
1
0
LINE
5
CE
100
AcDbEntity
8
1
62
256
6
ByLayer
370
18
48
1
60
0
100
AcDbLine
10
150.32476
20
13.662842
30
0
11
150.32476
21
13.842999
31
0
39
0
210
0
220
0
230
1
0
LINE
5
CF
100
AcDbEntity
8
1
62
256
6
ByLayer
370
13
48
1
60
0
100
AcDbLine
10
149.650481
20
-24.470143
30
0
11
149.650481
21
-24.416627
31
0
39
0
210
0
220
0
230
1
0
LINE
5
D0
100
AcDbEntity
8
1
62
256
6
ByLayer
370
13
48
1
60
0
100
AcDbLine
10
149.650481
20
14.416627
30
0
11
149.650481
21
14.470143
31
0
39
0
210
0
220
0
230
1
0
LINE
5
D1
100
AcDbEntity
8
1
62
256
6
ByLayer
370
18
48
1
60
0
100
AcDbLine
10
150.32476
20
-23.587525
30
0
11
150.32476
21
-23.31313
31
0
39
0
210
0
220
0
230
1
0
LINE
5
D2
100
AcDbEntity
8
1
62
256
6
ByLayer
370
18
48
1
60
0
100
AcDbLine
10
150.32476
20
13.31313
30
0
11
150.32476
21
13.587525
31
0
39
0
210
0
220
0
230
1
0
LINE
5
D3
100
AcDbEntity
8
1
62
256
6
ByLayer
370
13
48
1
60
0
100
AcDbLine
10
149.650481
20
-24.192605
30
0
11
149.650481
21
-24.111162
31
0
39
0
210
0
220
0
230
1
0
LINE
5
D4
100
AcDbEntity
8
1
62
256
6
ByLayer
370
13
48
1
60
0
100
AcDbLine
10
149.650481
20
14.111162
30
0
11
149.650481
21
14.192605
31
0
39
0
210
0
220
0
230
1
0
LINE
5
D5
100
AcDbEntity
8
1
62
256
6
ByLayer
370
18
48
1
60
0
100
AcDbLine
10
150.32476
20
-23.205318
30
0
11
150.32476
21
-22.830489
31
0
39
0
210
0
220
0
230
1
0
LINE
5
D6
100
AcDbEntity
8
1
62
256
6
ByLayer
370
18
48
1
60
0
100
AcDbLine
10
150.32476
20
12.830489
30
0
11
150.32476
21
13.205318
31
0
39
0
210
0
220
0
230
1
0
LINE
5
D7
100
AcDbEntity
8
1
62
256
6
ByLayer
370
13
48
1
60
0
100
AcDbLine
10
149.650481
20
-23.791639
30
0
11
149.650481
21
-23.680651
31
0
39
0
210
0
220
0
230
1
0
LINE
5
D8
100
AcDbEntity
8
1
62
256
6
ByLayer
370
13
48
1
60
0
100
AcDbLine
10
149.650481
20
13.680651
30
0
11
149.650481
21
13.791639
31
0
39
0
210
0
220
0
230
1
0
LINE
5
D9
100
AcDbEntity
8
1
62
256
6
ByLayer
370
18
48
1
60
0
100
AcDbLine
10
150.32476
20
-22.688163
30
0
11
150.32476
21
-22.204449
31
0
39
0
210
0
220
0
230
1
0
LINE
5
DA
100
AcDbEntity
8
1
62
256
6
ByLayer
370
18
48
1
60
0
100
AcDbLine
10
150.32476
20
12.204449
30
0
11
150.32476
21
12.688163
31
0
39
0
210
0
220
0
230
1
0
LINE
5
DB
100
AcDbEntity
8
1
62
256
6
ByLayer
370
13
48
1
60
0
100
AcDbLine
10
149.650481
20
-23.259116
30
0
11
149.650481
21
-23.116188
31
0
39
0
210
0
220
0
230
1
0
LINE
5
DC
100
AcDbEntity
8
1
62
256
6
ByLayer
370
13
48
1
60
0
100
AcDbLine
10
149.650481
20
13.116188
30
0
11
149.650481
21
13.259116
31
0
39
0
210
0
220
0
230
1
0
LINE
5
DD
100
AcDbEntity
8
1
62
256
6
ByLayer
370
18
48
1
60
0
100
AcDbLine
10
150.32476
20
-22.023766
30
0
11
150.32476
21
-21.418191
31
0
39
0
210
0
220
0
230
1
0
LINE
5
DE
100
AcDbEntity
8
1
62
256
6
ByLayer
370
18
48
1
60
0
100
AcDbLine
10
150.32476
20
11.418191
30
0
11
150.32476
21
12.023766
31
0
39
0
210
0
220
0
230
1
0
LINE
5
DF
100
AcDbEntity
8
1
62
256
6
ByLayer
370
13
48
1
60
0
100
AcDbLine
10
149.650481
20
12.404844
30
0
11
149.650481
21
12.583086
31
0
39
0
210
0
220
0
230
1
0
LINE
5
E0
100
AcDbEntity
8
1
62
256
6
ByLayer
370
13
48
1
60
0
100
AcDbLine
10
149.650481
20
-22.583086
30
0
11
149.650481
21
-22.404844
31
0
39
0
210
0
220
0
230
1
0
LINE
5
E1
100
AcDbEntity
8
1
62
256
6
ByLayer
370
18
48
1
60
0
100
AcDbLine
10
150.32476
20
10.447336
30
0
11
150.32476
21
11.194014
31
0
39
0
210
0
220
0
230
1
0
LINE
5
E2
100
AcDbEntity
8
1
62
256
6
ByLayer
370
18
48
1
60
0
100
AcDbLine
10
150.32476
20
-21.194014
30
0
11
150.32476
21
-20.447336
31
0
39
0
210
0
220
0
230
1
0
LINE
5
E3
100
AcDbEntity
8
1
62
256
6
ByLayer
370
13
48
1
60
0
100
AcDbLine
10
149.650481
20
-21.74618
30
0
11
149.650481
21
-21.527523
31
0
39
0
210
0
220
0
230
1
0
LINE
5
E4
100
AcDbEntity
8
1
62
256
6
ByLayer
370
13
48
1
60
0
100
AcDbLine
10
149.650481
20
11.527523
30
0
11
149.650481
21
11.74618
31
0
39
0
210
0
220
0
230
1
0
LINE
5
E5
100
AcDbEntity
8
1
62
256
6
ByLayer
370
18
48
1
60
0
100
AcDbLine
10
150.32476
20
9.254246
30
0
11
150.32476
21
10.171803
31
0
39
0
210
0
220
0
230
1
0
LINE
5
E6
100
AcDbEntity
8
1
62
256
6
ByLayer
370
18
48
1
60
0
100
AcDbLine
10
150.32476
20
-20.171803
30
0
11
150.32476
21
-19.254246
31
0
39
0
210
0
220
0
230
1
0
LINE
5
E7
100
AcDbEntity
8
1
62
256
6
ByLayer
370
13
48
1
60
0
100
AcDbLine
10
149.650481
20
-20.722727
30
0
11
149.650481
21
-20.456027
31
0
39
0
210
0
220
0
230
1
0
LINE
5
E8
100
AcDbEntity
8
1
62
256
6
ByLayer
370
13
48
1
60
0
100
AcDbLine
10
149.650481
20
10.456027
30
0
11
149.650481
21
10.722727
31
0
39
0
210
0
220
0
230
1
0
LINE
5
E9
100
AcDbEntity
8
1
62
256
6
ByLayer
370
18
48
1
60
0
100
AcDbLine
10
150.32476
20
7.776776
30
0
11
150.32476
21
8.91478
31
0
39
0
210
0
220
0
230
1
0
LINE
5
EA
100
AcDbEntity
8
1
62
256
6
ByLayer
370
18
48
1
60
0
100
AcDbLine
10
150.32476
20
-18.91478
30
0
11
150.32476
21
-17.776776
31
0
39
0
210
0
220
0
230
1
0
LINE
5
EB
100
AcDbEntity
8
1
62
256
6
ByLayer
370
13
48
1
60
0
100
AcDbLine
10
149.650481
20
-19.473209
30
0
11
149.650481
21
-19.146205
31
0
39
0
210
0
220
0
230
1
0
LINE
5
EC
100
AcDbEntity
8
1
62
256
6
ByLayer
370
13
48
1
60
0
100
AcDbLine
10
149.650481
20
9.146205
30
0
11
149.650481
21
9.473209
31
0
39
0
210
0
220
0
230
1
0
LINE
5
ED
100
AcDbEntity
8
1
62
256
6
ByLayer
370
18
48
1
60
0
100
AcDbLine
10
150.32476
20
-17.351461
30
0
11
150.32476
21
-15.899779
31
0
39
0
210
0
220
0
230
1
0
LINE
5
EE
100
AcDbEntity
8
1
62
256
6
ByLayer
370
18
48
1
60
0
100
AcDbLine
10
150.32476
20
5.899779
30
0
11
150.32476
21
7.351461
31
0
39
0
210
0
220
0
230
1
0
LINE
5
EF
100
AcDbEntity
8
1
62
256
6
ByLayer
370
13
48
1
60
0
100
AcDbLine
10
149.650481
20
-17.932262
30
0
11
149.650481
21
-17.523683
31
0
39
0
210
0
220
0
230
1
0
LINE
5
F0
100
AcDbEntity
8
1
62
256
6
ByLayer
370
13
48
1
60
0
100
AcDbLine
10
149.650481
20
7.523683
30
0
11
149.650481
21
7.932262
31
0
39
0
210
0
220
0
230
1
0
LINE
5
F1
100
AcDbEntity
8
1
62
256
6
ByLayer
370
18
48
1
60
0
100
AcDbLine
10
150.32476
20
-15.343892
30
0
11
150.32476
21
-13.358834
31
0
39
0
210
0
220
0
230
1
0
LINE
5
F2
100
AcDbEntity
8
1
62
256
6
ByLayer
370
18
48
1
60
0
100
AcDbLine
10
150.32476
20
3.358834
30
0
11
150.32476
21
5.343892
31
0
39
0
210
0
220
0
230
1
0
LINE
5
F3
100
AcDbEntity
8
1
62
256
6
ByLayer
370
13
48
1
60
0
100
AcDbLine
10
149.650481
20
-15.977842
30
0
11
149.650481
21
-15.444044
31
0
39
0
210
0
220
0
230
1
0
LINE
5
F4
100
AcDbEntity
8
1
62
256
6
ByLayer
370
13
48
1
60
0
100
AcDbLine
10
149.650481
20
5.444044
30
0
11
149.650481
21
5.977842
31
0
39
0
210
0
220
0
230
1
0
LINE
5
F5
100
AcDbEntity
8
1
62
256
6
ByLayer
370
18
48
1
60
0
100
AcDbLine
10
150.32476
20
-12.545435
30
0
11
150.32476
21
-9.053785
31
0
39
0
210
0
220
0
230
1
0
LINE
5
F6
100
AcDbEntity
8
1
62
256
6
ByLayer
370
18
48
1
60
0
100
AcDbLine
10
150.32476
20
-0.946215
30
0
11
150.32476
21
2.545435
31
0
39
0
210
0
220
0
230
1
0
LINE
5
F7
100
AcDbEntity
8
1
62
256
6
ByLayer
370
13
48
1
60
0
100
AcDbLine
10
149.650481
20
-13.323618
30
0
11
149.650481
21
-12.537296
31
0
39
0
210
0
220
0
230
1
0
LINE
5
F8
100
AcDbEntity
8
1
62
256
6
ByLayer
370
13
48
1
60
0
100
AcDbLine
10
149.650481
20
2.537296
30
0
11
149.650481
21
3.323618
31
0
39
0
210
0
220
0
230
1
0
LINE
5
F9
100
AcDbEntity
8
1
62
256
6
ByLayer
370
18
48
1
60
0
100
AcDbLine
10
150.32476
20
-6.539836
30
0
11
150.32476
21
-3.460164
31
0
39
0
210
0
220
0
230
1
0
LINE
5
FA
100
AcDbEntity
8
1
62
256
6
ByLayer
370
13
48
1
60
0
100
AcDbLine
10
149.650481
20
-8.681336
30
0
11
149.650481
21
-5.209491
31
0
39
0
210
0
220
0
230
1
0
LINE
5
FB
100
AcDbEntity
8
1
62
256
6
ByLayer
370
13
48
1
60
0
100
AcDbLine
10
149.650481
20
-4.790509
30
0
11
149.650481
21
-1.318664
31
0
39
0
210
0
220
0
230
1
0
LINE
5
FC
100
AcDbEntity
8
1
62
256
6
ByLayer
370
18
48
1
60
0
100
AcDbLine
10
150.32476
20
-23.842999
30
0
11
150.32476
21
-23.887723
31
0
39
0
210
0
220
0
230
1
0
LINE
5
FD
100
AcDbEntity
8
1
62
256
6
ByLayer
370
18
48
1
60
0
100
AcDbLine
10
150.32476
20
-23.587525
30
0
11
150.32476
21
-23.663027
31
0
39
0
210
0
220
0
230
1
0
LINE
5
FE
100
AcDbEntity
8
1
62
256
6
ByLayer
370
18
48
1
60
0
100
AcDbLine
10
150.32476
20
-23.205318
30
0
11
150.32476
21
-23.31314
31
0
39
0
210
0
220
0
230
1
0
LINE
5
FF
100
AcDbEntity
8
1
62
256
6
ByLayer
370
18
48
1
60
0
100
AcDbLine
10
150.32476
20
-22.688163
30
0
11
150.32476
21
-22.830692
31
0
39
0
210
0
220
0
230
1
0
LINE
5
100
100
AcDbEntity
8
1
62
256
6
ByLayer
370
18
48
1
60
0
100
AcDbLine
10
150.32476
20
-22.023766
30
0
11
150.32476
21
-22.204537
31
0
39
0
210
0
220
0
230
1
0
LINE
5
101
100
AcDbEntity
8
1
62
256
6
ByLayer
370
18
48
1
60
0
100
AcDbLine
10
150.32476
20
-21.194014
30
0
11
150.32476
21
-21.41824
31
0
39
0
210
0
220
0
230
1
0
LINE
5
102
100
AcDbEntity
8
1
62
256
6
ByLayer
370
18
48
1
60
0
100
AcDbLine
10
150.32476
20
-20.171803
30
0
11
150.32476
21
-20.447365
31
0
39
0
210
0
220
0
230
1
0
LINE
5
103
100
AcDbEntity
8
1
62
256
6
ByLayer
370
18
48
1
60
0
100
AcDbLine
10
150.32476
20
-18.91478
30
0
11
150.32476
21
-19.254248
31
0
39
0
210
0
220
0
230
1
0
LINE
5
104
100
AcDbEntity
8
1
62
256
6
ByLayer
370
18
48
1
60
0
100
AcDbLine
10
150.32476
20
-17.351461
30
0
11
150.32476
21
-17.776779
31
0
39
0
210
0
220
0
230
1
0
LINE
5
105
100
AcDbEntity
8
1
62
256
6
ByLayer
370
18
48
1
60
0
100
AcDbLine
10
150.32476
20
-15.343892
30
0
11
150.32476
21
-15.899935
31
0
39
0
210
0
220
0
230
1
0
LINE
5
106
100
AcDbEntity
8
1
62
256
6
ByLayer
370
18
48
1
60
0
100
AcDbLine
10
150.32476
20
-12.545435
30
0
11
150.32476
21
-13.358893
31
0
39
0
210
0
220
0
230
1
0
LINE
5
107
100
AcDbEntity
8
1
62
256
6
ByLayer
370
18
48
1
60
0
100
AcDbLine
10
150.32476
20
-6.539836
30
0
11
150.32476
21
-9.053837
31
0
39
0
210
0
220
0
230
1
0
LINE
5
108
100
AcDbEntity
8
1
62
256
6
ByLayer
370
18
48
1
60
0
100
AcDbLine
10
150.32476
20
-0.946163
30
0
11
150.32476
21
-3.460164
31
0
39
0
210
0
220
0
230
1
0
LINE
5
109
100
AcDbEntity
8
1
62
256
6
ByLayer
370
18
48
1
60
0
100
AcDbLine
10
150.32476
20
3.358893
30
0
11
150.32476
21
2.545435
31
0
39
0
210
0
220
0
230
1
0
LINE
5
10A
100
AcDbEntity
8
1
62
256
6
ByLayer
370
18
48
1
60
0
100
AcDbLine
10
150.32476
20
5.899935
30
0
11
150.32476
21
5.343892
31
0
39
0
210
0
220
0
230
1
0
LINE
5
10B
100
AcDbEntity
8
1
62
256
6
ByLayer
370
18
48
1
60
0
100
AcDbLine
10
150.32476
20
7.776779
30
0
11
150.32476
21
7.351461
31
0
39
0
210
0
220
0
230
1
0
LINE
5
10C
100
AcDbEntity
8
1
62
256
6
ByLayer
370
18
48
1
60
0
100
AcDbLine
10
150.32476
20
9.254248
30
0
11
150.32476
21
8.91478
31
0
39
0
210
0
220
0
230
1
0
LINE
5
10D
100
AcDbEntity
8
1
62
256
6
ByLayer
370
18
48
1
60
0
100
AcDbLine
10
150.32476
20
10.447365
30
0
11
150.32476
21
10.171803
31
0
39
0
210
0
220
0
230
1
0
LINE
5
10E
100
AcDbEntity
8
1
62
256
6
ByLayer
370
18
48
1
60
0
100
AcDbLine
10
150.32476
20
11.41824
30
0
11
150.32476
21
11.194014
31
0
39
0
210
0
220
0
230
1
0
LINE
5
10F
100
AcDbEntity
8
1
62
256
6
ByLayer
370
18
48
1
60
0
100
AcDbLine
10
150.32476
20
12.204537
30
0
11
150.32476
21
12.023766
31
0
39
0
210
0
220
0
230
1
0
LINE
5
110
100
AcDbEntity
8
1
62
256
6
ByLayer
370
18
48
1
60
0
100
AcDbLine
10
150.32476
20
12.830692
30
0
11
150.32476
21
12.688163
31
0
39
0
210
0
220
0
230
1
0
LINE
5
111
100
AcDbEntity
8
1
62
256
6
ByLayer
370
18
48
1
60
0
100
AcDbLine
10
150.32476
20
13.31314
30
0
11
150.32476
21
13.205318
31
0
39
0
210
0
220
0
230
1
0
LINE
5
112
100
AcDbEntity
8
1
62
256
6
ByLayer
370
18
48
1
60
0
100
AcDbLine
10
150.32476
20
13.663027
30
0
11
150.32476
21
13.587525
31
0
39
0
210
0
220
0
230
1
0
LINE
5
113
100
AcDbEntity
8
1
62
256
6
ByLayer
370
18
48
1
60
0
100
AcDbLine
10
150.32476
20
13.887723
30
0
11
150.32476
21
13.842999
31
0
39
0
210
0
220
0
230
1
0
LINE
5
114
100
AcDbEntity
8
1
62
256
6
ByLayer
370
18
48
1
60
0
100
AcDbLine
10
150.32476
20
13.991672
30
0
11
150.32476
21
13.976857
31
0
39
0
210
0
220
0
230
1
0
LINE
5
115
100
AcDbEntity
8
1
62
256
6
ByLayer
370
18
48
1
60
0
100
AcDbLine
10
150.32476
20
-23.976857
30
0
11
150.32476
21
-23.991672
31
0
39
0
210
0
220
0
230
1
0
LINE
5
116
100
AcDbEntity
8
1
62
256
6
ByLayer
370
18
48
1
60
0
100
AcDbLine
10
149.32476
20
15
30
0
11
149.32476
21
-25
31
0
39
0
210
0
220
0
230
1
0
LINE
5
117
100
AcDbEntity
8
1
62
256
6
ByLayer
370
13
48
1
60
0
100
AcDbLine
10
148.5
20
15
30
0
11
148.5
21
-22.536585
31
0
39
0
210
0
220
0
230
1
0
LINE
5
118
100
AcDbEntity
8
1
62
256
6
ByLayer
370
18
48
1
60
0
100
AcDbLine
10
146
20
-24.8
30
0
11
146
21
24.8
31
0
39
0
210
0
220
0
230
1
0
LINE
5
119
100
AcDbEntity
8
1
62
256
6
ByLayer
370
18
48
1
60
0
100
AcDbLine
10
148
20
24.5
30
0
11
148
21
-20.5
31
0
39
0
210
0
220
0
230
1
0
LINE
5
11A
100
AcDbEntity
8
1
62
256
6
ByLayer
370
13
48
1
60
0
100
AcDbLine
10
146.2
20
-25
30
0
11
146.2
21
25
31
0
39
0
210
0
220
0
230
1
0
LINE
5
11B
100
AcDbEntity
8
1
62
256
6
ByLayer
370
18
48
1
60
0
100
AcDbLine
10
147.5
20
25
30
0
11
147.5
21
-20.918367
31
0
39
0
210
0
220
0
230
1
0
LINE
5
11C
100
AcDbEntity
8
1
62
256
6
ByLayer
370
18
48
1
60
0
100
AcDbLine
10
0
20
-24.7
30
0
11
0.3
21
-25
31
0
39
0
210
0
220
0
230
1
0
LINE
5
11D
100
AcDbEntity
8
1
62
256
6
ByLayer
370
18
48
1
60
0
100
AcDbLine
10
0.3
20
25
30
0
11
0
21
24.7
31
0
39
0
210
0
220
0
230
1
0
LINE
5
11E
100
AcDbEntity
8
1
62
256
6
ByLayer
370
18
48
1
60
0
100
AcDbLine
10
145.8
20
25
30
0
11
0.3
21
25
31
0
39
0
210
0
220
0
230
1
0
LINE
5
11F
100
AcDbEntity
8
1
62
256
6
ByLayer
370
18
48
1
60
0
100
AcDbLine
10
0.3
20
-25
30
0
11
145.8
21
-25
31
0
39
0
210
0
220
0
230
1
0
LINE
5
120
100
AcDbEntity
8
1
62
256
6
ByLayer
370
18
48
1
60
0
100
AcDbLine
10
150.324609
20
1.899495
30
0
11
154.8
21
1.899495
31
0
39
0
210
0
220
0
230
1
0
LINE
5
121
100
AcDbEntity
8
1
62
256
6
ByLayer
370
18
48
1
60
0
100
AcDbLine
10
154.8
20
7.899495
30
0
11
150.324609
21
7.899495
31
0
39
0
210
0
220
0
230
1
0
LINE
5
122
100
AcDbEntity
8
1
62
256
6
ByLayer
370
18
48
1
60
0
100
AcDbLine
10
155
20
-0.100505
30
0
11
160.4
21
-0.100505
31
0
39
0
210
0
220
0
230
1
0
LINE
5
123
100
AcDbEntity
8
1
62
256
6
ByLayer
370
18
48
1
60
0
100
AcDbLine
10
160.4
20
9.899495
30
0
11
155
21
9.899495
31
0
39
0
210
0
220
0
230
1
0
LINE
5
124
100
AcDbEntity
8
1
62
256
6
ByLayer
370
18
48
1
60
0
100
AcDbLine
10
150.324609
20
-17.899495
30
0
11
154.8
21
-17.899495
31
0
39
0
210
0
220
0
230
1
0
LINE
5
125
100
AcDbEntity
8
1
62
256
6
ByLayer
370
18
48
1
60
0
100
AcDbLine
10
154.8
20
-11.899495
30
0
11
150.324609
21
-11.899495
31
0
39
0
210
0
220
0
230
1
0
LINE
5
126
100
AcDbEntity
8
1
62
256
6
ByLayer
370
18
48
1
60
0
100
AcDbLine
10
155
20
-19.899495
30
0
11
160.4
21
-19.899495
31
0
39
0
210
0
220
0
230
1
0
LINE
5
127
100
AcDbEntity
8
1
62
256
6
ByLayer
370
18
48
1
60
0
100
AcDbLine
10
160.4
20
-9.899495
30
0
11
155
21
-9.899495
31
0
39
0
210
0
220
0
230
1
0
LINE
5
128
100
AcDbEntity
8
1
62
256
6
ByLayer
370
18
48
1
60
0
100
AcDbLine
10
149.552123
20
14.772637
30
0
11
149.32476
21
15
31
0
39
0
210
0
220
0
230
1
0
LINE
5
129
100
AcDbEntity
8
1
62
256
6
ByLayer
370
18
48
1
60
0
100
AcDbLine
10
149.32476
20
-25
30
0
11
149.552123
21
-24.772637
31
0
39
0
210
0
220
0
230
1
0
LINE
5
12A
100
AcDbEntity
8
1
62
256
6
ByLayer
370
18
48
1
60
0
100
AcDbLine
10
148
20
-25
30
0
11
149.32476
21
-25
31
0
39
0
210
0
220
0
230
1
0
LINE
5
12B
100
AcDbEntity
8
1
62
256
6
ByLayer
370
18
48
1
60
0
100
AcDbLine
10
149.32476
20
15
30
0
11
148.5
21
15
31
0
39
0
210
0
220
0
230
1
0
LINE
5
12C
100
AcDbEntity
8
1
62
256
6
ByLayer
370
18
48
1
60
0
100
AcDbLine
10
148
20
24.5
30
0
11
147.5
21
25
31
0
39
0
210
0
220
0
230
1
0
LINE
5
12D
100
AcDbEntity
8
1
62
256
6
ByLayer
370
18
48
1
60
0
100
AcDbLine
10
147.5
20
25
30
0
11
146.2
21
25
31
0
39
0
210
0
220
0
230
1
0
LINE
5
12E
100
AcDbEntity
8
1
62
256
6
ByLayer
370
18
48
1
60
0
100
AcDbLine
10
146.2
20
-25
30
0
11
148.02
21
-25
31
0
39
0
210
0
220
0
230
1
0
LINE
5
12F
100
AcDbEntity
8
1
62
256
6
ByLayer
370
13
48
0.05
60
0
100
AcDbLine
10
152.3
20
0
30
0
11
-6.5
21
0
31
0
39
0
210
0
220
0
230
1
0
LINE
5
130
100
AcDbEntity
8
SK2
62
256
6
ByLayer
370
18
48
1
60
0
100
AcDbLine
10
-36.6
20
-25
30
0
11
-36.6
21
25
31
0
39
0
210
0
220
0
230
1
0
LINE
5
132
100
AcDbEntity
8
SK2
62
256
6
ByLayer
370
18
48
1
60
0
100
AcDbLine
10
-1.2875
20
25
30
0
11
-38.6
21
25
31
0
39
0
210
0
220
0
230
1
0
LINE
5
133
100
AcDbEntity
8
SK2
62
256
6
ByLayer
370
18
48
1
60
0
100
AcDbLine
10
-1.2875
20
-25
30
0
11
-38.6
21
-25
31
0
39
0
210
0
220
0
230
1
0
LINE
5
134
100
AcDbEntity
8
1
62
256
6
ByLayer
370
18
48
1
60
1
100
AcDbLine
10
-36.6
20
25
30
0
11
-36.139216
21
21.500002
31
0
39
0
210
0
220
0
230
1
0
LINE
5
135
100
AcDbEntity
8
1
62
256
6
ByLayer
370
18
48
1
60
1
100
AcDbLine
10
-36.139216
20
21.500002
30
0
11
-37.060784
21
21.499998
31
0
39
0
210
0
220
0
230
1
0
LINE
5
136
100
AcDbEntity
8
1
62
256
6
ByLayer
370
18
48
1
60
1
100
AcDbLine
10
-37.060784
20
21.499998
30
0
11
-36.6
21
25
31
0
39
0
210
0
220
0
230
1
0
LINE
5
137
100
AcDbEntity
8
1
62
256
6
ByLayer
370
18
48
1
60
1
100
AcDbLine
10
-36.6
20
-25
30
0
11
-37.060784
21
-21.500002
31
0
39
0
210
0
220
0
230
1
0
LINE
5
138
100
AcDbEntity
8
1
62
256
6
ByLayer
370
18
48
1
60
1
100
AcDbLine
10
-37.060784
20
-21.500002
30
0
11
-36.139216
21
-21.499998
31
0
39
0
210
0
220
0
230
1
0
LINE
5
139
100
AcDbEntity
8
1
62
256
6
ByLayer
370
18
48
1
60
1
100
AcDbLine
10
-36.139216
20
-21.499998
30
0
11
-36.6
21
-25
31
0
39
0
210
0
220
0
230
1
0
LINE
5
13A
100
AcDbEntity
8
SK2
62
256
6
ByLayer
370
18
48
1
60
0
100
AcDbLine
10
181.748181
20
-25
30
0
11
181.748181
21
25
31
0
39
0
210
0
220
0
230
1
0
LINE
5
13B
100
AcDbEntity
8
SK2
62
256
6
ByLayer
370
18
48
1
60
0
100
AcDbLine
10
147.3875
20
25
30
0
11
183.748181
21
25
31
0
39
0
210
0
220
0
230
1
0
LINE
5
13C
100
AcDbEntity
8
SK2
62
256
6
ByLayer
370
18
48
1
60
0
100
AcDbLine
10
147.3875
20
-25
30
0
11
183.748181
21
-25
31
0
39
0
210
0
220
0
230
1
0
LINE
5
13D
100
AcDbEntity
8
1
62
256
6
ByLayer
370
18
48
1
60
1
100
AcDbLine
10
181.748181
20
25
30
0
11
182.208964
21
21.500002
31
0
39
0
210
0
220
0
230
1
0
LINE
5
13E
100
AcDbEntity
8
1
62
256
6
ByLayer
370
18
48
1
60
1
100
AcDbLine
10
182.208964
20
21.500002
30
0
11
181.287397
21
21.499998
31
0
39
0
210
0
220
0
230
1
0
LINE
5
13F
100
AcDbEntity
8
1
62
256
6
ByLayer
370
18
48
1
60
1
100
AcDbLine
10
181.287397
20
21.499998
30
0
11
181.748181
21
25
31
0
39
0
210
0
220
0
230
1
0
LINE
5
140
100
AcDbEntity
8
1
62
256
6
ByLayer
370
18
48
1
60
1
100
AcDbLine
10
181.748181
20
-25
30
0
11
181.287397
21
-21.500002
31
0
39
0
210
0
220
0
230
1
0
LINE
5
141
100
AcDbEntity
8
1
62
256
6
ByLayer
370
18
48
1
60
1
100
AcDbLine
10
181.287397
20
-21.500002
30
0
11
182.208964
21
-21.499998
31
0
39
0
210
0
220
0
230
1
0
LINE
5
142
100
AcDbEntity
8
1
62
256
6
ByLayer
370
18
48
1
60
1
100
AcDbLine
10
182.208964
20
-21.499998
30
0
11
181.748181
21
-25
31
0
39
0
210
0
220
0
230
1
0
LINE
5
143
100
AcDbEntity
8
SK2
62
256
6
ByLayer
370
13
48
1
60
0
100
AcDbLine
10
170.123181
20
15
30
0
11
170.123181
21
-25
31
0
39
0
210
0
220
0
230
1
0
LINE
5
144
100
AcDbEntity
8
SK2
62
256
6
ByLayer
370
13
48
1
60
0
100
AcDbLine
10
150.91226
20
-25
30
0
11
172.123181
21
-25
31
0
39
0
210
0
220
0
230
1
0
LINE
5
145
100
AcDbEntity
8
SK2
62
256
6
ByLayer
370
13
48
1
60
0
100
AcDbLine
10
150.91226
20
15
30
0
11
172.123181
21
15
31
0
39
0
210
0
220
0
230
1
0
LINE
5
146
100
AcDbEntity
8
1
62
256
6
ByLayer
370
18
48
1
60
1
100
AcDbLine
10
170.123181
20
-25
30
0
11
169.662397
21
-21.500002
31
0
39
0
210
0
220
0
230
1
0
LINE
5
147
100
AcDbEntity
8
1
62
256
6
ByLayer
370
18
48
1
60
1
100
AcDbLine
10
169.662397
20
-21.500002
30
0
11
170.583964
21
-21.499998
31
0
39
0
210
0
220
0
230
1
0
LINE
5
148
100
AcDbEntity
8
1
62
256
6
ByLayer
370
18
48
1
60
1
100
AcDbLine
10
170.583964
20
-21.499998
30
0
11
170.123181
21
-25
31
0
39
0
210
0
220
0
230
1
0
LINE
5
149
100
AcDbEntity
8
1
62
256
6
ByLayer
370
18
48
1
60
1
100
AcDbLine
10
170.123181
20
15
30
0
11
170.583964
21
11.500002
31
0
39
0
210
0
220
0
230
1
0
LINE
5
14A
100
AcDbEntity
8
1
62
256
6
ByLayer
370
18
48
1
60
1
100
AcDbLine
10
170.583964
20
11.500002
30
0
11
169.662397
21
11.499998
31
0
39
0
210
0
220
0
230
1
0
LINE
5
14B
100
AcDbEntity
8
1
62
256
6
ByLayer
370
18
48
1
60
1
100
AcDbLine
10
169.662397
20
11.499998
30
0
11
170.123181
21
15
31
0
39
0
210
0
220
0
230
1
0
LINE
5
14C
100
AcDbEntity
8
SK2
62
256
6
ByLayer
370
18
48
1
60
0
100
AcDbLine
10
0
20
30.600025
30
0
11
150
21
30.600025
31
0
39
0
210
0
220
0
230
1
0
LINE
5
14D
100
AcDbEntity
8
SK2
62
256
6
ByLayer
370
18
48
1
60
0
100
AcDbLine
10
150
20
26.5875
30
0
11
150
21
32.600025
31
0
39
0
210
0
220
0
230
1
0
LINE
5
14E
100
AcDbEntity
8
SK2
62
256
6
ByLayer
370
18
48
1
60
0
100
AcDbLine
10
0
20
26.2875
30
0
11
0
21
32.600025
31
0
39
0
210
0
220
0
230
1
0
LINE
5
14F
100
AcDbEntity
8
1
62
256
6
ByLayer
370
18
48
1
60
1
100
AcDbLine
10
150
20
30.600025
30
0
11
146.500002
21
30.139241
31
0
39
0
210
0
220
0
230
1
0
LINE
5
150
100
AcDbEntity
8
1
62
256
6
ByLayer
370
18
48
1
60
1
100
AcDbLine
10
146.500002
20
30.139241
30
0
11
146.499998
21
31.060809
31
0
39
0
210
0
220
0
230
1
0
LINE
5
151
100
AcDbEntity
8
1
62
256
6
ByLayer
370
18
48
1
60
1
100
AcDbLine
10
146.499998
20
31.060809
30
0
11
150
21
30.600025
31
0
39
0
210
0
220
0
230
1
0
LINE
5
152
100
AcDbEntity
8
1
62
256
6
ByLayer
370
18
48
1
60
1
100
AcDbLine
10
0
20
30.600025
30
0
11
3.499998
21
31.060809
31
0
39
0
210
0
220
0
230
1
0
LINE
5
153
100
AcDbEntity
8
1
62
256
6
ByLayer
370
18
48
1
60
1
100
AcDbLine
10
3.499998
20
31.060809
30
0
11
3.500002
21
30.139241
31
0
39
0
210
0
220
0
230
1
0
LINE
5
154
100
AcDbEntity
8
1
62
256
6
ByLayer
370
18
48
1
60
1
100
AcDbLine
10
3.500002
20
30.139241
30
0
11
0
21
30.600025
31
0
39
0
210
0
220
0
230
1
0
LINE
5
1DE
100
AcDbEntity
8
1
62
256
6
ByLayer
370
13
48
0.05
60
0
100
AcDbLine
10
137.05
20
-14.899495
30
0
11
166.9
21
-14.899495
31
0
39
0
210
0
220
0
230
1
0
LINE
5
1DF
100
AcDbEntity
8
1
62
256
6
ByLayer
370
13
48
0.05
60
0
100
AcDbLine
10
141.330172
20
-5
30
0
11
156.82476
21
-5
31
0
39
0
210
0
220
0
230
1
0
LINE
5
1E0
100
AcDbEntity
8
1
62
256
6
ByLayer
370
13
48
0.05
60
0
100
AcDbLine
10
154.52
20
0
30
0
11
139.7
21
0
31
0
39
0
210
0
220
0
230
1
0
LINE
5
1E1
100
AcDbEntity
8
1
62
256
6
ByLayer
370
13
48
0.05
60
0
100
AcDbLine
10
137.05
20
4.899495
30
0
11
166.9
21
4.899495
31
0
39
0
210
0
220
0
230
1
0
LINE
5
1E6
100
AcDbEntity
8
1
62
256
6
ByLayer
370
18
48
1
60
1
100
AcDbLine
10
-36.6
20
25
30
0
11
-36.139216
21
21.500002
31
0
39
0
210
0
220
0
230
1
0
LINE
5
1E7
100
AcDbEntity
8
1
62
256
6
ByLayer
370
18
48
1
60
1
100
AcDbLine
10
-36.139216
20
21.500002
30
0
11
-37.060784
21
21.499998
31
0
39
0
210
0
220
0
230
1
0
LINE
5
1E8
100
AcDbEntity
8
1
62
256
6
ByLayer
370
18
48
1
60
1
100
AcDbLine
10
-37.060784
20
21.499998
30
0
11
-36.6
21
25
31
0
39
0
210
0
220
0
230
1
0
LINE
5
1EA
100
AcDbEntity
8
1
62
256
6
ByLayer
370
18
48
1
60
1
100
AcDbLine
10
-36.6
20
-25
30
0
11
-37.060784
21
-21.500002
31
0
39
0
210
0
220
0
230
1
0
LINE
5
1EB
100
AcDbEntity
8
1
62
256
6
ByLayer
370
18
48
1
60
1
100
AcDbLine
10
-37.060784
20
-21.500002
30
0
11
-36.139216
21
-21.499998
31
0
39
0
210
0
220
0
230
1
0
LINE
5
1EC
100
AcDbEntity
8
1
62
256
6
ByLayer
370
18
48
1
60
1
100
AcDbLine
10
-36.139216
20
-21.499998
30
0
11
-36.6
21
-25
31
0
39
0
210
0
220
0
230
1
0
LINE
5
1F0
100
AcDbEntity
8
1
62
256
6
ByLayer
370
18
48
1
60
1
100
AcDbLine
10
181.748181
20
25
30
0
11
182.208964
21
21.500002
31
0
39
0
210
0
220
0
230
1
0
LINE
5
1F1
100
AcDbEntity
8
1
62
256
6
ByLayer
370
18
48
1
60
1
100
AcDbLine
10
182.208964
20
21.500002
30
0
11
181.287397
21
21.499998
31
0
39
0
210
0
220
0
230
1
0
LINE
5
1F2
100
AcDbEntity
8
1
62
256
6
ByLayer
370
18
48
1
60
1
100
AcDbLine
10
181.287397
20
21.499998
30
0
11
181.748181
21
25
31
0
39
0
210
0
220
0
230
1
0
LINE
5
1F4
100
AcDbEntity
8
1
62
256
6
ByLayer
370
18
48
1
60
1
100
AcDbLine
10
181.748181
20
-25
30
0
11
181.287397
21
-21.500002
31
0
39
0
210
0
220
0
230
1
0
LINE
5
1F5
100
AcDbEntity
8
1
62
256
6
ByLayer
370
18
48
1
60
1
100
AcDbLine
10
181.287397
20
-21.500002
30
0
11
182.208964
21
-21.499998
31
0
39
0
210
0
220
0
230
1
0
LINE
5
1F6
100
AcDbEntity
8
1
62
256
6
ByLayer
370
18
48
1
60
1
100
AcDbLine
10
182.208964
20
-21.499998
30
0
11
181.748181
21
-25
31
0
39
0
210
0
220
0
230
1
0
LINE
5
1FC
100
AcDbEntity
8
1
62
256
6
ByLayer
370
18
48
1
60
1
100
AcDbLine
10
170.123181
20
-25
30
0
11
169.662397
21
-21.500002
31
0
39
0
210
0
220
0
230
1
0
LINE
5
1FD
100
AcDbEntity
8
1
62
256
6
ByLayer
370
18
48
1
60
1
100
AcDbLine
10
169.662397
20
-21.500002
30
0
11
170.583964
21
-21.499998
31
0
39
0
210
0
220
0
230
1
0
LINE
5
1FE
100
AcDbEntity
8
1
62
256
6
ByLayer
370
18
48
1
60
1
100
AcDbLine
10
170.583964
20
-21.499998
30
0
11
170.123181
21
-25
31
0
39
0
210
0
220
0
230
1
0
LINE
5
200
100
AcDbEntity
8
1
62
256
6
ByLayer
370
18
48
1
60
1
100
AcDbLine
10
170.123181
20
15
30
0
11
170.583964
21
11.500002
31
0
39
0
210
0
220
0
230
1
0
LINE
5
201
100
AcDbEntity
8
1
62
256
6
ByLayer
370
18
48
1
60
1
100
AcDbLine
10
170.583964
20
11.500002
30
0
11
169.662397
21
11.499998
31
0
39
0
210
0
220
0
230
1
0
LINE
5
202
100
AcDbEntity
8
1
62
256
6
ByLayer
370
18
48
1
60
1
100
AcDbLine
10
169.662397
20
11.499998
30
0
11
170.123181
21
15
31
0
39
0
210
0
220
0
230
1
0
LINE
5
205
100
AcDbEntity
8
1
62
256
6
ByLayer
370
18
48
1
60
1
100
AcDbLine
10
150
20
30.600025
30
0
11
146.500002
21
30.139241
31
0
39
0
210
0
220
0
230
1
0
LINE
5
206
100
AcDbEntity
8
1
62
256
6
ByLayer
370
18
48
1
60
1
100
AcDbLine
10
146.500002
20
30.139241
30
0
11
146.499998
21
31.060809
31
0
39
0
210
0
220
0
230
1
0
LINE
5
207
100
AcDbEntity
8
1
62
256
6
ByLayer
370
18
48
1
60
1
100
AcDbLine
10
146.499998
20
31.060809
30
0
11
150
21
30.600025
31
0
39
0
210
0
220
0
230
1
0
LINE
5
209
100
AcDbEntity
8
1
62
256
6
ByLayer
370
18
48
1
60
1
100
AcDbLine
10
0
20
30.600025
30
0
11
3.499998
21
31.060809
31
0
39
0
210
0
220
0
230
1
0
LINE
5
20A
100
AcDbEntity
8
1
62
256
6
ByLayer
370
18
48
1
60
1
100
AcDbLine
10
3.499998
20
31.060809
30
0
11
3.500002
21
30.139241
31
0
39
0
210
0
220
0
230
1
0
LINE
5
20B
100
AcDbEntity
8
1
62
256
6
ByLayer
370
18
48
1
60
1
100
AcDbLine
10
3.500002
20
30.139241
30
0
11
0
21
30.600025
31
0
39
0
210
0
220
0
230
1
0
MTEXT
5
1E2
100
AcDbEntity
8
SK2
62
256
6
ByLayer
370
18
48
1
60
0
100
AcDbMText
10
-38.164634
20
-4.530622
30
0
210
0
220
0
230
1
1
%%c
40
3.5
41
0
44
1.084337
50
90
71
7
72
5
7
iso_b_vert
0
MTEXT
5
1E5
100
AcDbEntity
8
SK2
62
256
6
ByLayer
370
18
48
1
60
0
100
AcDbMText
10
-38.164634
20
2.442034
30
0
210
0
220
0
230
1
1
\W0.6740;50
40
3.5
41
0
44
1.084337
50
90
71
7
72
5
7
iso_b_vert
0
MTEXT
5
1EE
100
AcDbEntity
8
SK2
62
256
6
ByLayer
370
18
48
1
60
0
100
AcDbMText
10
180.183547
20
-4.530622
30
0
210
0
220
0
230
1
1
%%c
40
3.5
41
0
44
1.084337
50
90
71
7
72
5
7
iso_b_vert
0
MTEXT
5
1EF
100
AcDbEntity
8
SK2
62
256
6
ByLayer
370
18
48
1
60
0
100
AcDbMText
10
180.183547
20
2.442034
30
0
210
0
220
0
230
1
1
\W0.6740;50
40
3.5
41
0
44
1.084337
50
90
71
7
72
5
7
iso_b_vert
0
MTEXT
5
1F8
100
AcDbEntity
8
SK2
62
256
6
ByLayer
370
18
48
1
60
0
100
AcDbMText
10
167.902297
20
1.807233
30
0
210
0
220
0
230
1
1
\W1.1313;{\H1.88x;)}
40
3.5
41
0
44
1.084337
50
90
71
7
72
5
7
iso_b_vert
0
MTEXT
5
1F9
100
AcDbEntity
8
SK2
62
256
6
ByLayer
370
18
48
1
60
0
100
AcDbMText
10
167.902297
20
-13.942233
30
0
210
0
220
0
230
1
1
\W1.1313;{\H1.88x;(}
40
3.5
41
0
44
1.084337
50
90
71
7
72
5
7
iso_b_vert
0
MTEXT
5
1FA
100
AcDbEntity
8
SK2
62
256
6
ByLayer
370
18
48
1
60
0
100
AcDbMText
10
167.902297
20
-9.714889
30
0
210
0
220
0
230
1
1
%%c
40
3.5
41
0
44
1.084337
50
90
71
7
72
5
7
iso_b_vert
0
MTEXT
5
1FB
100
AcDbEntity
8
SK2
62
256
6
ByLayer
370
18
48
1
60
0
100
AcDbMText
10
167.902297
20
-2.742233
30
0
210
0
220
0
230
1
1
\W0.7361;40
40
3.5
41
0
44
1.084337
50
90
71
7
72
5
7
iso_b_vert
0
MTEXT
5
204
100
AcDbEntity
8
SK2
62
256
6
ByLayer
370
18
48
1
60
0
100
AcDbMText
10
72.224734
20
31.632659
30
0
210
0
220
0
230
1
1
\W0.6217;150
40
3.5
41
0
44
1.084337
50
0
71
7
72
5
7
iso_b_vert
0
MTEXT
5
20D
100
AcDbEntity
8
SK6
62
256
6
ByLayer
370
18
48
1
60
0
100
AcDbMText
10
42.705327
20
-50.762693
30
0
210
0
220
0
230
1
1
\W0.7614;HT40D-C5 50 150L40
40
3.5
41
0
44
1.084337
50
0
71
7
72
5
7
iso_b_vert
0
HATCH
5
1E9
100
AcDbEntity
8
SK2
62
256
6
ByLayer
370
13
48
1
60
0
100
AcDbHatch
10
0
20
0
30
0
210
0
220
0
230
1
2
ANSI31
70
0
71
0
91
1
92
5
93
3
72
1
10
-36.6
20
25
11
-36.1392162584472
21
21.5000016925532
72
1
10
-36.1392162584472
20
21.5000016925532
11
-37.0607837415528
21
21.4999983074468
72
1
10
-37.0607837415528
20
21.4999983074468
11
-36.6
21
25
97
0
75
0
76
1
52
0
41
0.0062
77
0
78
1
53
45
43
0
44
0
45
-0.0139193969876572
46
0.0139193969876572
79
0
47
0
98
1
10
0
20
0
0
HATCH
5
1ED
100
AcDbEntity
8
SK2
62
256
6
ByLayer
370
13
48
1
60
0
100
AcDbHatch
10
0
20
0
30
0
210
0
220
0
230
1
2
ANSI31
70
0
71
0
91
1
92
5
93
3
72
1
10
-36.6
20
-25
11
-37.0607837415528
21
-21.5000016925532
72
1
10
-37.0607837415528
20
-21.5000016925532
11
-36.1392162584472
21
-21.4999983074468
72
1
10
-36.1392162584472
20
-21.4999983074468
11
-36.6
21
-25
97
0
75
0
76
1
52
0
41
0.0062
77
0
78
1
53
45
43
0
44
0
45
-0.0139193969876572
46
0.0139193969876572
79
0
47
0
98
1
10
0
20
0
0
HATCH
5
1F3
100
AcDbEntity
8
SK2
62
256
6
ByLayer
370
13
48
1
60
0
100
AcDbHatch
10
0
20
0
30
0
210
0
220
0
230
1
2
ANSI31
70
0
71
0
91
1
92
5
93
3
72
1
10
181.748180566759
20
25
11
182.208964308311
21
21.5000016925532
72
1
10
182.208964308311
20
21.5000016925532
11
181.287396825206
21
21.4999983074468
72
1
10
181.287396825206
20
21.4999983074468
11
181.748180566759
21
25
97
0
75
0
76
1
52
0
41
0.0062
77
0
78
1
53
45
43
0
44
0
45
-0.0139193969876572
46
0.0139193969876572
79
0
47
0
98
1
10
0
20
0
0
HATCH
5
1F7
100
AcDbEntity
8
SK2
62
256
6
ByLayer
370
13
48
1
60
0
100
AcDbHatch
10
0
20
0
30
0
210
0
220
0
230
1
2
ANSI31
70
0
71
0
91
1
92
5
93
3
72
1
10
181.748180566759
20
-25
11
181.287396825206
21
-21.5000016925532
72
1
10
181.287396825206
20
-21.5000016925532
11
182.208964308311
21
-21.4999983074468
72
1
10
182.208964308311
20
-21.4999983074468
11
181.748180566759
21
-25
97
0
75
0
76
1
52
0
41
0.0062
77
0
78
1
53
45
43
0
44
0
45
-0.0139193969876572
46
0.0139193969876572
79
0
47
0
98
1
10
0
20
0
0
HATCH
5
1FF
100
AcDbEntity
8
SK2
62
256
6
ByLayer
370
13
48
1
60
0
100
AcDbHatch
10
0
20
0
30
0
210
0
220
0
230
1
2
ANSI31
70
0
71
0
91
1
92
5
93
3
72
1
10
170.123180566759
20
-25
11
169.662396825206
21
-21.5000016925532
72
1
10
169.662396825206
20
-21.5000016925532
11
170.583964308311
21
-21.4999983074468
72
1
10
170.583964308311
20
-21.4999983074468
11
170.123180566759
21
-25
97
0
75
0
76
1
52
0
41
0.0062
77
0
78
1
53
45
43
0
44
0
45
-0.0139193969876572
46
0.0139193969876572
79
0
47
0
98
1
10
0
20
0
0
HATCH
5
203
100
AcDbEntity
8
SK2
62
256
6
ByLayer
370
13
48
1
60
0
100
AcDbHatch
10
0
20
0
30
0
210
0
220
0
230
1
2
ANSI31
70
0
71
0
91
1
92
5
93
3
72
1
10
170.123180566759
20
15
11
170.583964308311
21
11.5000016925532
72
1
10
170.583964308311
20
11.5000016925532
11
169.662396825206
21
11.4999983074468
72
1
10
169.662396825206
20
11.4999983074468
11
170.123180566759
21
15
97
0
75
0
76
1
52
0
41
0.0062
77
0
78
1
53
45
43
0
44
0
45
-0.0139193969876572
46
0.0139193969876572
79
0
47
0
98
1
10
0
20
0
0
HATCH
5
208
100
AcDbEntity
8
SK2
62
256
6
ByLayer
370
13
48
1
60
0
100
AcDbHatch
10
0
20
0
30
0
210
0
220
0
230
1
2
ANSI31
70
0
71
0
91
1
92
5
93
3
72
1
10
150
20
30.600025
11
146.500001692553
21
30.1392412584472
72
1
10
146.500001692553
20
30.1392412584472
11
146.499998307447
21
31.0608087415528
72
1
10
146.499998307447
20
31.0608087415528
11
150
21
30.600025
97
0
75
0
76
1
52
0
41
0.0062
77
0
78
1
53
45
43
0
44
0
45
-0.0139193969876572
46
0.0139193969876572
79
0
47
0
98
1
10
0
20
0
0
HATCH
5
20C
100
AcDbEntity
8
SK2
62
256
6
ByLayer
370
13
48
1
60
0
100
AcDbHatch
10
0
20
0
30
0
210
0
220
0
230
1
2
ANSI31
70
0
71
0
91
1
92
5
93
3
72
1
10
0
20
30.600025
11
3.49999830744682
21
31.0608087415528
72
1
10
3.49999830744682
20
31.0608087415528
11
3.50000169255318
21
30.1392412584472
72
1
10
3.50000169255318
20
30.1392412584472
11
0
21
30.600025
97
0
75
0
76
1
52
0
41
0.0062
77
0
78
1
53
45
43
0
44
0
45
-0.0139193969876572
46
0.0139193969876572
79
0
47
0
98
1
10
0
20
0
0
ENDSEC
0
SECTION
2
OBJECTS
0
DICTIONARY
5
27c
330
0
100
AcDbDictionary
280
0
281
1
3
ACAD_GROUP
350
27d
3
ACAD_MLINESTYLE
350
27e
0
DICTIONARY
5
27d
330
0
100
AcDbDictionary
280
0
281
1
0
DICTIONARY
5
27e
330
0
100
AcDbDictionary
280
0
281
1
3
Standard
350
18
0
MLINESTYLE
5
18
330
27e
100
AcDbMlineStyle
2
Standard
70
0
3

62
256
51
90
52
90
71
2
49
-0.5
62
256
6
ByLayer
49
0.5
62
256
6
ByLayer
0
RASTERVARIABLES
5
26a
330

100
AcDbRasterVariables
90
0
70
1
71
1
72
1
0
ENDSEC
0
EOF
