0
SECTION
2
HEADER
9
$ACADVER
1
AC1015
9
$DWGCODEPAGE
3
ANSI_1252
9
$HANDSEED
5
28d
9
$ANGBASE
50
0
9
$ANGDIR
70
0
9
$ATTMODE
70
1
9
$AUNITS
70
0
9
$AUPREC
70
0
9
$CECOLOR
62
256
9
$CELTSCALE
40
1
9
$CELTYPE
6
ByLayer
9
$CELWEIGHT
370
18
9
$CLAYER
8
0
9
$CMLJUST
70
0
9
$CMLSCALE
40
1
9
$CMLSTYLE
2
Standard
9
$DIMSTYLE
2
Standard
9
$TEXTSIZE
40
0.2
9
$TEXTSTYLE
7
Standard
9
$LUNITS
70
2
9
$LUPREC
70
4
9
$EXTNAMES
290
1
9
$INSUNITS
70
4
9
$LTSCALE
40
1
9
$LWDISPLAY
290
1
9
$PDMODE
70
0
9
$PDSIZE
40
0
9
$PLINEGEN
70
0
0
ENDSEC
0
SECTION
2
CLASSES
0
CLASS
1
RASTERVARIABLES
2
AcDbRasterVariables
3
ISM
90
0
280
0
281
0
0
ENDSEC
0
SECTION
2
TABLES
0
TABLE
2
VPORT
5
283
100
AcDbSymbolTable
0
VPORT
5
1
100
AcDbSymbolTableRecord
100
AcDbViewportTableRecord
2
*Active
70
0
10
0
20
0
11
1
21
1
12
-1
22
1
13
0
23
0
14
0.5
24
0.5
15
10
25
10
16
0
26
0
36
1
17
0
27
0
37
0
0
ENDTAB
0
TABLE
2
LTYPE
5
284
100
AcDbSymbolTable
0
LTYPE
5
14
100
AcDbSymbolTableRecord
100
AcDbLinetypeTableRecord
70
0
2
ByBlock
3

72
65
73
0
40
0
0
LTYPE
5
15
100
AcDbSymbolTableRecord
100
AcDbLinetypeTableRecord
70
0
2
ByLayer
3

72
65
73
0
40
0
0
LTYPE
5
16
100
AcDbSymbolTableRecord
100
AcDbLinetypeTableRecord
70
0
2
Continuous
3
Solid line
72
65
73
0
40
0
0
LTYPE
5
6E
100
AcDbSymbolTableRecord
100
AcDbLinetypeTableRecord
70
0
2
CENTER
3
____ _ ____ _ ____ _ ____
72
65
73
4
40
47.5
49
22
74
0
49
-8.5
74
0
49
8.5
74
0
49
-8.5
74
0
0
LTYPE
5
6F
100
AcDbSymbolTableRecord
100
AcDbLinetypeTableRecord
70
0
2
DASHED
3
__ __ __ __ __ __ __ __ __
72
65
73
2
40
25.72
49
12.86
74
0
49
-12.86
74
0
0
ENDTAB
0
TABLE
2
LAYER
5
285
100
AcDbSymbolTable
0
LAYER
5
10
100
AcDbSymbolTableRecord
100
AcDbLayerTableRecord
2
0
70
0
62
7
6
Continuous
290
1
370
-3
390
0
0
LAYER
5
71
100
AcDbSymbolTableRecord
100
AcDbLayerTableRecord
2
2
70
0
62
7
6
Continuous
290
1
370
-3
390
0
0
LAYER
5
93
100
AcDbSymbolTableRecord
100
AcDbLayerTableRecord
2
80
70
0
62
-6
6
Continuous
290
1
370
-3
390
0
0
LAYER
5
95
100
AcDbSymbolTableRecord
100
AcDbLayerTableRecord
2
81
70
0
62
-3
6
Continuous
290
1
370
-3
390
0
0
LAYER
5
97
100
AcDbSymbolTableRecord
100
AcDbLayerTableRecord
2
1
70
0
62
4
6
Continuous
290
1
370
-3
390
0
0
LAYER
5
A0
100
AcDbSymbolTableRecord
100
AcDbLayerTableRecord
2
4
70
0
62
-2
6
CENTER
290
1
370
-3
390
0
0
LAYER
5
26f
100
AcDbSymbolTableRecord
100
AcDbLayerTableRecord
2
SK4
70
0
62
2
6
CENTER
290
1
370
-3
390
0
0
LAYER
5
270
100
AcDbSymbolTableRecord
100
AcDbLayerTableRecord
2
SK1
70
0
62
4
6
Continuous
290
1
370
-3
390
0
0
LAYER
5
271
100
AcDbSymbolTableRecord
100
AcDbLayerTableRecord
2
SK2
70
0
62
7
6
Continuous
290
1
370
-3
390
0
0
LAYER
5
272
100
AcDbSymbolTableRecord
100
AcDbLayerTableRecord
2
SK6
70
0
62
5
6
Continuous
290
1
370
-3
390
0
0
ENDTAB
0
TABLE
2
STYLE
5
286
100
AcDbSymbolTable
0
STYLE
5
11
100
AcDbSymbolTableRecord
100
AcDbTextStyleTableRecord
2
Standard
3
txt
70
0
71
0
40
0
41
1
42
0
50
0
0
STYLE
5
1E7
100
AcDbSymbolTableRecord
100
AcDbTextStyleTableRecord
2
iso_b_vert
3
simplex.shx
70
0
71
0
40
0
41
1
42
0
50
0
0
STYLE
5
1E8
100
AcDbSymbolTableRecord
100
AcDbTextStyleTableRecord
2
DWGDirectTextStyle
3
simplex
70
0
71
0
40
0
41
1
42
0
50
0
0
ENDTAB
0
TABLE
2
DIMSTYLE
5
287
100
AcDbSymbolTable
100
AcDbDimStyleTable
0
DIMSTYLE
105
27
100
AcDbSymbolTableRecord
100
AcDbDimStyleTableRecord
2
Standard
70
0
3
<>
41
0.18
42
0.0625
44
0.18
140
0.18
147
0.09
73
0
74
0
77
1
271
2
275
0
278
52
280
0
340
11
0
ENDTAB
0
TABLE
2
VIEW
5
288
100
AcDbSymbolTable
0
ENDTAB
0
TABLE
2
UCS
5
289
100
AcDbSymbolTable
0
ENDTAB
0
TABLE
2
APPID
5
28a
100
AcDbSymbolTable
0
APPID
5
12
100
AcDbSymbolTableRecord
100
AcDbRegAppTableRecord
2
ACAD
70
0
0
APPID
5
26B
100
AcDbSymbolTableRecord
100
AcDbRegAppTableRecord
2
ACAD_MLEADERVER
70
0
0
ENDTAB
0
TABLE
2
BLOCK_RECORD
5
28b
100
AcDbSymbolTable
0
BLOCK_RECORD
5
1F
100
AcDbSymbolTableRecord
100
AcDbBlockTableRecord
2
*Model_Space
340
0
70
0
0
BLOCK_RECORD
5
1B
100
AcDbSymbolTableRecord
100
AcDbBlockTableRecord
2
*Paper_Space
340
0
70
0
0
BLOCK_RECORD
5
23
100
AcDbSymbolTableRecord
100
AcDbBlockTableRecord
2
*Paper_Space0
340
0
70
0
0
ENDTAB
0
ENDSEC
0
SECTION
2
BLOCKS
0
BLOCK
5
20
100
AcDbEntity
8
0
100
AcDbBlockBegin
2
*Model_Space
70
0
10
0
20
0
30
0
3
*Model_Space
0
ENDBLK
5
21
100
AcDbEntity
8
0
100
AcDbBlockEnd
0
BLOCK
5
1C
100
AcDbEntity
8
0
100
AcDbBlockBegin
2
*Paper_Space
70
0
10
0
20
0
30
0
3
*Paper_Space
0
ENDBLK
5
1D
100
AcDbEntity
8
0
100
AcDbBlockEnd
0
BLOCK
5
24
100
AcDbEntity
8
0
100
AcDbBlockBegin
2
*Paper_Space0
70
0
10
0
20
0
30
0
3
*Paper_Space0
0
ENDBLK
5
25
100
AcDbEntity
8
0
100
AcDbBlockEnd
0
ENDSEC
0
SECTION
2
ENTITIES
0
ARC
5
159
100
AcDbEntity
8
SK1
62
256
6
ByLayer
370
18
48
1
60
0
100
AcDbCircle
39
0
10
-0.6
20
18.75
30
0
40
0.999999999999998
210
0
220
0
230
1
100
AcDbArc
50
293.578178
51
306.869898
0
ARC
5
15A
100
AcDbEntity
8
SK1
62
256
6
ByLayer
370
18
48
1
60
0
100
AcDbCircle
39
0
10
-0.6
20
-18.75
30
0
40
0.999999999999998
210
0
220
0
230
1
100
AcDbArc
50
53.130102
51
66.421822
0
ARC
5
15B
100
AcDbEntity
8
1
62
256
6
ByLayer
370
18
48
1
60
0
100
AcDbCircle
39
0
10
145.8
20
-24.8
30
0
40
0.2
210
0
220
0
230
1
100
AcDbArc
50
270
51
360
0
ARC
5
15C
100
AcDbEntity
8
1
62
256
6
ByLayer
370
18
48
1
60
0
100
AcDbCircle
39
0
10
145.8
20
24.8
30
0
40
0.2
210
0
220
0
230
1
100
AcDbArc
50
360
51
90
0
ARC
5
15D
100
AcDbEntity
8
1
62
256
6
ByLayer
370
18
48
1
60
0
100
AcDbCircle
39
0
10
154.8
20
-8.099495
30
0
40
0.2
210
0
220
0
230
1
100
AcDbArc
50
0
51
90
0
ARC
5
15E
100
AcDbEntity
8
1
62
256
6
ByLayer
370
18
48
1
60
0
100
AcDbCircle
39
0
10
154.8
20
-1.699495
30
0
40
0.2
210
0
220
0
230
1
100
AcDbArc
50
270
51
0
0
ARC
5
15F
100
AcDbEntity
8
1
62
256
6
ByLayer
370
18
48
1
60
0
100
AcDbCircle
39
0
10
160.4
20
-9.299495
30
0
40
0.6
210
0
220
0
230
1
100
AcDbArc
50
270
51
360
0
ARC
5
160
100
AcDbEntity
8
1
62
256
6
ByLayer
370
18
48
1
60
0
100
AcDbCircle
39
0
10
160.4
20
-0.499495
30
0
40
0.6
210
0
220
0
230
1
100
AcDbArc
50
360
51
90
0
ARC
5
161
100
AcDbEntity
8
1
62
256
6
ByLayer
370
18
48
1
60
0
100
AcDbCircle
39
0
10
154.8
20
11.699495
30
0
40
0.2
210
0
220
0
230
1
100
AcDbArc
50
0
51
90
0
ARC
5
162
100
AcDbEntity
8
1
62
256
6
ByLayer
370
18
48
1
60
0
100
AcDbCircle
39
0
10
154.8
20
18.099495
30
0
40
0.2
210
0
220
0
230
1
100
AcDbArc
50
270
51
0
0
ARC
5
163
100
AcDbEntity
8
1
62
256
6
ByLayer
370
18
48
1
60
0
100
AcDbCircle
39
0
10
160.4
20
10.499495
30
0
40
0.6
210
0
220
0
230
1
100
AcDbArc
50
270
51
360
0
ARC
5
164
100
AcDbEntity
8
1
62
256
6
ByLayer
370
18
48
1
60
0
100
AcDbCircle
39
0
10
160.4
20
19.299495
30
0
40
0.6
210
0
220
0
230
1
100
AcDbArc
50
360
51
90
0
ARC
5
165
100
AcDbEntity
8
1
62
256
6
ByLayer
370
18
48
1
60
0
100
AcDbCircle
39
0
10
148.5
20
-15.5
30
0
40
0.5
210
0
220
0
230
1
100
AcDbArc
50
90
51
180
0
ARC
5
166
100
AcDbEntity
8
1
62
256
6
ByLayer
370
18
48
1
60
0
100
AcDbCircle
39
0
10
146.2
20
-24.8
30
0
40
0.2
210
0
220
0
230
1
100
AcDbArc
50
180
51
270
0
ARC
5
167
100
AcDbEntity
8
1
62
256
6
ByLayer
370
18
48
1
60
0
100
AcDbCircle
39
0
10
146.2
20
24.8
30
0
40
0.2
210
0
220
0
230
1
100
AcDbArc
50
90
51
180
0
ELLIPSE
5
168
100
AcDbEntity
8
1
62
256
6
ByLayer
370
18
48
1
60
0
100
AcDbEllipse
10
-1.056258
20
0
30
0
11
11.7092723497274
21
24.6771864409378
31
0
210
0
220
0
230
1
40
0.341999
41
-1.08183270048926
42
-0.167213071908985
0
ELLIPSE
5
169
100
AcDbEntity
8
1
62
256
6
ByLayer
370
18
48
1
60
0
100
AcDbEllipse
10
21.056258
20
0
30
0
11
11.7092723497271
21
-24.6771864409372
31
0
210
0
220
0
230
1
40
0.341999
41
-2.97437958168081
42
-2.05975995310052
0
ELLIPSE
5
16A
100
AcDbEntity
8
1
62
256
6
ByLayer
370
18
48
1
60
0
100
AcDbEllipse
10
21.056258
20
0
30
0
11
11.7092723497274
21
24.6771864409375
31
0
210
0
220
0
230
1
40
0.341999
41
2.05975995310052
42
2.97437958168081
0
ELLIPSE
5
16B
100
AcDbEntity
8
1
62
256
6
ByLayer
370
18
48
1
60
0
100
AcDbEllipse
10
-1.056258
20
0
30
0
11
11.7092723497287
21
-24.6771864409394
31
0
210
0
220
0
230
1
40
0.341999
41
0.167213071908973
42
1.08183270048921
0
ELLIPSE
5
16C
100
AcDbEntity
8
1
62
256
6
ByLayer
370
13
48
1
60
0
100
AcDbEllipse
10
148.5
20
22.975
30
0
11
0.5
21
0
31
0
210
0
220
0
230
1
40
0.876829
41
-2.61524846552589
42
-1.5707963267949
0
POINT
5
70
100
AcDbEntity
8
2
62
256
6
ByLayer
370
18
48
1
60
0
100
AcDbPoint
10
151
20
-4.899495
30
0
39
0
210
0
220
0
230
1
50
360
0
POINT
5
72
100
AcDbEntity
8
2
62
256
6
ByLayer
370
18
48
1
60
0
100
AcDbPoint
10
147.37476
20
5
30
0
39
0
210
0
220
0
230
1
50
360
0
POINT
5
73
100
AcDbEntity
8
2
62
256
6
ByLayer
370
18
48
1
60
0
100
AcDbPoint
10
155
20
14.899495
30
0
39
0
210
0
220
0
230
1
50
360
0
POINT
5
74
100
AcDbEntity
8
2
62
256
6
ByLayer
370
18
48
1
60
0
100
AcDbPoint
10
80
20
0
30
0
39
0
210
0
220
0
230
1
50
360
0
POINT
5
75
100
AcDbEntity
8
2
62
256
6
ByLayer
370
18
48
1
60
0
100
AcDbPoint
10
151
20
-4.899495
30
0
39
0
210
0
220
0
230
1
50
360
0
POINT
5
76
100
AcDbEntity
8
2
62
256
6
ByLayer
370
18
48
1
60
0
100
AcDbPoint
10
137
20
0
30
0
39
0
210
0
220
0
230
1
50
360
0
POINT
5
77
100
AcDbEntity
8
2
62
256
6
ByLayer
370
18
48
1
60
0
100
AcDbPoint
10
151
20
14.899495
30
0
39
0
210
0
220
0
230
1
50
360
0
POINT
5
78
100
AcDbEntity
8
2
62
256
6
ByLayer
370
18
48
1
60
0
100
AcDbPoint
10
115
20
0
30
0
39
0
210
0
220
0
230
1
50
360
0
POINT
5
79
100
AcDbEntity
8
2
62
256
6
ByLayer
370
18
48
1
60
0
100
AcDbPoint
10
155
20
14.899495
30
0
39
0
210
0
220
0
230
1
50
360
0
POINT
5
7A
100
AcDbEntity
8
2
62
256
6
ByLayer
370
18
48
1
60
0
100
AcDbPoint
10
130
20
0
30
0
39
0
210
0
220
0
230
1
50
360
0
POINT
5
7B
100
AcDbEntity
8
2
62
256
6
ByLayer
370
18
48
1
60
0
100
AcDbPoint
10
137
20
0
30
0
39
0
210
0
220
0
230
1
50
360
0
POINT
5
7C
100
AcDbEntity
8
2
62
256
6
ByLayer
370
18
48
1
60
0
100
AcDbPoint
10
64.5
20
0
30
0
39
0
210
0
220
0
230
1
50
360
0
POINT
5
7D
100
AcDbEntity
8
2
62
256
6
ByLayer
370
18
48
1
60
0
100
AcDbPoint
10
56.1
20
-14
30
0
39
0
210
0
220
0
230
1
50
360
0
POINT
5
7E
100
AcDbEntity
8
2
62
256
6
ByLayer
370
18
48
1
60
0
100
AcDbPoint
10
60.55
20
0
30
0
39
0
210
0
220
0
230
1
50
360
0
POINT
5
7F
100
AcDbEntity
8
2
62
256
6
ByLayer
370
18
48
1
60
0
100
AcDbPoint
10
60.3
20
0
30
0
39
0
210
0
220
0
230
1
50
360
0
POINT
5
80
100
AcDbEntity
8
2
62
256
6
ByLayer
370
18
48
1
60
0
100
AcDbPoint
10
56.1
20
0
30
0
39
0
210
0
220
0
230
1
50
360
0
POINT
5
81
100
AcDbEntity
8
2
62
256
6
ByLayer
370
18
48
1
60
0
100
AcDbPoint
10
65
20
0
30
0
39
0
210
0
220
0
230
1
50
360
0
POINT
5
82
100
AcDbEntity
8
2
62
256
6
ByLayer
370
18
48
1
60
0
100
AcDbPoint
10
125.125
20
0
30
0
39
0
210
0
220
0
230
1
50
360
0
POINT
5
83
100
AcDbEntity
8
2
62
256
6
ByLayer
370
18
48
1
60
0
100
AcDbPoint
10
65
20
0
30
0
39
0
210
0
220
0
230
1
50
360
0
POINT
5
84
100
AcDbEntity
8
2
62
256
6
ByLayer
370
18
48
1
60
0
100
AcDbPoint
10
69.875
20
0
30
0
39
0
210
0
220
0
230
1
50
360
0
POINT
5
85
100
AcDbEntity
8
2
62
256
6
ByLayer
370
18
48
1
60
0
100
AcDbPoint
10
130
20
0
30
0
39
0
210
0
220
0
230
1
50
360
0
POINT
5
86
100
AcDbEntity
8
2
62
256
6
ByLayer
370
18
48
1
60
0
100
AcDbPoint
10
115
20
0
30
0
39
0
210
0
220
0
230
1
50
360
0
POINT
5
87
100
AcDbEntity
8
2
62
256
6
ByLayer
370
18
48
1
60
0
100
AcDbPoint
10
80
20
0
30
0
39
0
210
0
220
0
230
1
50
360
0
POINT
5
88
100
AcDbEntity
8
2
62
256
6
ByLayer
370
50
48
1
60
0
100
AcDbPoint
10
155
20
0
30
0
39
0
210
0
220
0
230
1
50
360
0
POINT
5
89
100
AcDbEntity
8
2
62
256
6
ByLayer
370
18
48
1
60
0
100
AcDbPoint
10
150
20
5
30
0
39
0
210
0
220
0
230
1
50
360
0
POINT
5
8A
100
AcDbEntity
8
2
62
256
6
ByLayer
370
18
48
1
60
0
100
AcDbPoint
10
146
20
0
30
0
39
0
210
0
220
0
230
1
50
360
0
POINT
5
8B
100
AcDbEntity
8
2
62
256
6
ByLayer
370
18
48
1
60
0
100
AcDbPoint
10
130
20
0
30
0
39
0
210
0
220
0
230
1
50
360
0
POINT
5
8C
100
AcDbEntity
8
2
62
256
6
ByLayer
370
18
48
1
60
0
100
AcDbPoint
10
137
20
0
30
0
39
0
210
0
220
0
230
1
50
360
0
POINT
5
8D
100
AcDbEntity
8
2
62
256
6
ByLayer
370
18
48
1
60
0
100
AcDbPoint
10
146
20
0
30
0
39
0
210
0
220
0
230
1
50
360
0
POINT
5
8E
100
AcDbEntity
8
2
62
256
6
ByLayer
370
18
48
1
60
0
100
AcDbPoint
10
122
20
0
30
0
39
0
210
0
220
0
230
1
50
360
0
POINT
5
8F
100
AcDbEntity
8
2
62
256
6
ByLayer
370
18
48
1
60
0
100
AcDbPoint
10
147.37476
20
5
30
0
39
0
210
0
220
0
230
1
50
360
0
POINT
5
90
100
AcDbEntity
8
2
62
256
6
ByLayer
370
18
48
1
60
0
100
AcDbPoint
10
150
20
5
30
0
39
0
210
0
220
0
230
1
50
360
0
POINT
5
91
100
AcDbEntity
8
2
62
256
6
ByLayer
370
50
48
1
60
0
100
AcDbPoint
10
130.5
20
0
30
0
39
0
210
0
220
0
230
1
50
360
0
POINT
5
92
100
AcDbEntity
8
80
62
256
6
ByLayer
370
18
48
1
60
0
100
AcDbPoint
10
0
20
0
30
0
39
0
210
0
220
0
230
1
50
360
0
POINT
5
94
100
AcDbEntity
8
81
62
256
6
ByLayer
370
18
48
1
60
0
100
AcDbPoint
10
150
20
5
30
0
39
0
210
0
220
0
230
1
50
360
0
POINT
5
96
100
AcDbEntity
8
1
62
256
6
ByLayer
370
13
48
1
60
1
100
AcDbPoint
10
142.05
20
-4.899495
30
0
39
0
210
0
220
0
230
1
50
360
0
POINT
5
98
100
AcDbEntity
8
1
62
256
6
ByLayer
370
13
48
1
60
1
100
AcDbPoint
10
161.9
20
-4.899495
30
0
39
0
210
0
220
0
230
1
50
360
0
POINT
5
99
100
AcDbEntity
8
1
62
256
6
ByLayer
370
13
48
1
60
1
100
AcDbPoint
10
149.52
20
0
30
0
39
0
210
0
220
0
230
1
50
360
0
POINT
5
9A
100
AcDbEntity
8
1
62
256
6
ByLayer
370
13
48
1
60
1
100
AcDbPoint
10
144.7
20
0
30
0
39
0
210
0
220
0
230
1
50
360
0
POINT
5
9B
100
AcDbEntity
8
1
62
256
6
ByLayer
370
13
48
1
60
1
100
AcDbPoint
10
146.330172
20
5
30
0
39
0
210
0
220
0
230
1
50
360
0
POINT
5
9C
100
AcDbEntity
8
1
62
256
6
ByLayer
370
13
48
1
60
1
100
AcDbPoint
10
151.82476
20
5
30
0
39
0
210
0
220
0
230
1
50
360
0
POINT
5
9D
100
AcDbEntity
8
1
62
256
6
ByLayer
370
13
48
1
60
1
100
AcDbPoint
10
142.05
20
14.899495
30
0
39
0
210
0
220
0
230
1
50
360
0
POINT
5
9E
100
AcDbEntity
8
1
62
256
6
ByLayer
370
13
48
1
60
1
100
AcDbPoint
10
161.9
20
14.899495
30
0
39
0
210
0
220
0
230
1
50
360
0
SPLINE
5
16D
100
AcDbEntity
8
SK1
62
256
6
ByLayer
370
18
48
1
60
0
100
AcDbSpline
70
4
71
3
72
45
73
41
40
0
40
0
40
0
40
0
40
0.0236943083361153
40
0.0517123120395635
40
0.0797303157430117
40
0.10774831944646
40
0.163784326853356
40
0.219820334260253
40
0.247838337963701
40
0.275856341667149
40
0.303874345370597
40
0.331892349074046
40
0.359910352777494
40
0.387928356480942
40
0.41594636018439
40
0.429955362036114
40
0.443964363887838
40
0.471982367591287
40
0.485991369443011
40
0.492995870368873
40
0.500000371294735
40
0.507004872220597
40
0.514009373146459
40
0.528018374998183
40
0.556036378701631
40
0.570045380553355
40
0.584054382405079
40
0.612072386108528
40
0.640090389811976
40
0.668108393515424
40
0.696126397218872
40
0.724144400922321
40
0.752162404625769
40
0.780180408329217
40
0.836216415736113
40
0.89225242314301
40
0.920270426846458
40
0.948288430549906
40
0.976306434253354
40
1
40
1
40
1
40
1
41
1
10
-30.0000000000001
20
-15.9931892289931
30
0
41
1
10
-30.0000000000001
20
-15.9976541758466
30
0
41
1
10
-30.0000000000001
20
-15.9670776540713
30
0
41
1
10
-30.0000000000001
20
-15.7965331178348
30
0
41
1
10
-30.0000000000001
20
-15.4890632796304
30
0
41
1
10
-30.0000000000001
20
-14.9202435431777
30
0
41
1
10
-30
20
-13.943032723557
30
0
41
1
10
-30
20
-12.645067835693
30
0
41
1
10
-30
20
-11.4213703621899
30
0
41
1
10
-30
20
-10.4224345134303
30
0
41
1
10
-30
20
-9.34179268341299
30
0
41
1
10
-30
20
-8.18272261240918
30
0
41
1
10
-30
20
-6.94914665451265
30
0
41
1
10
-30
20
-5.64597210397014
30
0
41
1
10
-30
20
-4.51272453462835
30
0
41
1
10
-30
20
-3.56968201835687
30
0
41
1
10
-30
20
-2.61530592334955
30
0
41
1
10
-30
20
-1.67591474804144
30
0
41
1
10
-30
20
-0.833341855678839
30
0
41
1
10
-30
20
-0.354131622770325
30
0
41
1
10
-30
20
4.002278899E-07
30
0
41
1
10
-30
20
0.354131996183867
30
0
41
1
10
-30
20
0.833341540478585
30
0
41
1
10
-30
20
1.67591488034611
30
0
41
1
10
-30
20
2.61530613672127
30
0
41
1
10
-30
20
3.56968220154863
30
0
41
1
10
-30
20
4.51272494557495
30
0
41
1
10
-30
20
5.64597176408029
30
0
41
1
10
-30
20
6.9491470426357
30
0
41
1
10
-30
20
8.18272269843553
30
0
41
1
10
-30
20
9.34179238961883
30
0
41
1
10
-30
20
10.4224348167647
30
0
41
1
10
-29.9999999999999
20
11.421370391299
30
0
41
1
10
-29.9999999999999
20
12.6450674903884
30
0
41
1
10
-29.9999999999999
20
13.9430330734597
30
0
41
1
10
-29.9999999999999
20
14.9202427964399
30
0
41
1
10
-29.9999999999999
20
15.4890634139889
30
0
41
1
10
-29.9999999999999
20
15.7965327535814
30
0
41
1
10
-29.9999999999999
20
15.967075506875
30
0
41
1
10
-29.9999999999999
20
15.9976531609743
30
0
41
1
10
-29.9999999999999
20
15.9931895377232
30
0
0
SPLINE
5
16E
100
AcDbEntity
8
SK1
62
256
6
ByLayer
370
18
48
1
60
0
100
AcDbSpline
70
4
71
3
72
38
73
34
40
0
40
0
40
0
40
0
40
0.250000000000004
40
0.250000000000004
40
0.375000000000005
40
0.375000000000005
40
0.500000000000006
40
0.500000000000006
40
0.625000000000007
40
0.625000000000007
40
0.687500000000007
40
0.687500000000007
40
0.750000000000006
40
0.750000000000006
40
0.812500000000005
40
0.812500000000005
40
0.843750000000004
40
0.843750000000004
40
0.875000000000004
40
0.875000000000004
40
0.906250000000003
40
0.906250000000003
40
0.921875000000003
40
0.921875000000003
40
0.937500000000002
40
0.937500000000002
40
0.953125000000002
40
0.953125000000002
40
0.968750000000001
40
0.968750000000001
40
0.984375000000001
40
0.984375000000001
40
1
40
1
40
1
40
1
41
1
10
-0.200000000000017
20
-6.07843116862819
30
0
41
1
10
-0.200329859654744
20
-6.01357702681216
30
0
41
1
10
-0.201930655445096
20
-5.94848814748264
30
0
41
1
10
-0.207062820514722
20
-5.85044931358669
30
0
41
1
10
-0.209234214279519
20
-5.81770188154849
30
0
41
1
10
-0.214779228537793
20
-5.75205694597241
30
0
41
1
10
-0.218149341071324
20
-5.71913713924843
30
0
41
1
10
-0.226581907125762
20
-5.65322539657006
30
0
41
1
10
-0.231616433421493
20
-5.62029294902339
30
0
41
1
10
-0.241184891539916
20
-5.57099638970121
30
0
41
1
10
-0.244723140953226
20
-5.55455058376137
30
0
41
1
10
-0.252718404682326
20
-5.5218878599284
30
0
41
1
10
-0.25716439474391
20
-5.50568135296541
30
0
41
1
10
-0.267422418729012
20
-5.47365965349934
30
0
41
1
10
-0.273206407019188
20
-5.45783596374693
30
0
41
1
10
-0.283724888362002
20
-5.43464123738531
30
0
41
1
10
-0.287542348293442
20
-5.4270010731546
30
0
41
1
10
-0.296164698039036
20
-5.41201401791545
30
0
41
1
10
-0.30100375171898
20
-5.40461199814789
30
0
41
1
10
-0.31201932633951
20
-5.39094692539055
30
0
41
1
10
-0.318249907555952
20
-5.38460165612528
30
0
41
1
10
-0.328982330604248
20
-5.37709874944122
30
0
41
1
10
-0.332865959292405
20
-5.37490714744834
30
0
41
1
10
-0.340905624745233
20
-5.37162929612282
30
0
41
1
10
-0.345153788553688
20
-5.37051023807433
30
0
41
1
10
-0.353672033871135
20
-5.36955188220819
30
0
41
1
10
-0.35790438709958
20
-5.36969675293611
30
0
41
1
10
-0.366271728735939
20
-5.37110702101791
30
0
41
1
10
-0.370241250613844
20
-5.3723360299343
30
0
41
1
10
-0.377868038063724
20
-5.37555831609174
30
0
41
1
10
-0.381539373885118
20
-5.37756780385979
30
0
41
1
10
-0.388473887026294
20
-5.38206549938212
30
0
41
1
10
-0.39176092894752
20
-5.38456196831947
30
0
41
1
10
-0.39491379981132
20
-5.38724256160012
30
0
0
SPLINE
5
16F
100
AcDbEntity
8
SK1
62
256
6
ByLayer
370
18
48
1
60
0
100
AcDbSpline
70
4
71
3
72
38
73
34
40
0
40
0
40
0
40
0
40
0.0156250000000001
40
0.0156250000000001
40
0.0312500000000002
40
0.0312500000000002
40
0.0468750000000004
40
0.0468750000000004
40
0.0625000000000005
40
0.0625000000000005
40
0.0781250000000006
40
0.0781250000000006
40
0.0937500000000007
40
0.0937500000000007
40
0.125000000000002
40
0.125000000000002
40
0.156250000000003
40
0.156250000000003
40
0.187500000000004
40
0.187500000000004
40
0.250000000000004
40
0.250000000000004
40
0.312500000000003
40
0.312500000000003
40
0.375000000000003
40
0.375000000000003
40
0.500000000000001
40
0.500000000000001
40
0.625
40
0.625
40
0.749999999999999
40
0.749999999999999
40
1
40
1
40
1
40
1
41
1
10
-0.394913799809075
20
5.38724490303883
30
0
41
1
10
-0.39178183295067
20
5.38458208568073
30
0
41
1
10
-0.388519962703782
20
5.3821033059937
30
0
41
1
10
-0.381650196472492
20
5.37763658736259
30
0
41
1
10
-0.378006935713046
20
5.37563233451903
30
0
41
1
10
-0.370423579197137
20
5.3724029821978
30
0
41
1
10
-0.366503702076415
20
5.37117873901857
30
0
41
1
10
-0.35833118303006
20
5.36974313779842
30
0
41
1
10
-0.354015865513162
20
5.36955368909105
30
0
41
1
10
-0.345568573158744
20
5.37043109064084
30
0
41
1
10
-0.341321667102989
20
5.37150405183561
30
0
41
1
10
-0.3332638902219
20
5.37470929745373
30
0
41
1
10
-0.329419339218219
20
5.37683593115614
30
0
41
1
10
-0.318577749103326
20
5.38430052549953
30
0
41
1
10
-0.312400979321524
20
5.39054104494755
30
0
41
1
10
-0.301354650858087
20
5.40411801099191
30
0
41
1
10
-0.296591327986135
20
5.41134235290917
30
0
41
1
10
-0.287922394076162
20
5.42628126698935
30
0
41
1
10
-0.284017391060758
20
5.43403466061349
30
0
41
1
10
-0.273296210573335
20
5.45757128507682
30
0
41
1
10
-0.267463037667483
20
5.47353830586408
30
0
41
1
10
-0.257144178245795
20
5.50574351678898
30
0
41
1
10
-0.252692130238899
20
5.52198910291162
30
0
41
1
10
-0.244699800125915
20
5.55465646091204
30
0
41
1
10
-0.241167183894646
20
5.57107991706795
30
0
41
1
10
-0.231573562776447
20
5.62053570750788
30
0
41
1
10
-0.22653373528064
20
5.65356559342146
30
0
41
1
10
-0.218124597314017
20
5.71937115218233
30
0
41
1
10
-0.214765406462931
20
5.75220767186642
30
0
41
1
10
-0.209230735864452
20
5.81775962891638
30
0
41
1
10
-0.207061534202296
20
5.85047499196594
30
0
41
1
10
-0.201932717755369
20
5.94845143863458
30
0
41
1
10
-0.200330038101555
20
6.01354333629638
30
0
41
1
10
-0.199999999999989
20
6.07843244581235
30
0
0
SPLINE
5
170
100
AcDbEntity
8
SK1
62
256
6
ByLayer
370
13
48
1
60
0
100
AcDbSpline
70
4
71
3
72
20
73
16
40
0
40
0
40
0
40
0
40
0.0453685402469004
40
0.113618264798822
40
0.181867989350744
40
0.250117713902665
40
0.318367438454587
40
0.386617163006509
40
0.45486688755843
40
0.591366336662274
40
0.727865785766117
40
0.796115510318039
40
0.86436523486996
40
0.932614959421882
40
1
40
1
40
1
40
1
41
1
10
-0.39491379981132
20
-5.38724256160785
30
0
41
1
10
-0.39491379981132
20
-5.7190547501427
30
0
41
1
10
-0.39491379981132
20
-6.5348354946259
30
0
41
1
10
-0.39491379981132
20
-7.7796880789966
30
0
41
1
10
-0.39491379981132
20
-9.09679923539034
30
0
41
1
10
-0.39491379981132
20
-10.3283869583107
30
0
41
1
10
-0.39491379981132
20
-11.4729576347282
30
0
41
1
10
-0.394913799811349
20
-12.5286533763275
30
0
41
1
10
-0.394913799811349
20
-13.8156305223415
30
0
41
1
10
-0.394913799811349
20
-15.1889742433629
30
0
41
1
10
-0.394913799811349
20
-16.224825355641
30
0
41
1
10
-0.394913799811349
20
-16.8259463034278
30
0
41
1
10
-0.394913799811349
20
-17.1536380024563
30
0
41
1
10
-0.394913799811349
20
-17.3456596442024
30
0
41
1
10
-0.394913799811349
20
-17.3741382160075
30
0
41
1
10
-0.394913799811349
20
-17.360218892803
30
0
0
SPLINE
5
171
100
AcDbEntity
8
SK1
62
256
6
ByLayer
370
18
48
1
60
0
100
AcDbSpline
70
4
71
3
72
50
73
46
40
0
40
0
40
0
40
0
40
0.0312500000000003
40
0.0312500000000003
40
0.0468750000000004
40
0.0468750000000004
40
0.0625000000000005
40
0.0625000000000005
40
0.0781250000000006
40
0.0781250000000006
40
0.0937500000000008
40
0.0937500000000008
40
0.109375000000001
40
0.109375000000001
40
0.125000000000001
40
0.125000000000001
40
0.140625000000001
40
0.140625000000001
40
0.156250000000001
40
0.156250000000001
40
0.187500000000001
40
0.187500000000001
40
0.218750000000002
40
0.218750000000002
40
0.250000000000002
40
0.250000000000002
40
0.281250000000002
40
0.281250000000002
40
0.312500000000002
40
0.312500000000002
40
0.375000000000002
40
0.375000000000002
40
0.437500000000003
40
0.437500000000003
40
0.500000000000003
40
0.500000000000003
40
0.625000000000003
40
0.625000000000003
40
0.687500000000003
40
0.687500000000003
40
0.750000000000003
40
0.750000000000003
40
0.875000000000001
40
0.875000000000001
40
1
40
1
40
1
40
1
41
1
10
-0.39491379981132
20
-5.38724256160785
30
0
41
1
10
-0.411056331481717
20
-5.40096705709072
30
0
41
1
10
-0.428167571421113
20
-5.41359596702645
30
0
41
1
10
-0.455974774655175
20
-5.43013648208
30
0
41
1
10
-0.465658214706991
20
-5.43526409556435
30
0
41
1
10
-0.485484698823512
20
-5.44430592701531
30
0
41
1
10
-0.495657428995116
20
-5.44824432393753
30
0
41
1
10
-0.516608715435069
20
-5.45476351226009
30
0
41
1
10
-0.527386860231843
20
-5.45734523281897
30
0
41
1
10
-0.549664818445308
20
-5.46089328829356
30
0
41
1
10
-0.560930035443789
20
-5.46180969649637
30
0
41
1
10
-0.583365846617909
20
-5.46187131057607
30
0
41
1
10
-0.594591467840047
20
-5.46102572365922
30
0
41
1
10
-0.617058166617767
20
-5.45757599588921
30
0
41
1
10
-0.627999143283233
20
-5.45501931647436
30
0
41
1
10
-0.649331735085582
20
-5.44848807488123
30
0
41
1
10
-0.659758151599846
20
-5.44449947952498
30
0
41
1
10
-0.68003652504504
20
-5.43533205618729
30
0
41
1
10
-0.689742098894556
20
-5.43022628481569
30
0
41
1
10
-0.717826906306101
20
-5.41366379171245
30
0
41
1
10
-0.735187935399352
20
-5.40097830060952
30
0
41
1
10
-0.768034946557947
20
-5.3733304614868
30
0
41
1
10
-0.783237057424174
20
-5.35859529837754
30
0
41
1
10
-0.811836627358701
20
-5.32802442998909
30
0
41
1
10
-0.825257514876
20
-5.31215335693128
30
0
41
1
10
-0.850807302550209
20
-5.27953884086708
30
0
41
1
10
-0.8629322094869
20
-5.26279281423709
30
0
41
1
10
-0.8861698860768
20
-5.22860723544372
30
0
41
1
10
-0.897260448987026
20
-5.21119248410568
30
0
41
1
10
-0.929029640850729
20
-5.15857889561173
30
0
41
1
10
-0.948347177186236
20
-5.12284414993093
30
0
41
1
10
-0.98448753502646
20
-5.05043807526349
30
0
41
1
10
-1.00129416978024
20
-5.01376164954297
30
0
41
1
10
-1.03304457478237
20
-4.93966608077306
30
0
41
1
10
-1.04798244371668
20
-4.90224508459647
30
0
41
1
10
-1.09059413059558
20
-4.78904752584498
30
0
41
1
10
-1.11609621830425
20
-4.71234577760796
30
0
41
1
10
-1.15135515985605
20
-4.5958383808707
30
0
41
1
10
-1.16260343866756
20
-4.55673847320068
30
0
41
1
10
-1.18417456263646
20
-4.47826299864514
30
0
41
1
10
-1.19450305218302
20
-4.43886894670428
30
0
41
1
10
-1.22429462395718
20
-4.32024366329262
30
0
41
1
10
-1.24257202444838
20
-4.24057073726354
30
0
41
1
10
-1.27661859809461
20
-4.08013408760158
30
0
41
1
10
-1.2923837260752
20
-3.99936988902869
30
0
41
1
10
-1.30710678118658
20
-3.91808269248793
30
0
0
SPLINE
5
172
100
AcDbEntity
8
SK1
62
256
6
ByLayer
370
18
48
1
60
0
100
AcDbSpline
70
4
71
3
72
53
73
49
40
0
40
0
40
0
40
0
40
0.125000000000001
40
0.125000000000001
40
0.250000000000002
40
0.250000000000002
40
0.312500000000001
40
0.312500000000001
40
0.375
40
0.375
40
0.499999999999998
40
0.499999999999998
40
0.562499999999997
40
0.562499999999997
40
0.624999999999997
40
0.624999999999997
40
0.687499999999996
40
0.687499999999996
40
0.718749999999996
40
0.718749999999996
40
0.749999999999996
40
0.749999999999996
40
0.781249999999996
40
0.781249999999996
40
0.812499999999996
40
0.812499999999996
40
0.843749999999996
40
0.843749999999996
40
0.859374999999996
40
0.859374999999996
40
0.874999999999996
40
0.874999999999996
40
0.890624999999996
40
0.890624999999996
40
0.898437499999996
40
0.898437499999996
40
0.906249999999996
40
0.906249999999996
40
0.921874999999996
40
0.929687499999996
40
0.929687499999996
40
0.937499999999996
40
0.937499999999996
40
0.968749999999998
40
0.968749999999998
40
0.984374999999999
40
0.984374999999999
40
1
40
1
40
1
40
1
41
1
10
-1.30710678118652
20
3.91808311129773
30
0
41
1
10
-1.29239108240532
20
3.99932964943409
30
0
41
1
10
-1.27663490881503
20
4.0800505842036
30
0
41
1
10
-1.24261095077242
20
4.24039497937332
30
0
41
1
10
-1.22434718173432
20
4.32001891689728
30
0
41
1
10
-1.19458151328422
20
4.4385658061575
30
0
41
1
10
-1.18426257821702
20
4.47793290560358
30
0
41
1
10
-1.16271294340754
20
4.55635268985438
30
0
41
1
10
-1.15147501748677
20
4.59543056617446
30
0
41
1
10
-1.11622081339448
20
4.71196262616613
30
0
41
1
10
-1.0907278395606
20
4.7886606233923
30
0
41
1
10
-1.0481521641187
20
4.90181336669087
30
0
41
1
10
-1.0332301135569
20
4.93921284702586
30
0
41
1
10
-1.00152410230015
20
5.01324987497119
30
0
41
1
10
-0.984745886096846
20
5.04988928444084
30
0
41
1
10
-0.948685190430837
20
5.12220258194975
30
0
41
1
10
-0.929418355061472
20
5.15788155457784
30
0
41
1
10
-0.897760317588336
20
5.21039425330497
30
0
41
1
10
-0.88674297083648
20
5.22772922691763
30
0
41
1
10
-0.863513824307887
20
5.26197522516898
30
0
41
1
10
-0.851357742368521
20
5.27880041053604
30
0
41
1
10
-0.82582843684736
20
5.3114635713869
30
0
41
1
10
-0.812437519911697
20
5.32733553299161
30
0
41
1
10
-0.783971777383783
20
5.35785904442625
30
0
41
1
10
-0.768905931142314
20
5.37251692611173
30
0
41
1
10
-0.736341322354406
20
5.40008757388534
30
0
41
1
10
-0.718704728837821
20
5.41307616107991
30
0
41
1
10
-0.690494000998399
20
5.42981903443436
30
0
41
1
10
-0.680770506185951
20
5.43496537787163
30
0
41
1
10
-0.660532703009153
20
5.44418605279546
30
0
41
1
10
-0.650045797816887
20
5.44823342219192
30
0
41
1
10
-0.628779113835947
20
5.45481846069112
30
0
41
1
10
-0.61793228547711
20
5.45738916347963
30
0
41
1
10
-0.601299914959668
20
5.46002170773141
30
0
41
1
10
-0.595695338836947
20
5.46069496960087
30
0
41
1
10
-0.584356912700059
20
5.46160478770398
30
0
41
1
10
-0.578637021974146
20
5.46183701163631
30
0
41
1
10
-0.561675487241843
20
5.46185622962997
30
0
41
1
10
-0.544917445528682
20
5.460540346752
30
0
41
1
10
-0.52844521027032
20
5.45734844847985
30
0
41
1
10
-0.517525389033267
20
5.45481548249097
30
0
41
1
10
-0.512078734988108
20
5.4533397528954
30
0
41
1
10
-0.485450985324832
20
5.44513209892818
30
0
41
1
10
-0.465729936503891
20
5.43590631685376
30
0
41
1
10
-0.437770416117473
20
5.41932732155468
30
0
41
1
10
-0.428743917867394
20
5.41334179407005
30
0
41
1
10
-0.411386251483435
20
5.40075705360886
30
0
41
1
10
-0.403020392726972
20
5.39413717786459
30
0
41
1
10
-0.394913799811263
20
5.38724490303878
30
0
0
SPLINE
5
173
100
AcDbEntity
8
SK1
62
256
6
ByLayer
370
13
48
1
60
0
100
AcDbSpline
70
4
71
3
72
20
73
16
40
0
40
0
40
0
40
0
40
0.0673842633067088
40
0.135634051950317
40
0.203883840593926
40
0.272133629237535
40
0.408633206524752
40
0.54513278381197
40
0.613382572455579
40
0.681632361099187
40
0.749882149742796
40
0.818131938386405
40
0.886381727030014
40
0.954631515673622
40
1
40
1
40
1
40
1
41
1
10
-0.394913799811235
20
17.3602193111543
30
0
41
1
10
-0.394913799811178
20
17.3741378070054
30
0
41
1
10
-0.394913799811235
20
17.3456582493737
30
0
41
1
10
-0.394913799811235
20
17.1536376810083
30
0
41
1
10
-0.394913799811235
20
16.8259464323311
30
0
41
1
10
-0.394913799811235
20
16.2248245878661
30
0
41
1
10
-0.394913799811235
20
15.1889746622834
30
0
41
1
10
-0.394913799811235
20
13.8156301488903
30
0
41
1
10
-0.394913799811235
20
12.5286535254346
30
0
41
1
10
-0.394913799811235
20
11.4729578043957
30
0
41
1
10
-0.394913799811263
20
10.3283867090429
30
0
41
1
10
-0.394913799811263
20
9.09679950047928
30
0
41
1
10
-0.394913799811263
20
7.77968825069564
30
0
41
1
10
-0.394913799811263
20
6.53483606378791
30
0
41
1
10
-0.394913799811263
20
5.71905630139054
30
0
41
1
10
-0.394913799811263
20
5.38724490303881
30
0
0
SPLINE
5
174
100
AcDbEntity
8
SK1
62
256
6
ByLayer
370
18
48
1
60
0
100
AcDbSpline
70
4
71
3
72
38
73
34
40
0
40
0
40
0
40
0
40
0.0624999999999996
40
0.0624999999999996
40
0.124999999999999
40
0.124999999999999
40
0.249999999999999
40
0.249999999999999
40
0.374999999999998
40
0.374999999999998
40
0.390624999999998
40
0.390624999999998
40
0.406249999999998
40
0.406249999999998
40
0.437499999999998
40
0.437499999999998
40
0.499999999999998
40
0.499999999999998
40
0.562499999999998
40
0.562499999999998
40
0.624999999999998
40
0.624999999999998
40
0.749999999999998
40
0.749999999999998
40
0.781249999999998
40
0.781249999999998
40
0.812499999999998
40
0.812499999999998
40
0.874999999999999
40
0.874999999999999
40
0.937499999999999
40
0.937499999999999
40
1
40
1
40
1
40
1
41
1
10
-1.30710678118655
20
-3.91808269248793
30
0
41
1
10
-1.33526487251859
20
-3.76261955749283
30
0
41
1
10
-1.36267126502634
20
-3.60631098585768
30
0
41
1
10
-1.41562242099803
20
-3.29187611045597
30
0
41
1
10
-1.44117770353179
20
-3.13375373985022
30
0
41
1
10
-1.51435013598103
20
-2.65639932915298
30
0
41
1
10
-1.55846884179033
20
-2.33418302861884
30
0
41
1
10
-1.63296978491243
20
-1.68004719877027
30
0
41
1
10
-1.66337509736468
20
-1.34813830750841
30
0
41
1
10
-1.68707319146452
20
-0.968091690681831
30
0
41
1
10
-1.68955923537888
20
-0.925771372654225
30
0
41
1
10
-1.69422507481974
20
-0.840939584978486
30
0
41
1
10
-1.69640659794263
20
-0.798386309984636
30
0
41
1
10
-1.70245250680873
20
-0.670897601193644
30
0
41
1
10
-1.70582437938029
20
-0.58605256890192
30
0
41
1
10
-1.71388361409092
20
-0.331968562038014
30
0
41
1
10
-1.71646782396985
20
-0.163187101305937
30
0
41
1
10
-1.71636335941631
20
0.17321334833187
30
0
41
1
10
-1.71367008139578
20
0.340831662555331
30
0
41
1
10
-1.70293626023371
20
0.674902568806118
30
0
41
1
10
-1.69494665814693
20
0.84136228930052
30
0
41
1
10
-1.66399327242201
20
1.33914312869115
30
0
41
1
10
-1.63408221528161
20
1.66887252592323
30
0
41
1
10
-1.5876007265538
20
2.07872253566575
30
0
41
1
10
-1.57784909269048
20
2.16057674059007
30
0
41
1
10
-1.5574977199426
20
2.32406172494171
30
0
41
1
10
-1.54688933197929
20
2.40575612114199
30
0
41
1
10
-1.51394731043965
20
2.65007047288915
30
0
41
1
10
-1.49055743488208
20
2.81150726182858
30
0
41
1
10
-1.44149329508792
20
3.13180385741538
30
0
41
1
10
-1.41582315096537
20
3.29066553946589
30
0
41
1
10
-1.36271475580057
20
3.60607338167009
30
0
41
1
10
-1.33526589565591
20
3.76261441071907
30
0
41
1
10
-1.30710678118655
20
3.91808311129771
30
0
0
SPLINE
5
175
100
AcDbEntity
8
SK1
62
256
6
ByLayer
370
13
48
1
60
0
100
AcDbSpline
70
4
71
3
72
45
73
41
40
0
40
0
40
0
40
0
40
0.0139247373279773
40
0.0425174010478997
40
0.071110064767822
40
0.0997027284877444
40
0.156888055927589
40
0.214073383367434
40
0.242666047087356
40
0.271258710807278
40
0.299851374527201
40
0.328444038247123
40
0.357036701967045
40
0.385629365686968
40
0.41422202940689
40
0.428518361266851
40
0.442814693126812
40
0.471407356846735
40
0.485703688706696
40
0.492851854636677
40
0.500000020566657
40
0.507148186496638
40
0.514296352426618
40
0.528592684286579
40
0.557185348006502
40
0.571481679866463
40
0.585778011726424
40
0.614370675446346
40
0.642963339166269
40
0.671556002886191
40
0.700148666606114
40
0.728741330326036
40
0.757333994045958
40
0.785926657765881
40
0.843111985205725
40
0.90029731264557
40
0.928889976365492
40
0.957482640085415
40
0.986075303805337
40
1
40
1
40
1
40
1
41
1
10
-1.99503997793923
20
17.3200454236169
30
0
41
1
10
-1.99503997793923
20
17.3133442645895
30
0
41
1
10
-1.99503997793923
20
17.2734193798807
30
0
41
1
10
-1.99503997793923
20
17.1138751154124
30
0
41
1
10
-1.99503997793923
20
16.7867763596001
30
0
41
1
10
-1.99503997793923
20
16.1866009265939
30
0
41
1
10
-1.99503997793923
20
15.1524691326423
30
0
41
1
10
-1.99503997793926
20
13.7813331880937
30
0
41
1
10
-1.99503997793926
20
12.4962106263157
30
0
41
1
10
-1.99503997793926
20
11.4421779521075
30
0
41
1
10
-1.99503997793926
20
10.2994799380558
30
0
41
1
10
-1.99503997793926
20
9.07001746022104
30
0
41
1
10
-1.99503997793926
20
7.75535376586828
30
0
41
1
10
-1.99503997793928
20
6.35676341745574
30
0
41
1
10
-1.99503997793928
20
5.12318926412428
30
0
41
1
10
-1.99503997793928
20
4.09531236648536
30
0
41
1
10
-1.99503997793928
20
3.04236295320669
30
0
41
1
10
-1.99503997793928
20
1.95640625727882
30
0
41
1
10
-1.99503997793928
20
0.981337226851394
30
0
41
1
10
-1.99503997793928
20
0.420771319084707
30
0
41
1
10
-1.99503997793928
20
6.88173714E-08
30
0
41
1
10
-1.99503997793928
20
-0.420771221994329
30
0
41
1
10
-1.99503997793931
20
-0.981337209960486
30
0
41
1
10
-1.99503997793931
20
-1.95640624898675
30
0
41
1
10
-1.99503997793931
20
-3.04236280324244
30
0
41
1
10
-1.99503997793931
20
-4.0953123914187
30
0
41
1
10
-1.99503997793931
20
-5.12318891405303
30
0
41
1
10
-1.99503997793931
20
-6.35676356337376
30
0
41
1
10
-1.99503997793931
20
-7.7553535878281
30
0
41
1
10
-1.99503997793934
20
-9.07001720037854
30
0
41
1
10
-1.99503997793934
20
-10.2994801886281
30
0
41
1
10
-1.99503997793934
20
-11.4421777785236
30
0
41
1
10
-1.99503997793934
20
-12.4962104807245
30
0
41
1
10
-1.99503997793934
20
-13.7813335607202
30
0
41
1
10
-1.99503997793934
20
-15.152468715744
30
0
41
1
10
-1.99503997793937
20
-16.1866016937524
30
0
41
1
10
-1.99503997793937
20
-16.786776230537
30
0
41
1
10
-1.99503997793937
20
-17.1138754381145
30
0
41
1
10
-1.99503997793937
20
-17.2734198429559
30
0
41
1
10
-1.99503997793937
20
-17.3133444721616
30
0
41
1
10
-1.99503997793937
20
-17.3200455762988
30
0
0
SPLINE
5
176
100
AcDbEntity
8
SK1
62
256
6
ByLayer
370
18
48
1
60
0
100
AcDbSpline
70
4
71
3
72
45
73
41
40
0
40
0
40
0
40
0
40
0.0138970646472476
40
0.0424913609589005
40
0.0710856572705533
40
0.0996799535822061
40
0.156868546205512
40
0.214057138828817
40
0.24265143514047
40
0.271245731452123
40
0.299840027763776
40
0.328434324075429
40
0.357028620387082
40
0.385622916698734
40
0.414217213010387
40
0.428514361166214
40
0.44281150932204
40
0.471405805633693
40
0.485702953789519
40
0.492851527867433
40
0.500000101945346
40
0.507148676023259
40
0.514297250101172
40
0.528594398256999
40
0.557188694568651
40
0.571485842724478
40
0.585782990880304
40
0.614377287191957
40
0.64297158350361
40
0.671565879815263
40
0.700160176126915
40
0.728754472438568
40
0.757348768750221
40
0.785943065061874
40
0.84313165768518
40
0.900320250308485
40
0.928914546620138
40
0.957508842931791
40
0.986103139243444
40
1
40
1
40
1
40
1
41
1
10
-2.19999999999993
20
17.5147945426828
30
0
41
1
10
-2.19999999999993
20
17.5080193393127
30
0
41
1
10
-2.19999999999993
20
17.4676802392673
30
0
41
1
10
-2.19999999999993
20
17.3066644250431
30
0
41
1
10
-2.19999999999993
20
16.9766929599708
30
0
41
1
10
-2.19999999999993
20
16.3719288388599
30
0
41
1
10
-2.19999999999993
20
15.3294666616433
30
0
41
1
10
-2.19999999999996
20
13.9476224427057
30
0
41
1
10
-2.19999999999996
20
12.6535104390874
30
0
41
1
10
-2.19999999999996
20
11.5914144609754
30
0
41
1
10
-2.19999999999996
20
10.4396347881955
30
0
41
1
10
-2.19999999999996
20
9.19987052615136
30
0
41
1
10
-2.19999999999996
20
7.87333982787851
30
0
41
1
10
-2.19999999999999
20
6.46078575524433
30
0
41
1
10
-2.19999999999999
20
5.21252898167785
30
0
41
1
10
-2.19999999999999
20
4.17223684682958
30
0
41
1
10
-2.19999999999999
20
3.10486150423554
30
0
41
1
10
-2.19999999999999
20
1.99745537289451
30
0
41
1
10
-2.19999999999999
20
1.00299597482069
30
0
41
1
10
-2.19999999999999
20
0.430523794544854
30
0
41
1
10
-2.19999999999999
20
2.03164063E-08
30
0
41
1
10
-2.19999999999999
20
-0.430523737893537
30
0
41
1
10
-2.20000000000002
20
-1.00299590932914
30
0
41
1
10
-2.20000000000002
20
-1.9974553827513
30
0
41
1
10
-2.20000000000002
20
-3.10486136355075
30
0
41
1
10
-2.20000000000002
20
-4.17223690222139
30
0
41
1
10
-2.20000000000002
20
-5.21252864051553
30
0
41
1
10
-2.20000000000002
20
-6.46078587277509
30
0
41
1
10
-2.20000000000002
20
-7.87333968058334
30
0
41
1
10
-2.20000000000005
20
-9.19987024087132
30
0
41
1
10
-2.20000000000005
20
-10.4396350324424
30
0
41
1
10
-2.20000000000005
20
-11.5914143063801
30
0
41
1
10
-2.20000000000005
20
-12.6535102764493
30
0
41
1
10
-2.20000000000005
20
-13.9476228193307
30
0
41
1
10
-2.20000000000005
20
-15.3294662349403
30
0
41
1
10
-2.20000000000007
20
-16.3719296090069
30
0
41
1
10
-2.20000000000007
20
-16.9766928316826
30
0
41
1
10
-2.20000000000007
20
-17.3066647416643
30
0
41
1
10
-2.20000000000007
20
-17.4676803357883
30
0
41
1
10
-2.20000000000007
20
-17.5080192380751
30
0
41
1
10
-2.20000000000007
20
-17.5147944569122
30
0
0
SPLINE
5
177
100
AcDbEntity
8
SK1
62
256
6
ByLayer
370
18
48
1
60
0
100
AcDbSpline
70
4
71
3
72
45
73
41
40
0
40
0
40
0
40
0
40
0.0275256181183042
40
0.0553182314481557
40
0.0831108447780072
40
0.110903458107859
40
0.166488684767562
40
0.222073911427264
40
0.249866524757116
40
0.277659138086968
40
0.305451751416819
40
0.33324436474667
40
0.361036978076522
40
0.388829591406373
40
0.416622204736225
40
0.430518511401151
40
0.444414818066076
40
0.472207431395928
40
0.486103738060854
40
0.493051891393317
40
0.500000044725779
40
0.506948198058242
40
0.513896351390705
40
0.527792658055631
40
0.555585271385482
40
0.569481578050408
40
0.583377884715334
40
0.611170498045185
40
0.638963111375037
40
0.666755724704888
40
0.694548338034739
40
0.722340951364591
40
0.750133564694442
40
0.777926178024294
40
0.833511404683997
40
0.8890966313437
40
0.916889244673551
40
0.944681858003403
40
0.972474471333254
40
1
40
1
40
1
40
1
41
1
10
-28.4999999999999
20
16.8545102407629
30
0
41
1
10
-28.4999999999999
20
16.868114143127
30
0
41
1
10
-28.4999999999999
20
16.8405420083894
30
0
41
1
10
-28.4999999999999
20
16.6531187925378
30
0
41
1
10
-28.4999999999999
20
16.3328856609548
30
0
41
1
10
-28.4999999999999
20
15.743676951477
30
0
41
1
10
-28.4999999999999
20
14.7294543359373
30
0
41
1
10
-28.4999999999999
20
13.383910604677
30
0
41
1
10
-28.5
20
12.1202723366857
30
0
41
1
10
-28.5
20
11.0855105352456
30
0
41
1
10
-28.5
20
9.96451720849836
30
0
41
1
10
-28.5
20
8.75967545377569
30
0
41
1
10
-28.5
20
7.47337327542309
30
0
41
1
10
-28.5
20
6.10815549439164
30
0
41
1
10
-28.5
20
4.90967203214981
30
0
41
1
10
-28.5
20
3.91146689927399
30
0
41
1
10
-28.5
20
2.89299469927096
30
0
41
1
10
-28.5
20
1.85830102725052
30
0
41
1
10
-28.5
20
0.92957395693
30
0
41
1
10
-28.5
20
0.397463415028625
30
0
41
1
10
-28.5
20
1.847322437E-07
30
0
41
1
10
-28.5
20
-0.397463221290792
30
0
41
1
10
-28.5
20
-0.929574056191825
30
0
41
1
10
-28.5
20
-1.8583009755834
30
0
41
1
10
-28.5
20
-2.89299452712905
30
0
41
1
10
-28.5
20
-3.91146685141297
30
0
41
1
10
-28.5
20
-4.90967166078656
30
0
41
1
10
-28.5
20
-6.10815570815353
30
0
41
1
10
-28.5
20
-7.47337302390375
30
0
41
1
10
-28.5
20
-8.75967525472734
30
0
41
1
10
-28.5
20
-9.96451747418791
30
0
41
1
10
-28.5
20
-11.0855103162797
30
0
41
1
10
-28.5
20
-12.1202722318354
30
0
41
1
10
-28.5000000000001
20
-13.3839109677472
30
0
41
1
10
-28.5000000000001
20
-14.7294539424714
30
0
41
1
10
-28.5000000000001
20
-15.743677711493
30
0
41
1
10
-28.5000000000001
20
-16.3328855300395
30
0
41
1
10
-28.5000000000001
20
-16.6531191297729
30
0
41
1
10
-28.5000000000001
20
-16.8405423973086
30
0
41
1
10
-28.5000000000001
20
-16.8681141130073
30
0
41
1
10
-28.5000000000001
20
-16.8545104804168
30
0
0
SPLINE
5
178
100
AcDbEntity
8
1
62
256
6
ByLayer
370
18
48
1
60
0
100
AcDbSpline
70
4
71
3
72
26
73
22
40
0
40
0
40
0
40
0
40
0.0624999999999983
40
0.0624999999999983
40
0.0937499999999936
40
0.0937499999999936
40
0.124999999999989
40
0.124999999999989
40
0.249999999999987
40
0.249999999999987
40
0.374999999999985
40
0.374999999999985
40
0.437499999999983
40
0.437499999999983
40
0.499999999999981
40
0.499999999999981
40
0.624999999999981
40
0.624999999999981
40
0.749999999999984
40
0.749999999999984
40
1
40
1
40
1
40
1
41
1
10
11.4613248654053
20
23.8391299750502
30
0
41
1
10
11.47720131202
20
23.8391299750502
30
0
41
1
10
11.4927843117433
20
23.8386381480422
30
0
41
1
10
11.5157579869924
20
23.8372273769847
30
0
41
1
10
11.5233488813097
20
23.8366445991221
30
0
41
1
10
11.5384012334118
20
23.8352611656444
30
0
41
1
10
11.5458956692736
20
23.8344558067494
30
0
41
1
10
11.5824040005111
20
23.8299833264008
30
0
41
1
10
11.6089650834004
20
23.8249896713849
30
0
41
1
10
11.6582924559949
20
23.8130059693789
30
0
41
1
10
11.6801688454703
20
23.8062336877525
30
0
41
1
10
11.7102266942347
20
23.7952700628808
30
0
41
1
10
11.7197736129841
20
23.7914778883489
30
0
41
1
10
11.7380555263964
20
23.7836514357394
30
0
41
1
10
11.7468017366173
20
23.7796095569562
30
0
41
1
10
11.7716769242358
20
23.7673085978343
30
0
41
1
10
11.7865761040499
20
23.7588292909636
30
0
41
1
10
11.8138519277099
20
23.7414211400326
30
0
41
1
10
11.8262196262292
20
23.7324910902463
30
0
41
1
10
11.8602443227468
20
23.7051129235881
30
0
41
1
10
11.8788862370738
20
23.686033116806
30
0
41
1
10
11.8943375672976
20
23.6665017920808
30
0
0
SPLINE
5
179
100
AcDbEntity
8
1
62
256
6
ByLayer
370
18
48
1
60
0
100
AcDbSpline
70
4
71
3
72
30
73
26
40
0
40
0
40
0
40
0
40
0.25
40
0.25
40
0.374999999999996
40
0.374999999999996
40
0.437499999999993
40
0.437499999999993
40
0.49999999999999
40
0.49999999999999
40
0.624999999999989
40
0.624999999999989
40
0.687499999999989
40
0.687499999999989
40
0.749999999999989
40
0.749999999999989
40
0.812499999999988
40
0.812499999999988
40
0.843749999999991
40
0.843749999999991
40
0.874999999999994
40
0.874999999999994
40
0.937499999999997
40
0.937499999999997
40
1
40
1
40
1
40
1
41
1
10
11.8943375672974
20
8.05584836782788
30
0
41
1
10
11.878892303015
20
7.99849169434924
30
0
41
1
10
11.8604037172645
20
7.94218253951269
30
0
41
1
10
11.8264575712212
20
7.85991012495433
30
0
41
1
10
11.8140962699691
20
7.83285506058508
30
0
41
1
10
11.7935837333005
20
7.79297622996168
30
0
41
1
10
11.7864159259844
20
7.77980127287395
30
0
41
1
10
11.7713191828915
20
7.75372482186643
30
0
41
1
10
11.7633824368151
20
7.74081492713992
30
0
41
1
10
11.7384769785308
20
7.70292805784942
30
0
41
1
10
11.7203772593317
20
7.67866353751197
30
0
41
1
10
11.6901125047558
20
7.64434849039856
30
0
41
1
10
11.6794995583259
20
7.63327217102545
30
0
41
1
10
11.6573691354905
20
7.61232137865164
30
0
41
1
10
11.6458165560481
20
7.60240297286811
30
0
41
1
10
11.6215461384039
20
7.5839002553621
30
0
41
1
10
11.6088302857938
20
7.57531366225032
30
0
41
1
10
11.5886665813883
20
7.56368345606452
30
0
41
1
10
11.5817366894218
20
7.56000567013075
30
0
41
1
10
11.5676991017995
20
7.55323657194799
30
0
41
1
10
11.5605721090664
20
7.55013193108823
30
0
41
1
10
11.5388449404601
20
7.54171396614043
30
0
41
1
10
11.5239007732522
20
7.53729092133949
30
0
41
1
10
11.4929356027573
20
7.53123335639162
30
0
41
1
10
11.477175816822
20
7.52966679426493
30
0
41
1
10
11.4613248654053
20
7.52966679426493
30
0
0
SPLINE
5
17A
100
AcDbEntity
8
1
62
256
6
ByLayer
370
18
48
1
60
0
100
AcDbSpline
70
4
71
3
72
26
73
22
40
0
40
0
40
0
40
0
40
0.0624999999999987
40
0.0624999999999987
40
0.0937500000000011
40
0.0937500000000011
40
0.125000000000003
40
0.125000000000003
40
0.250000000000002
40
0.250000000000002
40
0.375
40
0.375
40
0.437500000000001
40
0.437500000000001
40
0.500000000000003
40
0.500000000000003
40
0.625000000000003
40
0.625000000000003
40
0.750000000000003
40
0.750000000000003
40
1
40
1
40
1
40
1
41
1
10
8.53867513459491
20
7.52966679426507
30
0
41
1
10
8.52279868798018
20
7.52966679426507
30
0
41
1
10
8.50721568825685
20
7.5312244015295
30
0
41
1
10
8.48424201300782
20
7.53568798536656
30
0
41
1
10
8.47665111869046
20
7.53753139400635
30
0
41
1
10
8.46159876658842
20
7.54190496002258
30
0
41
1
10
8.45410433072655
20
7.54444995843571
30
0
41
1
10
8.41759599948901
20
7.55857361750108
30
0
41
1
10
8.39103491659978
20
7.57431556968115
30
0
41
1
10
8.34170754400523
20
7.61190750686268
30
0
41
1
10
8.31983115452977
20
7.63307325241206
30
0
41
1
10
8.28977330576541
20
7.6671549516565
30
0
41
1
10
8.28022638701603
20
7.67891539799626
30
0
41
1
10
8.26194447360368
20
7.70312184666881
30
0
41
1
10
8.25319826338284
20
7.71559105034072
30
0
41
1
10
8.22832307576431
20
7.75343444963906
30
0
41
1
10
8.21342389595023
20
7.77938351245612
30
0
41
1
10
8.18614807229017
20
7.83234954293007
30
0
41
1
10
8.17378037377094
20
7.85937042586588
30
0
41
1
10
8.13975567725333
20
7.94172327888194
30
0
41
1
10
8.12111376292629
20
7.99846916820712
30
0
41
1
10
8.10566243270253
20
8.05584836782776
30
0
0
SPLINE
5
17B
100
AcDbEntity
8
1
62
256
6
ByLayer
370
18
48
1
60
0
100
AcDbSpline
70
4
71
3
72
30
73
26
40
0
40
0
40
0
40
0
40
0.249999999999997
40
0.249999999999997
40
0.374999999999996
40
0.374999999999996
40
0.437499999999997
40
0.437499999999997
40
0.499999999999998
40
0.499999999999998
40
0.624999999999997
40
0.624999999999997
40
0.687499999999997
40
0.687499999999997
40
0.749999999999998
40
0.749999999999998
40
0.812499999999998
40
0.812499999999998
40
0.843749999999999
40
0.843749999999999
40
0.874999999999999
40
0.874999999999999
40
0.9375
40
0.9375
40
1
40
1
40
1
40
1
41
1
10
8.10566243270273
20
23.6665017920808
30
0
41
1
10
8.12110769698515
20
23.6860254491251
30
0
41
1
10
8.13959628273557
20
23.704958919593
30
0
41
1
10
8.17354242877883
20
23.7323123198156
30
0
41
1
10
8.18590373003101
20
23.7412544902041
30
0
41
1
10
8.20641626669962
20
23.7543620682906
30
0
41
1
10
8.2135840740157
20
23.7586801045418
30
0
41
1
10
8.2286808171086
20
23.7672030231185
30
0
41
1
10
8.23661756318501
20
23.7714105724815
30
0
41
1
10
8.26152302146926
20
23.7837256270429
30
0
41
1
10
8.27962274066849
20
23.7915679133937
30
0
41
1
10
8.30988749524434
20
23.8026065911346
30
0
41
1
10
8.32050044167426
20
23.8061604830514
30
0
41
1
10
8.3426308645096
20
23.812868038308
30
0
41
1
10
8.354183443952
20
23.816035844018
30
0
41
1
10
8.37845386159628
20
23.8219342456095
30
0
41
1
10
8.39116971420637
20
23.8246655611124
30
0
41
1
10
8.41133341861183
20
23.8283593459882
30
0
41
1
10
8.4182633105784
20
23.8295263669799
30
0
41
1
10
8.43230089820068
20
23.8316728303992
30
0
41
1
10
8.43942789093379
20
23.8326565134122
30
0
41
1
10
8.46115505954009
20
23.8353222152631
30
0
41
1
10
8.476099226748
20
23.8367207404254
30
0
41
1
10
8.50706439724283
20
23.838635326325
30
0
41
1
10
8.52282418317813
20
23.8391299750504
30
0
41
1
10
8.53867513459491
20
23.8391299750504
30
0
0
SPLINE
5
17C
100
AcDbEntity
8
1
62
256
6
ByLayer
370
18
48
1
60
0
100
AcDbSpline
70
4
71
3
72
26
73
22
40
0
40
0
40
0
40
0
40
0.0624999999999911
40
0.0624999999999911
40
0.0937499999999893
40
0.0937499999999893
40
0.124999999999987
40
0.124999999999987
40
0.24999999999999
40
0.24999999999999
40
0.374999999999992
40
0.374999999999992
40
0.437499999999994
40
0.437499999999994
40
0.499999999999996
40
0.499999999999996
40
0.625000000000001
40
0.625000000000001
40
0.750000000000002
40
0.750000000000002
40
1
40
1
40
1
40
1
41
1
10
8.53867513459477
20
-23.8391299750503
30
0
41
1
10
8.52279868798007
20
-23.8391299750503
30
0
41
1
10
8.50721568825671
20
-23.8386381480423
30
0
41
1
10
8.48424201300767
20
-23.8372273769849
30
0
41
1
10
8.47665111869031
20
-23.8366445991222
30
0
41
1
10
8.46159876658828
20
-23.8352611656445
30
0
41
1
10
8.45410433072641
20
-23.8344558067495
30
0
41
1
10
8.4175959994889
20
-23.8299833264009
30
0
41
1
10
8.39103491659964
20
-23.824989671385
30
0
41
1
10
8.34170754400509
20
-23.813005969379
30
0
41
1
10
8.31983115452965
20
-23.8062336877526
30
0
41
1
10
8.28977330576529
20
-23.7952700628809
30
0
41
1
10
8.28022638701589
20
-23.791477888349
30
0
41
1
10
8.26194447360353
20
-23.7836514357396
30
0
41
1
10
8.25319826338273
20
-23.7796095569563
30
0
41
1
10
8.22832307576419
20
-23.7673085978344
30
0
41
1
10
8.21342389595011
20
-23.7588292909637
30
0
41
1
10
8.18614807229005
20
-23.7414211400327
30
0
41
1
10
8.17378037377082
20
-23.7324910902464
30
0
41
1
10
8.13975567725322
20
-23.7051129235882
30
0
41
1
10
8.12111376292614
20
-23.6860331168061
30
0
41
1
10
8.10566243270239
20
-23.6665017920809
30
0
0
SPLINE
5
17D
100
AcDbEntity
8
1
62
256
6
ByLayer
370
18
48
1
60
0
100
AcDbSpline
70
4
71
3
72
30
73
26
40
0
40
0
40
0
40
0
40
0.249999999999989
40
0.249999999999989
40
0.374999999999984
40
0.374999999999984
40
0.437499999999981
40
0.437499999999981
40
0.499999999999979
40
0.499999999999979
40
0.624999999999979
40
0.624999999999979
40
0.687499999999979
40
0.687499999999979
40
0.749999999999978
40
0.749999999999978
40
0.812499999999977
40
0.812499999999977
40
0.843749999999979
40
0.843749999999979
40
0.874999999999981
40
0.874999999999981
40
0.93749999999999
40
0.93749999999999
40
1
40
1
40
1
40
1
41
1
10
8.10566243270262
20
-8.05584836782785
30
0
41
1
10
8.12110769698504
20
-7.99849169434921
30
0
41
1
10
8.13959628273545
20
-7.94218253951266
30
0
41
1
10
8.17354242877875
20
-7.8599101249543
30
0
41
1
10
8.1859037300309
20
-7.83285506058502
30
0
41
1
10
8.20641626669951
20
-7.79297622996162
30
0
41
1
10
8.21358407401559
20
-7.7798012728739
30
0
41
1
10
8.22868081710848
20
-7.75372482186637
30
0
41
1
10
8.23661756318492
20
-7.74081492713987
30
0
41
1
10
8.26152302146915
20
-7.70292805784936
30
0
41
1
10
8.27962274066837
20
-7.67866353751191
30
0
41
1
10
8.30988749524423
20
-7.6443484903985
30
0
41
1
10
8.32050044167414
20
-7.6332721710254
30
0
41
1
10
8.34263086450952
20
-7.61232137865159
30
0
41
1
10
8.35418344395188
20
-7.60240297286802
30
0
41
1
10
8.37845386159614
20
-7.58390025536201
30
0
41
1
10
8.39116971420626
20
-7.57531366225027
30
0
41
1
10
8.41133341861172
20
-7.56368345606447
30
0
41
1
10
8.41826331057825
20
-7.56000567013066
30
0
41
1
10
8.43230089820057
20
-7.55323657194793
30
0
41
1
10
8.43942789093367
20
-7.55013193108815
30
0
41
1
10
8.46115505953998
20
-7.54171396614035
30
0
41
1
10
8.47609922674786
20
-7.53729092133941
30
0
41
1
10
8.50706439724269
20
-7.53123335639154
30
0
41
1
10
8.52282418317799
20
-7.52966679426484
30
0
41
1
10
8.53867513459477
20
-7.52966679426484
30
0
0
SPLINE
5
17E
100
AcDbEntity
8
1
62
256
6
ByLayer
370
18
48
1
60
0
100
AcDbSpline
70
4
71
3
72
26
73
22
40
0
40
0
40
0
40
0
40
0.0624999999999956
40
0.0624999999999956
40
0.0937499999999942
40
0.0937499999999942
40
0.124999999999993
40
0.124999999999993
40
0.249999999999994
40
0.249999999999994
40
0.374999999999995
40
0.374999999999995
40
0.437499999999996
40
0.437499999999996
40
0.499999999999998
40
0.499999999999998
40
0.625000000000001
40
0.625000000000001
40
0.750000000000001
40
0.750000000000001
40
1
40
1
40
1
40
1
41
1
10
11.4613248654051
20
-7.5296667942653
30
0
41
1
10
11.4772013120198
20
-7.5296667942653
30
0
41
1
10
11.4927843117432
20
-7.53122440152973
30
0
41
1
10
11.5157579869922
20
-7.53568798536679
30
0
41
1
10
11.5233488813096
20
-7.53753139400658
30
0
41
1
10
11.5384012334116
20
-7.54190496002278
30
0
41
1
10
11.5458956692735
20
-7.54444995843593
30
0
41
1
10
11.582404000511
20
-7.55857361750131
30
0
41
1
10
11.6089650834002
20
-7.57431556968135
30
0
41
1
10
11.6582924559948
20
-7.61190750686285
30
0
41
1
10
11.6801688454702
20
-7.63307325241223
30
0
41
1
10
11.7102266942346
20
-7.66715495165667
30
0
41
1
10
11.719773612984
20
-7.67891539799643
30
0
41
1
10
11.7380555263963
20
-7.70312184666895
30
0
41
1
10
11.7468017366171
20
-7.71559105034086
30
0
41
1
10
11.7716769242357
20
-7.75343444963917
30
0
41
1
10
11.7865761040497
20
-7.77938351245626
30
0
41
1
10
11.8138519277098
20
-7.83234954293019
30
0
41
1
10
11.826219626229
20
-7.85937042586599
30
0
41
1
10
11.8602443227466
20
-7.94172327888202
30
0
41
1
10
11.8788862370737
20
-7.99846916820727
30
0
41
1
10
11.8943375672974
20
-8.05584836782791
30
0
0
SPLINE
5
17F
100
AcDbEntity
8
1
62
256
6
ByLayer
370
18
48
1
60
0
100
AcDbSpline
70
4
71
3
72
30
73
26
40
0
40
0
40
0
40
0
40
0.249999999999998
40
0.249999999999998
40
0.374999999999995
40
0.374999999999995
40
0.437499999999996
40
0.437499999999996
40
0.499999999999997
40
0.499999999999997
40
0.624999999999998
40
0.624999999999998
40
0.687499999999997
40
0.687499999999997
40
0.749999999999996
40
0.749999999999996
40
0.812499999999995
40
0.812499999999995
40
0.843749999999995
40
0.843749999999995
40
0.874999999999995
40
0.874999999999995
40
0.937499999999998
40
0.937499999999998
40
1
40
1
40
1
40
1
41
1
10
11.8943375672972
20
-23.6665017920809
30
0
41
1
10
11.8788923030148
20
-23.6860254491252
30
0
41
1
10
11.8604037172644
20
-23.7049589195931
30
0
41
1
10
11.8264575712211
20
-23.7323123198157
30
0
41
1
10
11.814096269969
20
-23.7412544902042
30
0
41
1
10
11.7935837333004
20
-23.7543620682907
30
0
41
1
10
11.7864159259843
20
-23.7586801045418
30
0
41
1
10
11.7713191828914
20
-23.7672030231186
30
0
41
1
10
11.763382436815
20
-23.7714105724815
30
0
41
1
10
11.7384769785307
20
-23.7837256270429
30
0
41
1
10
11.7203772593315
20
-23.7915679133937
30
0
41
1
10
11.6901125047556
20
-23.8026065911347
30
0
41
1
10
11.6794995583257
20
-23.8061604830514
30
0
41
1
10
11.6573691354904
20
-23.8128680383081
30
0
41
1
10
11.645816556048
20
-23.8160358440181
30
0
41
1
10
11.6215461384037
20
-23.8219342456095
30
0
41
1
10
11.6088302857937
20
-23.8246655611125
30
0
41
1
10
11.5886665813882
20
-23.8283593459882
30
0
41
1
10
11.5817366894216
20
-23.8295263669799
30
0
41
1
10
11.5676991017994
20
-23.8316728303992
30
0
41
1
10
11.5605721090662
20
-23.8326565134122
30
0
41
1
10
11.5388449404599
20
-23.8353222152631
30
0
41
1
10
11.523900773252
20
-23.8367207404254
30
0
41
1
10
11.4929356027572
20
-23.838635326325
30
0
41
1
10
11.4771758168219
20
-23.8391299750505
30
0
41
1
10
11.4613248654051
20
-23.8391299750505
30
0
0
SPLINE
5
180
100
AcDbEntity
8
1
62
256
6
ByLayer
370
18
48
1
60
0
100
AcDbSpline
70
4
71
3
72
74
73
70
40
0
40
0
40
0
40
0
40
0.0075024758933664
40
0.0148992199183553
40
0.0222838275355075
40
0.0296556764651519
40
0.0370148586585026
40
0.0443614840716229
40
0.0516956615373999
40
0.0590174987848199
40
0.0663271024572217
40
0.07362457813114
40
0.0809100303340368
40
0.0881835625619986
40
0.0954452772970439
40
0.102695276024101
40
0.109933659247669
40
0.117160526508159
40
0.124375976397934
40
0.13158010657706
40
0.138773013788735
40
0.14595479387455
40
0.153125541789216
40
0.160285351615352
40
0.167434316577782
40
0.174572151227107
40
0.181696970112387
40
0.188808589599453
40
0.195907112467902
40
0.20299264037258
40
0.210065273861699
40
0.217125112394308
40
0.224172254357279
40
0.231206797082911
40
0.238228836864867
40
0.245238468974708
40
0.252235787677648
40
0.316747179426861
40
0.379892843275316
40
0.441730493081838
40
0.502156069324699
40
0.523556877992398
40
0.54468581303242
40
0.565545342093676
40
0.586137744176478
40
0.606465117787054
40
0.626529388577498
40
0.646332316515477
40
0.665875502622876
40
0.685160395319474
40
0.704179925308679
40
0.7229210939456
40
0.741385566936026
40
0.759575129005815
40
0.777491414198034
40
0.795135912582951
40
0.812509976600285
40
0.829614827063497
40
0.846451558853518
40
0.86302114632665
40
0.879324448459495
40
0.895362213751704
40
0.911135084905637
40
0.926643603300433
40
0.941878976062404
40
0.956831121297613
40
0.971501264692092
40
0.985890545639715
40
1
40
1
40
1
40
1
41
1
10
148
20
24.9999999999995
30
0
41
1
10
148.000521894441
20
24.9999752851226
30
0
41
1
10
148.001558328299
20
24.9999262036739
30
0
41
1
10
148.003108169378
20
24.9995318592574
30
0
41
1
10
148.004648351702
20
24.9989085727695
30
0
41
1
10
148.006185065585
20
24.99803308657
30
0
41
1
10
148.007718001871
20
24.9969128186659
30
0
41
1
10
148.009246905404
20
24.9955474026738
30
0
41
1
10
148.010771524938
20
24.9939385287235
30
0
41
1
10
148.012291611741
20
24.9920873194644
30
0
41
1
10
148.013806919526
20
24.9899950318021
30
0
41
1
10
148.015317204292
20
24.987662869587
30
0
41
1
10
148.016822224263
20
24.9850920339099
30
0
41
1
10
148.018321739772
20
24.9822837098893
30
0
41
1
10
148.019815513172
20
24.9792390704291
30
0
41
1
10
148.021303308735
20
24.9759592754366
30
0
41
1
10
148.022784892562
20
24.9724454722505
30
0
41
1
10
148.024260032486
20
24.9686987957417
30
0
41
1
10
148.025728497987
20
24.9647203684985
30
0
41
1
10
148.0271900601
20
24.9605113009862
30
0
41
1
10
148.028644491327
20
24.9560726917086
30
0
41
1
10
148.030091565543
20
24.9514056273697
30
0
41
1
10
148.031531057934
20
24.946511183025
30
0
41
1
10
148.032962744856
20
24.9413904222471
30
0
41
1
10
148.034386378843
20
24.9360444914247
30
0
41
1
10
148.0358015828
20
24.9304750585308
30
0
41
1
10
148.03720797058
20
24.9246839685822
30
0
41
1
10
148.038605182315
20
24.918673067489
30
0
41
1
10
148.039992991908
20
24.9124436841505
30
0
41
1
10
148.041371193284
20
24.9059970565885
30
0
41
1
10
148.042739581551
20
24.8993344100561
30
0
41
1
10
148.044097952873
20
24.8924569571486
30
0
41
1
10
148.045446104452
20
24.8853658983204
30
0
41
1
10
148.046783834343
20
24.878062420841
30
0
41
1
10
148.048110941535
20
24.8705477036174
30
0
41
1
10
148.049427225552
20
24.8628229000627
30
0
41
1
10
148.054309407255
20
24.8331478192019
30
0
41
1
10
148.062388143032
20
24.7749692644856
30
0
41
1
10
148.072810739712
20
24.6748666979229
30
0
41
1
10
148.08189607865
20
24.5595370725079
30
0
41
1
10
148.087928966358
20
24.4570633246304
30
0
41
1
10
148.091685371151
20
24.3773807210496
30
0
41
1
10
148.093806849155
20
24.3263248100881
30
0
41
1
10
148.095704729602
20
24.2739799163074
30
0
41
1
10
148.097376750635
20
24.2204191936403
30
0
41
1
10
148.098820815325
20
24.1657144520245
30
0
41
1
10
148.100035001887
20
24.1099360799831
30
0
41
1
10
148.101017546611
20
24.0531531671397
30
0
41
1
10
148.10176685806
20
23.9954335498681
30
0
41
1
10
148.10228136734
20
23.9368524127609
30
0
41
1
10
148.102559936066
20
23.8774994486167
30
0
41
1
10
148.102602362093
20
23.8174650047821
30
0
41
1
10
148.102408387516
20
23.7568309247214
30
0
41
1
10
148.1019781172
20
23.6956619164989
30
0
41
1
10
148.101311763977
20
23.6340211421303
30
0
41
1
10
148.100409693882
20
23.5719705351007
30
0
41
1
10
148.099272414568
20
23.5095708634605
30
0
41
1
10
148.097900579693
20
23.4468817772134
30
0
41
1
10
148.096294989944
20
23.3839618529144
30
0
41
1
10
148.094456596297
20
23.3208686407317
30
0
41
1
10
148.092386501994
20
23.2576586824077
30
0
41
1
10
148.090085971515
20
23.1943876195413
30
0
41
1
10
148.087556417522
20
23.131109957221
30
0
41
1
10
148.084800018477
20
23.0678926210279
30
0
41
1
10
148.081819869085
20
23.0048141694074
30
0
41
1
10
148.078622596323
20
22.9419598728624
30
0
41
1
10
148.075204314262
20
22.8793747871985
30
0
41
1
10
148.071595695201
20
22.8171854602402
30
0
41
1
10
148.068973504201
20
22.7754259003031
30
0
41
1
10
148.067675282232
20
22.7547511370663
30
0
0
SPLINE
5
181
100
AcDbEntity
8
1
62
256
6
ByLayer
370
13
48
1
60
0
100
AcDbSpline
70
4
71
1
72
4
73
2
40
0
40
0
40
1
40
1
41
1
10
147.635350564464
20
22.9943900756369
30
0
41
1
10
148.067675282232
20
22.7547511370662
30
0
0
SPLINE
5
182
100
AcDbEntity
8
1
62
256
6
ByLayer
370
18
48
1
60
0
100
AcDbSpline
70
4
71
3
72
30
73
26
40
0
40
0
40
0
40
0
40
0.0465739966147559
40
0.0465739966147559
40
0.141916596953282
40
0.141916596953282
40
0.189587897122546
40
0.189587897122546
40
0.23725919729181
40
0.23725919729181
40
0.332601797630338
40
0.332601797630338
40
0.380273097799602
40
0.380273097799602
40
0.427944397968867
40
0.427944397968867
40
0.52328699830739
40
0.52328699830739
40
0.618629598645914
40
0.618629598645914
40
0.713972198984437
40
0.713972198984437
40
0.809314799322961
40
0.809314799322961
40
1
40
1
40
1
40
1
41
1
10
149.56336936854
20
-14.7612639199747
30
0
41
1
10
149.561751101095
20
-14.7628975205529
30
0
41
1
10
149.560253815113
20
-14.7644091895891
30
0
41
1
10
149.556170769704
20
-14.7685318245782
30
0
41
1
10
149.554054662599
20
-14.770668984247
30
0
41
1
10
149.551904777518
20
-14.7728403855661
30
0
41
1
10
149.551358069514
20
-14.7733926014483
30
0
41
1
10
149.550642684802
20
-14.7741152032574
30
0
41
1
10
149.550471174801
20
-14.7742884504574
30
0
41
1
10
149.550501778366
20
-14.7742575373643
30
0
41
1
10
149.551246131199
20
-14.7735056170724
30
0
41
1
10
149.553449587003
20
-14.7712801191206
30
0
41
1
10
149.554366440456
20
-14.7703541331469
30
0
41
1
10
149.556507437831
20
-14.7681920072899
30
0
41
1
10
149.557735591993
20
-14.7669518171109
30
0
41
1
10
149.561863192774
20
-14.7627842351992
30
0
41
1
10
149.565218581561
20
-14.7593968992323
30
0
41
1
10
149.572951716671
20
-14.7515926878479
30
0
41
1
10
149.57725230246
20
-14.7472536906851
30
0
41
1
10
149.586584704884
20
-14.7378414692277
30
0
41
1
10
149.591617667416
20
-14.7327670857887
30
0
41
1
10
149.602342916788
20
-14.721958155636
30
0
41
1
10
149.607954623723
20
-14.7163048356886
30
0
41
1
10
149.625296915117
20
-14.6988417531488
30
0
41
1
10
149.637586054382
20
-14.686477084646
30
0
41
1
10
149.650480947162
20
-14.6735161477112
30
0
0
SPLINE
5
183
100
AcDbEntity
8
1
62
256
6
ByLayer
370
18
48
1
60
0
100
AcDbSpline
70
4
71
3
72
8
73
4
40
0
40
0
40
0
40
0
40
1
40
1
40
1
40
1
41
1
10
149.650480947162
20
-14.6735161477112
30
0
41
1
10
149.875830405165
20
-14.4470125107003
30
0
41
1
10
150.100607863251
20
-14.2197546698714
30
0
41
1
10
150.324759526419
20
-13.9916716944565
30
0
0
SPLINE
5
184
100
AcDbEntity
8
1
62
256
6
ByLayer
370
18
48
1
60
0
100
AcDbSpline
70
4
71
3
72
8
73
4
40
0
40
0
40
0
40
0
40
1
40
1
40
1
40
1
41
1
10
150.324759526419
20
-13.9768567932105
30
0
41
1
10
150.100458994954
20
-14.1950332762287
30
0
41
1
10
149.875685997486
20
-14.4125589107674
30
0
41
1
10
149.650480947162
20
-14.6294893682063
30
0
0
SPLINE
5
185
100
AcDbEntity
8
1
62
256
6
ByLayer
370
18
48
1
60
0
100
AcDbSpline
70
4
71
3
72
36
73
32
40
0
40
0
40
0
40
0
40
0.0625
40
0.0625
40
0.125
40
0.125
40
0.1875
40
0.1875
40
0.25
40
0.25
40
0.3125
40
0.3125
40
0.375
40
0.375
40
0.4375
40
0.4375
40
0.5
40
0.5
40
0.5625
40
0.5625
40
0.625
40
0.625
40
0.6875
40
0.6875
40
0.75
40
0.75
40
0.8125
40
0.8125
40
0.875
40
0.875
40
1
40
1
40
1
40
1
41
1
10
149.650480947162
20
-14.6294893682063
30
0
41
1
10
149.643862084188
20
-14.635865037715
30
0
41
1
10
149.63736815804
20
-14.6420854939398
30
0
41
1
10
149.624658212001
20
-14.6541795144034
30
0
41
1
10
149.618465781099
20
-14.6600302465742
30
0
41
1
10
149.606614451507
20
-14.6711317760507
30
0
41
1
10
149.600930365741
20
-14.6764066912082
30
0
41
1
10
149.590113554064
20
-14.6863246581526
30
0
41
1
10
149.584944456052
20
-14.6910000297345
30
0
41
1
10
149.575462300344
20
-14.6994157565423
30
0
41
1
10
149.571165979257
20
-14.7031426233279
30
0
41
1
10
149.563582231134
20
-14.7095025996336
30
0
41
1
10
149.560295493777
20
-14.7121314384155
30
0
41
1
10
149.555115656292
20
-14.7159495810427
30
0
41
1
10
149.55318093426
20
-14.7171751733811
30
0
41
1
10
149.550745513604
20
-14.7181286395747
30
0
41
1
10
149.550291079597
20
-14.7178363837955
30
0
41
1
10
149.550812662286
20
-14.7158184071481
30
0
41
1
10
149.551796471514
20
-14.7140793421221
30
0
41
1
10
149.555138387984
20
-14.7092388666703
30
0
41
1
10
149.557446708715
20
-14.7062051495607
30
0
41
1
10
149.563158317433
20
-14.6990846204174
30
0
41
1
10
149.566592406128
20
-14.6949623448441
30
0
41
1
10
149.57432482138
20
-14.6859171291038
30
0
41
1
10
149.578590882068
20
-14.6810299821916
30
0
41
1
10
149.587802061849
20
-14.6706380732875
30
0
41
1
10
149.592748132286
20
-14.6651324406487
30
0
41
1
10
149.60325464834
20
-14.6535639456448
30
0
41
1
10
149.608756349683
20
-14.6475660845111
30
0
41
1
10
149.625757992912
20
-14.6291819152157
30
0
41
1
10
149.63781344554
20
-14.6163381505695
30
0
41
1
10
149.650480947162
20
-14.6030003410698
30
0
0
SPLINE
5
186
100
AcDbEntity
8
1
62
256
6
ByLayer
370
18
48
1
60
0
100
AcDbSpline
70
4
71
3
72
8
73
4
40
0
40
0
40
0
40
0
40
1
40
1
40
1
40
1
41
1
10
149.650480947162
20
-14.6030003410698
30
0
41
1
10
149.876008003165
20
-14.3655393957391
30
0
41
1
10
150.100791090601
20
-14.1271433496657
30
0
41
1
10
150.324759526419
20
-13.8877233606917
30
0
0
SPLINE
5
187
100
AcDbEntity
8
1
62
256
6
ByLayer
370
18
48
1
60
0
100
AcDbSpline
70
4
71
3
72
8
73
4
40
0
40
0
40
0
40
0
40
1
40
1
40
1
40
1
41
1
10
150.324759526419
20
-13.8429985339388
30
0
41
1
10
150.10033706691
20
-14.0525298860221
30
0
41
1
10
149.875567648883
20
-14.2615638584141
30
0
41
1
10
149.650480947162
20
-14.4701429912262
30
0
0
SPLINE
5
188
100
AcDbEntity
8
1
62
256
6
ByLayer
370
18
48
1
60
0
100
AcDbSpline
70
4
71
3
72
38
73
34
40
0
40
0
40
0
40
0
40
0.0625000000000014
40
0.0625000000000014
40
0.125000000000003
40
0.125000000000003
40
0.187500000000004
40
0.187500000000004
40
0.250000000000006
40
0.250000000000006
40
0.312500000000007
40
0.312500000000007
40
0.375000000000008
40
0.375000000000008
40
0.43750000000001
40
0.43750000000001
40
0.500000000000011
40
0.500000000000011
40
0.531250000000012
40
0.531250000000012
40
0.562500000000013
40
0.562500000000013
40
0.625000000000011
40
0.625000000000011
40
0.687500000000009
40
0.687500000000009
40
0.750000000000007
40
0.750000000000007
40
0.812500000000005
40
0.812500000000005
40
0.875000000000003
40
0.875000000000003
40
1
40
1
40
1
40
1
41
1
10
149.650480947162
20
-14.4701429912262
30
0
41
1
10
149.643726881463
20
-14.4764017224418
30
0
41
1
10
149.637098160743
20
-14.4824675984267
30
0
41
1
10
149.624121587645
20
-14.4941653645863
30
0
41
1
10
149.617742143976
20
-14.4998242703929
30
0
41
1
10
149.605562970484
20
-14.5104136408793
30
0
41
1
10
149.599742695575
20
-14.5153637999645
30
0
41
1
10
149.588714807944
20
-14.524477635435
30
0
41
1
10
149.583471678807
20
-14.5286687146874
30
0
41
1
10
149.573894168183
20
-14.5359672809039
30
0
41
1
10
149.569604727196
20
-14.5390430763009
30
0
41
1
10
149.562140118258
20
-14.5439116287625
30
0
41
1
10
149.558968752714
20
-14.5456925212595
30
0
41
1
10
149.55412676766
20
-14.5476893893332
30
0
41
1
10
149.552408786091
20
-14.5479394606958
30
0
41
1
10
149.550449968655
20
-14.54686494801
30
0
41
1
10
149.550243871428
20
-14.5455532016631
30
0
41
1
10
149.550991933076
20
-14.5425459103027
30
0
41
1
10
149.551417710024
20
-14.5413688368424
30
0
41
1
10
149.552612851189
20
-14.5386745168138
30
0
41
1
10
149.553385026571
20
-14.5371539574107
30
0
41
1
10
149.556141299637
20
-14.532203174012
30
0
41
1
10
149.558572250333
20
-14.5283601137448
30
0
41
1
10
149.56445428438
20
-14.519741875423
30
0
41
1
10
149.567937837454
20
-14.5149253101641
30
0
41
1
10
149.575648799551
20
-14.5046892334919
30
0
41
1
10
149.579874304902
20
-14.4992680700748
30
0
41
1
10
149.588959245089
20
-14.4879075907867
30
0
41
1
10
149.593819464948
20
-14.4819676301916
30
0
41
1
10
149.604115964568
20
-14.469618154919
30
0
41
1
10
149.609513235996
20
-14.4632561734397
30
0
41
1
10
149.6261921918
20
-14.4438785061736
30
0
41
1
10
149.638027080278
20
-14.4304881908611
30
0
41
1
10
149.650480947162
20
-14.4166940319332
30
0
0
SPLINE
5
189
100
AcDbEntity
8
1
62
256
6
ByLayer
370
18
48
1
60
0
100
AcDbSpline
70
4
71
3
72
8
73
4
40
0
40
0
40
0
40
0
40
1
40
1
40
1
40
1
41
1
10
149.650480947162
20
-14.4166940319332
30
0
41
1
10
149.876228917632
20
-14.1666509399754
30
0
41
1
10
150.101019214675
20
-13.9154654531771
30
0
41
1
10
150.324759526419
20
-13.6630274540338
30
0
0
SPLINE
5
18A
100
AcDbEntity
8
1
62
256
6
ByLayer
370
18
48
1
60
0
100
AcDbSpline
70
4
71
3
72
8
73
4
40
0
40
0
40
0
40
0
40
1
40
1
40
1
40
1
41
1
10
150.324759526419
20
-13.5875252185443
30
0
41
1
10
150.100236859786
20
-13.7895703804297
30
0
41
1
10
149.875470342809
20
-13.9912532251735
30
0
41
1
10
149.650480947162
20
-14.1926049128581
30
0
0
SPLINE
5
18B
100
AcDbEntity
8
1
62
256
6
ByLayer
370
18
48
1
60
0
100
AcDbSpline
70
4
71
3
72
39
73
35
40
0
40
0
40
0
40
0
40
0.0624999999999979
40
0.0624999999999979
40
0.124999999999996
40
0.124999999999996
40
0.187499999999994
40
0.187499999999994
40
0.249999999999992
40
0.249999999999992
40
0.31249999999999
40
0.31249999999999
40
0.343749999999991
40
0.343749999999991
40
0.374999999999992
40
0.406249999999993
40
0.406249999999993
40
0.437499999999994
40
0.437499999999994
40
0.499999999999995
40
0.499999999999995
40
0.562499999999995
40
0.562499999999995
40
0.624999999999996
40
0.624999999999996
40
0.687499999999996
40
0.687499999999996
40
0.749999999999997
40
0.749999999999997
40
0.812499999999997
40
0.812499999999997
40
0.874999999999998
40
0.874999999999998
40
1
40
1
40
1
40
1
41
1
10
149.650480947162
20
-14.1926049128581
30
0
41
1
10
149.643561481925
20
-14.1987974091719
30
0
41
1
10
149.636760597053
20
-14.2047594560299
30
0
41
1
10
149.623428732478
20
-14.2161568732053
30
0
41
1
10
149.616868043973
20
-14.2216149223436
30
0
41
1
10
149.604372494835
20
-14.231657117438
30
0
41
1
10
149.598405523108
20
-14.2362705084996
30
0
41
1
10
149.587120780066
20
-14.2445513660956
30
0
41
1
10
149.581757911793
20
-14.2482452222615
30
0
41
1
10
149.572161291116
20
-14.2542618829976
30
0
41
1
10
149.567898801765
20
-14.2566113207275
30
0
41
1
10
149.562409953693
20
-14.2590197111097
30
0
41
1
10
149.56074024976
20
-14.2596301418327
30
0
41
1
10
149.557792033825
20
-14.2604382600572
30
0
41
1
10
149.555212844325
20
-14.2608439260319
30
0
41
1
10
149.553367705005
20
-14.2604482498088
30
0
41
1
10
149.551893890274
20
-14.2596468478126
30
0
41
1
10
149.551341802858
20
-14.259037127493
30
0
41
1
10
149.550274927363
20
-14.256643027648
30
0
41
1
10
149.550326458122
20
-14.2543028706041
30
0
41
1
10
149.551787967949
20
-14.2482959791921
30
0
41
1
10
149.553220516283
20
-14.2445964956719
30
0
41
1
10
149.557185296634
20
-14.2362910592429
30
0
41
1
10
149.559719213955
20
-14.2316610587582
30
0
41
1
10
149.565737405588
20
-14.2215788782875
30
0
41
1
10
149.569244994022
20
-14.2160956853229
30
0
41
1
10
149.576918114054
20
-14.204682954181
30
0
41
1
10
149.581098727558
20
-14.1987255135261
30
0
41
1
10
149.590054837743
20
-14.186377423614
30
0
41
1
10
149.594830979835
20
-14.1799863029419
30
0
41
1
10
149.604926584524
20
-14.1668094826119
30
0
41
1
10
149.61022432905
20
-14.1600533921712
30
0
41
1
10
149.626598565669
20
-14.1395788033853
30
0
41
1
10
149.638226288089
20
-14.1255569553045
30
0
41
1
10
149.650480947162
20
-14.111211157
30
0
0
SPLINE
5
18C
100
AcDbEntity
8
1
62
256
6
ByLayer
370
18
48
1
60
0
100
AcDbSpline
70
4
71
3
72
8
73
4
40
0
40
0
40
0
40
0
40
1
40
1
40
1
40
1
41
1
10
149.650480947162
20
-14.111211157
30
0
41
1
10
149.876507770666
20
-13.8466150387267
30
0
41
1
10
150.101307459449
20
-13.5806365366894
30
0
41
1
10
150.324759526419
20
-13.3131399205603
30
0
0
SPLINE
5
18D
100
AcDbEntity
8
1
62
256
6
ByLayer
370
18
48
1
60
0
100
AcDbSpline
70
4
71
3
72
8
73
4
40
0
40
0
40
0
40
0
40
1
40
1
40
1
40
1
41
1
10
150.324759526419
20
-13.2053177327401
30
0
41
1
10
150.100154848045
20
-13.4009956122073
30
0
41
1
10
149.875390693943
20
-13.5964289589478
30
0
41
1
10
149.650480947162
20
-13.7916390605858
30
0
0
SPLINE
5
18E
100
AcDbEntity
8
1
62
256
6
ByLayer
370
18
48
1
60
0
100
AcDbSpline
70
4
71
3
72
32
73
28
40
0
40
0
40
0
40
0
40
0.125000000000001
40
0.125000000000001
40
0.187500000000002
40
0.187500000000002
40
0.250000000000003
40
0.250000000000003
40
0.312500000000004
40
0.312500000000004
40
0.375000000000005
40
0.375000000000005
40
0.437500000000007
40
0.437500000000007
40
0.500000000000008
40
0.500000000000008
40
0.562500000000009
40
0.562500000000009
40
0.62500000000001
40
0.62500000000001
40
0.750000000000007
40
0.750000000000007
40
0.812500000000006
40
0.812500000000006
40
0.875000000000004
40
0.875000000000004
40
1
40
1
40
1
40
1
41
1
10
149.650480947162
20
-13.7916390605858
30
0
41
1
10
149.636218452344
20
-13.8040181731092
30
0
41
1
10
149.622240264368
20
-13.8154173152052
30
0
41
1
10
149.602992291188
20
-13.8296153042814
30
0
41
1
10
149.596826112669
20
-13.8338945401537
30
0
41
1
10
149.585150324815
20
-13.8413094412341
30
0
41
1
10
149.579802545074
20
-13.8443419283298
30
0
41
1
10
149.570193548697
20
-13.848905851639
30
0
41
1
10
149.565917359671
20
-13.8504253367862
30
0
41
1
10
149.558961483899
20
-13.8516753986748
30
0
41
1
10
149.556219248358
20
-13.8514436933262
30
0
41
1
10
149.552246458667
20
-13.8492156646216
30
0
41
1
10
149.551085390741
20
-13.8472516771756
30
0
41
1
10
149.550241537347
20
-13.8418614194542
30
0
41
1
10
149.550569080283
20
-13.8383829727675
30
0
41
1
10
149.552511726573
20
-13.8303344171849
30
0
41
1
10
149.554109567751
20
-13.825770818756
30
0
41
1
10
149.558360917358
20
-13.8157342041933
30
0
41
1
10
149.56103952816
20
-13.8102189029191
30
0
41
1
10
149.570274220005
20
-13.7928579231849
30
0
41
1
10
149.578003306719
20
-13.7801749967741
30
0
41
1
10
149.591401058081
20
-13.7598818429377
30
0
41
1
10
149.59613953536
20
-13.7529552766063
30
0
41
1
10
149.605993559771
20
-13.7389641660192
30
0
41
1
10
149.611125160039
20
-13.7318756087932
30
0
41
1
10
149.627074672477
20
-13.7103590621008
30
0
41
1
10
149.638441494712
20
-13.695682809053
30
0
41
1
10
149.650480947162
20
-13.6807059996449
30
0
0
SPLINE
5
18F
100
AcDbEntity
8
1
62
256
6
ByLayer
370
18
48
1
60
0
100
AcDbSpline
70
4
71
3
72
8
73
4
40
0
40
0
40
0
40
0
40
1
40
1
40
1
40
1
41
1
10
149.650480947162
20
-13.6807059996449
30
0
41
1
10
149.876866272617
20
-13.3990877212203
30
0
41
1
10
150.101678442285
20
-13.1158055554854
30
0
41
1
10
150.324759526419
20
-12.8306924641198
30
0
0
SPLINE
5
190
100
AcDbEntity
8
1
62
256
6
ByLayer
370
18
48
1
60
0
100
AcDbSpline
70
4
71
3
72
8
73
4
40
0
40
0
40
0
40
0
40
1
40
1
40
1
40
1
41
1
10
150.324759526419
20
-12.6881625317617
30
0
41
1
10
150.100089025132
20
-12.878620505903
30
0
41
1
10
149.875326782245
20
-13.0689340213261
30
0
41
1
10
149.650480947162
20
-13.2591159102954
30
0
0
SPLINE
5
191
100
AcDbEntity
8
1
62
256
6
ByLayer
370
18
48
1
60
0
100
AcDbSpline
70
4
71
3
72
41
73
37
40
0
40
0
40
0
40
0
40
0.0625000000000034
40
0.0625000000000034
40
0.125000000000007
40
0.125000000000007
40
0.156250000000006
40
0.156250000000006
40
0.187500000000006
40
0.187500000000006
40
0.250000000000005
40
0.250000000000005
40
0.281250000000004
40
0.281250000000004
40
0.312500000000004
40
0.343750000000004
40
0.343750000000004
40
0.375000000000003
40
0.375000000000003
40
0.437500000000005
40
0.437500000000005
40
0.468750000000006
40
0.468750000000006
40
0.500000000000007
40
0.500000000000007
40
0.562500000000004
40
0.562500000000004
40
0.625000000000001
40
0.625000000000001
40
0.687499999999998
40
0.687499999999998
40
0.749999999999995
40
0.749999999999995
40
0.874999999999998
40
0.874999999999998
40
1
40
1
40
1
40
1
41
1
10
149.650480947162
20
-13.2591159102954
30
0
41
1
10
149.64312067197
20
-13.2653414694162
30
0
41
1
10
149.635804695087
20
-13.2712773588528
30
0
41
1
10
149.621558337367
20
-13.2822363602353
30
0
41
1
10
149.614658110684
20
-13.2872398905802
30
0
41
1
10
149.604698216193
20
-13.2939087063819
30
0
41
1
10
149.601443651369
20
-13.29599151952
30
0
41
1
10
149.595080260981
20
-13.2998442241158
30
0
41
1
10
149.591968194618
20
-13.3016142220473
30
0
41
1
10
149.583076629913
20
-13.3062945367752
30
0
41
1
10
149.577668862641
20
-13.3086246746211
30
0
41
1
10
149.570442806861
20
-13.3107695863601
30
0
41
1
10
149.568202442333
20
-13.3112498316746
30
0
41
1
10
149.564140466581
20
-13.3117249114433
30
0
41
1
10
149.560469601454
20
-13.3117232880419
30
0
41
1
10
149.557572696077
20
-13.3107769709446
30
0
41
1
10
149.555065784551
20
-13.3093539638446
30
0
41
1
10
149.554012412702
20
-13.3084010300551
30
0
41
1
10
149.551498718449
20
-13.3049318251672
30
0
41
1
10
149.550641696581
20
-13.3017928744919
30
0
41
1
10
149.550431296051
20
-13.2959971988536
30
0
41
1
10
149.550543891767
20
-13.2938771195677
30
0
41
1
10
149.551097439142
20
-13.2893835606956
30
0
41
1
10
149.55153724686
20
-13.2870008336851
30
0
41
1
10
149.553295887259
20
-13.2794861044509
30
0
41
1
10
149.555051097323
20
-13.2739898973762
30
0
41
1
10
149.559557801758
20
-13.2621650826898
30
0
41
1
10
149.562301249488
20
-13.2558684256216
30
0
41
1
10
149.568507240897
20
-13.2428591198079
30
0
41
1
10
149.571983861287
20
-13.2361109336975
30
0
41
1
10
149.579584891849
20
-13.2221925717871
30
0
41
1
10
149.583728003621
20
-13.2149922619391
30
0
41
1
10
149.59691541842
20
-13.1930284474527
30
0
41
1
10
149.606613261902
20
-13.1780492255829
30
0
41
1
10
149.627467863824
20
-13.1475539976576
30
0
41
1
10
149.638630045339
20
-13.1320359563958
30
0
41
1
10
149.650480947162
20
-13.1162678662824
30
0
0
SPLINE
5
192
100
AcDbEntity
8
1
62
256
6
ByLayer
370
18
48
1
60
0
100
AcDbSpline
70
4
71
3
72
8
73
4
40
0
40
0
40
0
40
0
40
1
40
1
40
1
40
1
41
1
10
149.650480947162
20
-13.1162678662824
30
0
41
1
10
149.877337890168
20
-12.8144257977418
30
0
41
1
10
150.102167049584
20
-12.5105841760999
30
0
41
1
10
150.324759526419
20
-12.2045370106266
30
0
0
SPLINE
5
193
100
AcDbEntity
8
1
62
256
6
ByLayer
370
18
48
1
60
0
100
AcDbSpline
70
4
71
3
72
8
73
4
40
0
40
0
40
0
40
0
40
1
40
1
40
1
40
1
41
1
10
150.324759526419
20
-12.0237655573031
30
0
41
1
10
150.100039125586
20
-12.2102687278781
30
0
41
1
10
149.875278354979
20
-12.3967070563415
30
0
41
1
10
149.650480947162
20
-12.583086448854
30
0
0
SPLINE
5
194
100
AcDbEntity
8
1
62
256
6
ByLayer
370
18
48
1
60
0
100
AcDbSpline
70
4
71
3
72
39
73
35
40
0
40
0
40
0
40
0
40
0.062500000000009
40
0.062500000000009
40
0.125000000000018
40
0.125000000000018
40
0.187500000000027
40
0.187500000000027
40
0.218750000000026
40
0.218750000000026
40
0.250000000000026
40
0.250000000000026
40
0.312500000000034
40
0.312500000000034
40
0.343750000000038
40
0.343750000000038
40
0.375000000000043
40
0.406250000000047
40
0.406250000000047
40
0.437500000000052
40
0.437500000000052
40
0.500000000000047
40
0.500000000000047
40
0.562500000000043
40
0.562500000000043
40
0.625000000000038
40
0.625000000000038
40
0.687500000000034
40
0.687500000000034
40
0.750000000000029
40
0.750000000000029
40
0.875000000000015
40
0.875000000000015
40
1
40
1
40
1
40
1
41
1
10
149.650480947162
20
-12.583086448854
30
0
41
1
10
149.642848465984
20
-12.5894145343025
30
0
41
1
10
149.635230044314
20
-12.5953906617506
30
0
41
1
10
149.620434193986
20
-12.6061779599131
30
0
41
1
10
149.613255140464
20
-12.6109974845254
30
0
41
1
10
149.599425158374
20
-12.6192459915893
30
0
41
1
10
149.592745263725
20
-12.6226722784102
30
0
41
1
10
149.583692680945
20
-12.6262998168295
30
0
41
1
10
149.580816760607
20
-12.627269700325
30
0
41
1
10
149.575367399923
20
-12.6286973789877
30
0
41
1
10
149.572783455345
20
-12.6291527982109
30
0
41
1
10
149.565725370172
20
-12.6296830301396
30
0
41
1
10
149.561864611698
20
-12.6289563432169
30
0
41
1
10
149.557292459269
20
-12.6263023228397
30
0
41
1
10
149.555968736541
20
-12.6251453113992
30
0
41
1
10
149.553784251941
20
-12.6223872509878
30
0
41
1
10
149.552040779151
20
-12.6191809187848
30
0
41
1
10
149.551098579189
20
-12.6151589316102
30
0
41
1
10
149.550528264205
20
-12.6107578663777
30
0
41
1
10
149.550430700683
20
-12.6083568813507
30
0
41
1
10
149.550654051541
20
-12.6007652352958
30
0
41
1
10
149.551475794025
20
-12.595159749636
30
0
41
1
10
149.554198267888
20
-12.583073785448
30
0
41
1
10
149.556114381686
20
-12.5765557654388
30
0
41
1
10
149.560823333971
20
-12.5629298211247
30
0
41
1
10
149.563597798464
20
-12.5558628914163
30
0
41
1
10
149.569844713144
20
-12.5413066108048
30
0
41
1
10
149.573318283136
20
-12.5338165910071
30
0
41
1
10
149.580882685558
20
-12.518463072674
30
0
41
1
10
149.584984596991
20
-12.5105829559683
30
0
41
1
10
149.597909096523
20
-12.4868430027669
30
0
41
1
10
149.60740422431
20
-12.4707518266128
30
0
41
1
10
149.627855969026
20
-12.4381338925013
30
0
41
1
10
149.638816630046
20
-12.4216059035298
30
0
41
1
10
149.650480947162
20
-12.4048713342163
30
0
0
SPLINE
5
195
100
AcDbEntity
8
1
62
256
6
ByLayer
370
18
48
1
60
0
100
AcDbSpline
70
4
71
3
72
8
73
4
40
0
40
0
40
0
40
0
40
1
40
1
40
1
40
1
41
1
10
149.650480947162
20
-12.4048713342163
30
0
41
1
10
149.87797677687
20
-12.0784874839778
30
0
41
1
10
150.10282976625
20
-11.7496954266912
30
0
41
1
10
150.324759526419
20
-11.4182396666031
30
0
0
SPLINE
5
196
100
AcDbEntity
8
1
62
256
6
ByLayer
370
18
48
1
60
0
100
AcDbSpline
70
4
71
3
72
8
73
4
40
0
40
0
40
0
40
0
40
1
40
1
40
1
40
1
41
1
10
150.324759526419
20
-11.1940141333154
30
0
41
1
10
150.100007511727
20
-11.3780816494072
30
0
41
1
10
149.875247737629
20
-11.5621365334036
30
0
41
1
10
149.650480947162
20
-11.7461799915725
30
0
0
SPLINE
5
197
100
AcDbEntity
8
1
62
256
6
ByLayer
370
18
48
1
60
0
100
AcDbSpline
70
4
71
3
72
39
73
35
40
0
40
0
40
0
40
0
40
0.062500000000012
40
0.062500000000012
40
0.125000000000024
40
0.125000000000024
40
0.156250000000026
40
0.156250000000026
40
0.187500000000028
40
0.187500000000028
40
0.21875000000003
40
0.21875000000003
40
0.250000000000031
40
0.281250000000033
40
0.281250000000033
40
0.312500000000035
40
0.312500000000035
40
0.37500000000003
40
0.37500000000003
40
0.406250000000027
40
0.406250000000027
40
0.437500000000025
40
0.437500000000025
40
0.500000000000022
40
0.500000000000022
40
0.56250000000002
40
0.56250000000002
40
0.625000000000017
40
0.625000000000017
40
0.750000000000012
40
0.750000000000012
40
0.875000000000006
40
0.875000000000006
40
1
40
1
40
1
40
1
41
1
10
149.650480947162
20
-11.7461799915725
30
0
41
1
10
149.642517355018
20
-11.7527007370725
30
0
41
1
10
149.63453440989
20
-11.7587815916512
30
0
41
1
10
149.619042460543
20
-11.7694623151677
30
0
41
1
10
149.611511726718
20
-11.7740895951826
30
0
41
1
10
149.600621370502
20
-11.7796806806261
30
0
41
1
10
149.597061556648
20
-11.7813124621378
30
0
41
1
10
149.590290341915
20
-11.7839856794471
30
0
41
1
10
149.587053841966
20
-11.7850409190095
30
0
41
1
10
149.58089623758
20
-11.7865551188078
30
0
41
1
10
149.577954952722
20
-11.7870145467246
30
0
41
1
10
149.572512587958
20
-11.7872842763295
30
0
41
1
10
149.567547431314
20
-11.7869134556384
30
0
41
1
10
149.56348717482
20
-11.7853258627777
30
0
41
1
10
149.559865561372
20
-11.7831473720269
30
0
41
1
10
149.558264729513
20
-11.7817488018327
30
0
41
1
10
149.554196953588
20
-11.7767917693812
30
0
41
1
10
149.552440567205
20
-11.7725079257535
30
0
41
1
10
149.550959029723
20
-11.7648963564562
30
0
41
1
10
149.550660070545
20
-11.7621461067261
30
0
41
1
10
149.550422720308
20
-11.7563820754737
30
0
41
1
10
149.550481076441
20
-11.7533611718067
30
0
41
1
10
149.551119474505
20
-11.7439343578549
30
0
41
1
10
149.552159177103
20
-11.737167187477
30
0
41
1
10
149.555239798449
20
-11.7228437690716
30
0
41
1
10
149.557290439547
20
-11.7152746972409
30
0
41
1
10
149.562146245542
20
-11.6997853492493
30
0
41
1
10
149.564959968858
20
-11.6918233983911
30
0
41
1
10
149.574383518436
20
-11.6673835167666
30
0
41
1
10
149.582020418222
20
-11.6502626912246
30
0
41
1
10
149.598905986321
20
-11.6158494363724
30
0
41
1
10
149.608200334979
20
-11.5984352934845
30
0
41
1
10
149.628249215424
20
-11.5632547901686
30
0
41
1
10
149.639006636006
20
-11.5454877152693
30
0
41
1
10
149.650480947162
20
-11.5275506630098
30
0
0
SPLINE
5
198
100
AcDbEntity
8
1
62
256
6
ByLayer
370
18
48
1
60
0
100
AcDbSpline
70
4
71
3
72
8
73
4
40
0
40
0
40
0
40
0
40
1
40
1
40
1
40
1
41
1
10
149.650480947162
20
-11.5275506630098
30
0
41
1
10
149.878876276632
20
-11.170514941659
30
0
41
1
10
150.103764009202
20
-10.8105598495166
30
0
41
1
10
150.324759526419
20
-10.4473652688741
30
0
0
SPLINE
5
199
100
AcDbEntity
8
1
62
256
6
ByLayer
370
18
48
1
60
0
100
AcDbSpline
70
4
71
3
72
8
73
4
40
0
40
0
40
0
40
0
40
1
40
1
40
1
40
1
41
1
10
150.324759526419
20
-10.1718025873664
30
0
41
1
10
150.10000187134
20
-10.3554472734963
30
0
41
1
10
149.875242279349
20
-10.5390887989491
30
0
41
1
10
149.650480947162
20
-10.7227274845179
30
0
0
SPLINE
5
19A
100
AcDbEntity
8
1
62
256
6
ByLayer
370
18
48
1
60
0
100
AcDbSpline
70
4
71
3
72
38
73
34
40
0
40
0
40
0
40
0
40
0.0624999999999875
40
0.0624999999999875
40
0.0937499999999846
40
0.0937499999999846
40
0.124999999999982
40
0.124999999999982
40
0.187499999999971
40
0.187499999999971
40
0.24999999999996
40
0.24999999999996
40
0.281249999999957
40
0.281249999999957
40
0.312499999999955
40
0.312499999999955
40
0.374999999999958
40
0.374999999999958
40
0.437499999999962
40
0.437499999999962
40
0.499999999999965
40
0.499999999999965
40
0.562499999999968
40
0.562499999999968
40
0.624999999999972
40
0.624999999999972
40
0.687499999999975
40
0.687499999999975
40
0.749999999999978
40
0.749999999999978
40
0.874999999999989
40
0.874999999999989
40
1
40
1
40
1
40
1
41
1
10
149.650480947162
20
-10.7227274845179
30
0
41
1
10
149.642084189611
20
-10.7295879596033
30
0
41
1
10
149.633635577278
20
-10.7358730778351
30
0
41
1
10
149.621331349082
20
-10.7438542779436
30
0
41
1
10
149.617278610407
20
-10.7462841546208
30
0
41
1
10
149.609284196944
20
-10.7506167225573
30
0
41
1
10
149.605312533919
20
-10.7525309641131
30
0
41
1
10
149.59384949108
20
-10.7572404234744
30
0
41
1
10
149.586793021271
20
-10.7590261770077
30
0
41
1
10
149.574217814694
20
-10.7594741859473
30
0
41
1
10
149.568995280752
20
-10.7581391109125
30
0
41
1
10
149.562595860953
20
-10.7540283498174
30
0
41
1
10
149.560701051961
20
-10.7522911875503
30
0
41
1
10
149.557471003325
20
-10.7482678595022
30
0
41
1
10
149.556116901746
20
-10.7459736675132
30
0
41
1
10
149.552741344183
20
-10.7383459141713
30
0
41
1
10
149.551412871276
20
-10.732213716506
30
0
41
1
10
149.550260898918
20
-10.7189622551595
30
0
41
1
10
149.550404629694
20
-10.7117851145461
30
0
41
1
10
149.551786707426
20
-10.6965886813019
30
0
41
1
10
149.55302900844
20
-10.6885664010893
30
0
41
1
10
149.556428844899
20
-10.6718153503693
30
0
41
1
10
149.558575785074
20
-10.6631531994736
30
0
41
1
10
149.563557184201
20
-10.6455384394759
30
0
41
1
10
149.566399025425
20
-10.6365545230321
30
0
41
1
10
149.5726862554
20
-10.61828257421
30
0
41
1
10
149.576143791446
20
-10.6089656304777
30
0
41
1
10
149.58354639268
20
-10.5902008455662
30
0
41
1
10
149.587481021919
20
-10.5807754721043
30
0
41
1
10
149.599905559109
20
-10.5523851374543
30
0
41
1
10
149.609009839549
20
-10.5333070438355
30
0
41
1
10
149.628661740995
20
-10.494888004335
30
0
41
1
10
149.639211392285
20
-10.4755466757471
30
0
41
1
10
149.650480947162
20
-10.4560769820832
30
0
0
SPLINE
5
19B
100
AcDbEntity
8
1
62
256
6
ByLayer
370
18
48
1
60
0
100
AcDbSpline
70
4
71
3
72
8
73
4
40
0
40
0
40
0
40
0
40
1
40
1
40
1
40
1
41
1
10
149.650480947162
20
-10.4560769820832
30
0
41
1
10
149.880211532645
20
-10.059186051281
30
0
41
1
10
150.105152654041
20
-9.65871232422089
30
0
41
1
10
150.324759526419
20
-9.25424827025319
30
0
0
SPLINE
5
19C
100
AcDbEntity
8
1
62
256
6
ByLayer
370
18
48
1
60
0
100
AcDbSpline
70
4
71
3
72
8
73
4
40
0
40
0
40
0
40
0
40
1
40
1
40
1
40
1
41
1
10
150.324759526419
20
-8.91477968744084
30
0
41
1
10
150.10004293855
20
-9.10099187452914
30
0
41
1
10
149.87528177088
20
-9.28713229076172
30
0
41
1
10
149.650480947162
20
-9.47320886309194
30
0
0
SPLINE
5
19D
100
AcDbEntity
8
1
62
256
6
ByLayer
370
18
48
1
60
0
100
AcDbSpline
70
4
71
3
72
34
73
30
40
0
40
0
40
0
40
0
40
0.0625000000000062
40
0.0625000000000062
40
0.0937500000000083
40
0.0937500000000083
40
0.12500000000001
40
0.12500000000001
40
0.187500000000013
40
0.187500000000013
40
0.250000000000016
40
0.250000000000016
40
0.281250000000017
40
0.281250000000017
40
0.312500000000019
40
0.312500000000019
40
0.375000000000017
40
0.375000000000017
40
0.437500000000015
40
0.437500000000015
40
0.500000000000013
40
0.500000000000013
40
0.62500000000001
40
0.62500000000001
40
0.750000000000007
40
0.750000000000007
40
0.875000000000003
40
0.875000000000003
40
1
40
1
40
1
40
1
41
1
10
149.650480947162
20
-9.47320886309288
30
0
41
1
10
149.641610746045
20
-9.48055108093894
30
0
41
1
10
149.632717594853
20
-9.48709742601446
30
0
41
1
10
149.619328414583
20
-9.49520539499025
30
0
41
1
10
149.614948765932
20
-9.49756171194778
30
0
41
1
10
149.606376490095
20
-9.50149614590913
30
0
41
1
10
149.602156895126
20
-9.50308185095719
30
0
41
1
10
149.590005767027
20
-9.50643292619679
30
0
41
1
10
149.582819857639
20
-9.50675740049059
30
0
41
1
10
149.570335823892
20
-9.50344855594602
30
0
41
1
10
149.565449926247
20
-9.49992936230893
30
0
41
1
10
149.559738856258
20
-9.49254380095732
30
0
41
1
10
149.558096977763
20
-9.48970101832111
30
0
41
1
10
149.555363676397
20
-9.48351861218626
30
0
41
1
10
149.554261456695
20
-9.48017426130465
30
0
41
1
10
149.551618606382
20
-9.46950406988586
30
0
41
1
10
149.55074024509
20
-9.46148862180982
30
0
41
1
10
149.550322100162
20
-9.44464214165029
30
0
41
1
10
149.550767880495
20
-9.43576934561176
30
0
41
1
10
149.552650600945
20
-9.41733960157697
30
0
41
1
10
149.554097560382
20
-9.40774830411758
30
0
41
1
10
149.559624326733
20
-9.37836229807016
30
0
41
1
10
149.564840271178
20
-9.35804580031623
30
0
41
1
10
149.57746663017
20
-9.31641517318965
30
0
41
1
10
149.584781622077
20
-9.29544451247475
30
0
41
1
10
149.600983403359
20
-9.25325825027238
30
0
41
1
10
149.609876729726
20
-9.23204169530212
30
0
41
1
10
149.629096511696
20
-9.18938762024419
30
0
41
1
10
149.639424130324
20
-9.16794990812224
30
0
41
1
10
149.650480947162
20
-9.14640238484014
30
0
0
SPLINE
5
19E
100
AcDbEntity
8
1
62
256
6
ByLayer
370
18
48
1
60
0
100
AcDbSpline
70
4
71
3
72
8
73
4
40
0
40
0
40
0
40
0
40
1
40
1
40
1
40
1
41
1
10
149.650480947162
20
-9.14640238484014
30
0
41
1
10
149.882352997816
20
-8.69453016127929
30
0
41
1
10
150.107382666912
20
-8.23816651619762
30
0
41
1
10
150.324759526419
20
-7.77677947489173
30
0
0
SPLINE
5
19F
100
AcDbEntity
8
1
62
256
6
ByLayer
370
18
48
1
60
0
100
AcDbSpline
70
4
71
3
72
8
73
4
40
0
40
0
40
0
40
0
40
1
40
1
40
1
40
1
41
1
10
150.324759526419
20
-7.35146119898428
30
0
41
1
10
150.100191536751
20
-7.54535781735117
30
0
41
1
10
149.875423713527
20
-7.73894510745876
30
0
41
1
10
149.650480947162
20
-7.93226159791672
30
0
0
SPLINE
5
1A0
100
AcDbEntity
8
1
62
256
6
ByLayer
370
18
48
1
60
0
100
AcDbSpline
70
4
71
3
72
39
73
35
40
0
40
0
40
0
40
0
40
0.0312499999999999
40
0.0312499999999999
40
0.0624999999999998
40
0.0624999999999998
40
0.0937499999999997
40
0.0937499999999997
40
0.125
40
0.125
40
0.156249999999999
40
0.156249999999999
40
0.187499999999999
40
0.187499999999999
40
0.218749999999999
40
0.218749999999999
40
0.249999999999999
40
0.249999999999999
40
0.281249999999999
40
0.281249999999999
40
0.312499999999999
40
0.312499999999999
40
0.374999999999999
40
0.374999999999999
40
0.499999999999997
40
0.499999999999997
40
0.562499999999996
40
0.562499999999996
40
0.624999999999995
40
0.624999999999995
40
0.749999999999996
40
0.749999999999996
40
0.874999999999998
40
1
40
1
40
1
40
1
41
1
10
149.650480947162
20
-7.93226159791857
30
0
41
1
10
149.645659559596
20
-7.93640511290403
30
0
41
1
10
149.640801078904
20
-7.94027527253411
30
0
41
1
10
149.630992180374
20
-7.94733665601558
30
0
41
1
10
149.626006027204
20
-7.9505447091675
30
0
41
1
10
149.616213206618
20
-7.95591984138986
30
0
41
1
10
149.611384546088
20
-7.95810902100712
30
0
41
1
10
149.601890289183
20
-7.96128445215385
30
0
41
1
10
149.597355810905
20
-7.96222048374577
30
0
41
1
10
149.588820720175
20
-7.96271895541443
30
0
41
1
10
149.584759371
20
-7.96226588251594
30
0
41
1
10
149.577453125654
20
-7.96002560259439
30
0
41
1
10
149.574191909539
20
-7.95826207512397
30
0
41
1
10
149.568356163976
20
-7.95360470919036
30
0
41
1
10
149.565807208947
20
-7.9507159173011
30
0
41
1
10
149.561457307646
20
-7.94421632214551
30
0
41
1
10
149.559626662752
20
-7.94058162684462
30
0
41
1
10
149.556523269337
20
-7.93268665844474
30
0
41
1
10
149.555247510152
20
-7.92840352998775
30
0
41
1
10
149.55319751331
20
-7.91944341403348
30
0
41
1
10
149.552418485904
20
-7.91476360894976
30
0
41
1
10
149.550682498191
20
-7.90023434939542
30
0
41
1
10
149.550325735068
20
-7.88985561336901
30
0
41
1
10
149.550966789172
20
-7.85799228261783
30
0
41
1
10
149.553590221519
20
-7.83558668761259
30
0
41
1
10
149.559524476594
20
-7.80090260273096
30
0
41
1
10
149.561860927053
20
-7.78911380618953
30
0
41
1
10
149.567088729835
20
-7.76542058685118
30
0
41
1
10
149.569973709317
20
-7.75353553285888
30
0
41
1
10
149.579321527427
20
-7.71778098688824
30
0
41
1
10
149.58646953122
20
-7.69381309105427
30
0
41
1
10
149.602267862415
20
-7.64565947793426
30
0
41
1
10
149.619577003328
20
-7.59728693312124
30
0
41
1
10
149.639694160572
20
-7.54851064618524
30
0
41
1
10
149.650480947162
20
-7.52402032861403
30
0
0
SPLINE
5
1A1
100
AcDbEntity
8
1
62
256
6
ByLayer
370
18
48
1
60
0
100
AcDbSpline
70
4
71
3
72
8
73
4
40
0
40
0
40
0
40
0
40
1
40
1
40
1
40
1
41
1
10
149.650480947162
20
-7.52402032861403
30
0
41
1
10
149.886241901321
20
-6.98874871734276
30
0
41
1
10
150.111437539985
20
-6.44762852173517
30
0
41
1
10
150.324759526419
20
-5.89993549292893
30
0
0
SPLINE
5
1A2
100
AcDbEntity
8
1
62
256
6
ByLayer
370
18
48
1
60
0
100
AcDbSpline
70
4
71
3
72
8
73
4
40
0
40
0
40
0
40
0
40
1
40
1
40
1
40
1
41
1
10
150.324759526419
20
-5.34389161534537
30
0
41
1
10
150.100672937923
20
-5.55616259190774
30
0
41
1
10
149.875878259423
20
-5.76742938853297
30
0
41
1
10
149.650480947162
20
-5.97784155830374
30
0
0
SPLINE
5
1A3
100
AcDbEntity
8
1
62
256
6
ByLayer
370
18
48
1
60
0
100
AcDbSpline
70
4
71
3
72
39
73
35
40
0
40
0
40
0
40
0
40
0.031250000000008
40
0.031250000000008
40
0.0625000000000161
40
0.0625000000000161
40
0.0781250000000152
40
0.0781250000000152
40
0.0937500000000144
40
0.0937500000000144
40
0.125000000000012
40
0.125000000000012
40
0.156250000000009
40
0.156250000000009
40
0.187500000000006
40
0.187500000000006
40
0.218750000000004
40
0.218750000000004
40
0.250000000000001
40
0.250000000000001
40
0.281249999999998
40
0.281249999999998
40
0.312499999999995
40
0.312499999999995
40
0.374999999999993
40
0.374999999999993
40
0.499999999999994
40
0.499999999999994
40
0.624999999999996
40
0.624999999999996
40
0.749999999999997
40
0.749999999999997
40
0.874999999999998
40
1
40
1
40
1
40
1
41
1
10
149.650480947162
20
-5.9778415583055
30
0
41
1
10
149.645070573186
20
-5.98289223311693
30
0
41
1
10
149.639513106979
20
-5.98757922883789
30
0
41
1
10
149.628225225349
20
-5.9957597995143
30
0
41
1
10
149.622572736454
20
-5.99920331417249
30
0
41
1
10
149.614077225303
20
-6.00309188103901
30
0
41
1
10
149.611222335286
20
-6.00417688359585
30
0
41
1
10
149.605677702528
20
-6.00579678088056
30
0
41
1
10
149.602973531995
20
-6.0063414516267
30
0
41
1
10
149.595073068045
20
-6.00714902252253
30
0
41
1
10
149.590031566255
20
-6.00653248903402
30
0
41
1
10
149.581193349521
20
-6.00322100252166
30
0
41
1
10
149.577280359417
20
-6.00054314112535
30
0
41
1
10
149.570434037439
20
-5.99361295890768
30
0
41
1
10
149.567567506173
20
-5.98945546023609
30
0
41
1
10
149.562642849808
20
-5.98013118363411
30
0
41
1
10
149.560603852079
20
-5.97497649319175
30
0
41
1
10
149.557229405652
20
-5.96419775223436
30
0
41
1
10
149.555875895449
20
-5.95853365972911
30
0
41
1
10
149.553672457203
20
-5.94678901701633
30
0
41
1
10
149.552823959493
20
-5.94070730425889
30
0
41
1
10
149.551532822405
20
-5.92820667992836
30
0
41
1
10
149.551090778585
20
-5.92176918652763
30
0
41
1
10
149.550280304693
20
-5.90225782336228
30
0
41
1
10
149.550409275107
20
-5.88893362627451
30
0
41
1
10
149.552194406003
20
-5.84829137627176
30
0
41
1
10
149.555225580055
20
-5.82031433022141
30
0
41
1
10
149.56364088965
20
-5.76320726547365
30
0
41
1
10
149.568989094997
20
-5.73448453117314
30
0
41
1
10
149.581324248186
20
-5.67689172178686
30
0
41
1
10
149.588324868774
20
-5.64799917338189
30
0
41
1
10
149.603732419276
20
-5.59004840719513
30
0
41
1
10
149.620551977068
20
-5.53193141866817
30
0
41
1
10
149.640038964386
20
-5.47350179980762
30
0
41
1
10
149.650480947162
20
-5.4442074830628
30
0
0
SPLINE
5
1A4
100
AcDbEntity
8
1
62
256
6
ByLayer
370
18
48
1
60
0
100
AcDbSpline
70
4
71
3
72
8
73
4
40
0
40
0
40
0
40
0
40
1
40
1
40
1
40
1
41
1
10
149.650480947162
20
-5.4442074830628
30
0
41
1
10
149.895186418447
20
-4.75770188931193
30
0
41
1
10
150.120774732857
20
-4.0629544043442
30
0
41
1
10
150.324759526419
20
-3.35889309358657
30
0
0
SPLINE
5
1A5
100
AcDbEntity
8
1
62
256
6
ByLayer
370
18
48
1
60
0
100
AcDbSpline
70
4
71
3
72
8
73
4
40
0
40
0
40
0
40
0
40
1
40
1
40
1
40
1
41
1
10
150.324759526419
20
-2.54543529228161
30
0
41
1
10
150.102856207575
20
-2.80812939306711
30
0
41
1
10
149.87789393872
20
-3.06728947825354
30
0
41
1
10
149.650480947162
20
-3.32361823496777
30
0
0
SPLINE
5
1A6
100
AcDbEntity
8
1
62
256
6
ByLayer
370
18
48
1
60
0
100
AcDbSpline
70
4
71
3
72
38
73
34
40
0
40
0
40
0
40
0
40
0.0312499999999892
40
0.0312499999999892
40
0.0468749999999866
40
0.0468749999999866
40
0.0624999999999839
40
0.0624999999999839
40
0.0781249999999812
40
0.0781249999999812
40
0.0937499999999785
40
0.0937499999999785
40
0.109374999999976
40
0.109374999999976
40
0.124999999999973
40
0.124999999999973
40
0.156249999999975
40
0.156249999999975
40
0.187499999999978
40
0.187499999999978
40
0.249999999999978
40
0.249999999999978
40
0.312499999999978
40
0.312499999999978
40
0.374999999999978
40
0.374999999999978
40
0.499999999999982
40
0.499999999999982
40
0.624999999999986
40
0.624999999999986
40
0.74999999999999
40
0.74999999999999
40
1
40
1
40
1
40
1
41
1
10
149.650480947163
20
-3.32361823497107
30
0
41
1
10
149.643984522043
20
-3.33094068635253
30
0
41
1
10
149.637087099727
20
-3.33768124412265
30
0
41
1
10
149.626354747428
20
-3.34568070105715
30
0
41
1
10
149.622672786077
20
-3.34801975192022
30
0
41
1
10
149.615227174174
20
-3.35169640698172
30
0
41
1
10
149.611531397854
20
-3.35300455163238
30
0
41
1
10
149.604203715131
20
-3.35436607527035
30
0
41
1
10
149.600638398742
20
-3.35438934468002
30
0
41
1
10
149.593959541195
20
-3.3531406766528
30
0
41
1
10
149.590782123263
20
-3.35184798669348
30
0
41
1
10
149.58507026222
20
-3.34828207327047
30
0
41
1
10
149.582488099225
20
-3.34601133649454
30
0
41
1
10
149.577753050436
20
-3.34070331419818
30
0
41
1
10
149.575612489275
20
-3.33767053930774
30
0
41
1
10
149.569849274635
20
-3.32792028671307
30
0
41
1
10
149.566789889395
20
-3.3204354378224
30
0
41
1
10
149.561775920044
20
-3.30477720344931
30
0
41
1
10
149.559797491318
20
-3.29654262529169
30
0
41
1
10
149.554893629213
20
-3.27104194241039
30
0
41
1
10
149.552983754743
20
-3.25288418124524
30
0
41
1
10
149.550722421526
20
-3.21638791679683
30
0
41
1
10
149.550369579247
20
-3.19789985844909
30
0
41
1
10
149.550648562
20
-3.16061226405168
30
0
41
1
10
149.551290415845
20
-3.1418097737332
30
0
41
1
10
149.5543116466
20
-3.08504763501324
30
0
41
1
10
149.557768451239
20
-3.0467387011079
30
0
41
1
10
149.566574464434
20
-2.96947917110057
30
0
41
1
10
149.571943356467
20
-2.93052277137724
30
0
41
1
10
149.584191791777
20
-2.85208140430785
30
0
41
1
10
149.591049423945
20
-2.8127710898965
30
0
41
1
10
149.613451439318
20
-2.69485960614307
30
0
41
1
10
149.630794068013
20
-2.61615616242813
30
0
41
1
10
149.650480947162
20
-2.53736390968291
30
0
0
SPLINE
5
1A7
100
AcDbEntity
8
1
62
256
6
ByLayer
370
18
48
1
60
0
100
AcDbSpline
70
4
71
3
72
8
73
4
40
0
40
0
40
0
40
0
40
1
40
1
40
1
40
1
41
1
10
149.650480947162
20
-2.53736390968294
30
0
41
1
10
149.936650314553
20
-1.39203615339676
30
0
41
1
10
150.164101740032
20
-0.231555181888012
30
0
41
1
10
150.324759526419
20
0.946163082954115
30
0
0
SPLINE
5
1A8
100
AcDbEntity
8
1
62
256
6
ByLayer
370
18
48
1
60
0
100
AcDbSpline
70
4
71
3
72
10
73
6
40
0
40
0
40
0
40
0
40
0.5
40
0.5
40
1
40
1
40
1
40
1
41
1
10
150.324759526419
20
3.4601643756549
30
0
41
1
10
150.253343637493
20
3.08605222486153
30
0
41
1
10
150.158489259995
20
2.72177884437997
30
0
41
1
10
149.930986544702
20
2.00909684762215
30
0
41
1
10
149.79833441894
20
1.66068982142059
30
0
41
1
10
149.650480947162
20
1.31866386161846
30
0
0
SPLINE
5
1A9
100
AcDbEntity
8
1
62
256
6
ByLayer
370
18
48
1
60
0
100
AcDbSpline
70
4
71
3
72
57
73
53
40
0
40
0
40
0
40
0
40
0.124999999999997
40
0.124999999999997
40
0.249999999999993
40
0.374999999999991
40
0.374999999999991
40
0.499999999999988
40
0.499999999999988
40
0.624999999999985
40
0.624999999999985
40
0.687499999999983
40
0.687499999999983
40
0.749999999999982
40
0.749999999999982
40
0.812499999999981
40
0.812499999999981
40
0.87499999999998
40
0.87499999999998
40
0.90624999999998
40
0.90624999999998
40
0.921874999999979
40
0.921874999999979
40
0.937499999999979
40
0.937499999999979
40
0.945312499999979
40
0.945312499999979
40
0.95312499999998
40
0.95312499999998
40
0.96093749999998
40
0.96093749999998
40
0.964843749999981
40
0.964843749999981
40
0.968749999999982
40
0.968749999999982
40
0.972656249999982
40
0.972656249999982
40
0.976562499999983
40
0.976562499999983
40
0.978515624999985
40
0.978515624999985
40
0.980468749999986
40
0.980468749999986
40
0.982421874999987
40
0.982421874999987
40
0.984374999999989
40
0.984374999999989
40
0.988281249999992
40
0.988281249999992
40
0.992187499999995
40
0.992187499999995
40
1
40
1
40
1
40
1
41
1
10
149.650480947162
20
4.79447758099843
30
0
41
1
10
149.649474914009
20
4.64257282307918
30
0
41
1
10
149.647352403027
20
4.4906819335618
30
0
41
1
10
149.641079448038
20
4.18692895768677
30
0
41
1
10
149.632780577668
20
3.88320479551035
30
0
41
1
10
149.621220285853
20
3.57954243457775
30
0
41
1
10
149.608599227804
20
3.27591403785434
30
0
41
1
10
149.601754923346
20
3.12411680115915
30
0
41
1
10
149.587790157286
20
2.82056059262763
30
0
41
1
10
149.580656945611
20
2.66880154760898
30
0
41
1
10
149.570656270951
20
2.44119674680243
30
0
41
1
10
149.567443146172
20
2.36533413035289
30
0
41
1
10
149.561508805656
20
2.21362161662313
30
0
41
1
10
149.558783648494
20
2.13774767313873
30
0
41
1
10
149.554227791731
20
1.98639807764843
30
0
41
1
10
149.552384521753
20
1.91088208268494
30
0
41
1
10
149.550304819929
20
1.76030544061021
30
0
41
1
10
149.550017507499
20
1.68523525994826
30
0
41
1
10
149.552116127572
20
1.57321938097073
30
0
41
1
10
149.553241725102
20
1.53597982306536
30
0
41
1
10
149.556066196098
20
1.48036217479165
30
0
41
1
10
149.557199844787
20
1.46186376712706
30
0
41
1
10
149.560032561575
20
1.42498249382118
30
0
41
1
10
149.561724621638
20
1.40659831536334
30
0
41
1
10
149.564962866512
20
1.3791604245786
30
0
41
1
10
149.566160648091
20
1.37003783743302
30
0
41
1
10
149.568892543204
20
1.35185807402064
30
0
41
1
10
149.570429233634
20
1.34277298098721
30
0
41
1
10
149.574003223349
20
1.32482961050224
30
0
41
1
10
149.576022559128
20
1.31601943191131
30
0
41
1
10
149.579665375541
20
1.30322695536665
30
0
41
1
10
149.580983473112
20
1.29903429871035
30
0
41
1
10
149.583925806698
20
1.29085903674414
30
0
41
1
10
149.585555704597
20
1.28686312506559
30
0
41
1
10
149.589214864265
20
1.2794068090989
30
0
41
1
10
149.59124291104
20
1.27591802146387
30
0
41
1
10
149.596024190781
20
1.26981277473948
30
0
41
1
10
149.598791925149
20
1.26720744962367
30
0
41
1
10
149.603585192061
20
1.26497186906468
30
0
41
1
10
149.605238544653
20
1.26453095266211
30
0
41
1
10
149.608667422954
20
1.26431709371275
30
0
41
1
10
149.61045752744
20
1.26455966997292
30
0
41
1
10
149.613936585578
20
1.26566676014673
30
0
41
1
10
149.615671884935
20
1.26653771797245
30
0
41
1
10
149.61899339339
20
1.26871155502087
30
0
41
1
10
149.620581409002
20
1.27000587963451
30
0
41
1
10
149.625186557665
20
1.27434154931902
30
0
41
1
10
149.628021131565
20
1.27780990186997
30
0
41
1
10
149.633249794903
20
1.28514751172475
30
0
41
1
10
149.635679061346
20
1.28906668056078
30
0
41
1
10
149.642616772461
20
1.30129666549848
30
0
41
1
10
149.646685962344
20
1.30988501247083
30
0
41
1
10
149.650480947162
20
1.31866386161846
30
0
0
SPLINE
5
1AA
100
AcDbEntity
8
1
62
256
6
ByLayer
370
18
48
1
60
0
100
AcDbSpline
70
4
71
3
72
8
73
4
40
0
40
0
40
0
40
0
40
1
40
1
40
1
40
1
41
1
10
149.650480947162
20
4.79447758099843
30
0
41
1
10
149.651388368233
20
4.93149252699911
30
0
41
1
10
149.651388368233
20
5.06850747299978
30
0
41
1
10
149.650480947162
20
5.20552241900046
30
0
0
SPLINE
5
1AB
100
AcDbEntity
8
1
62
256
6
ByLayer
370
18
48
1
60
0
100
AcDbSpline
70
4
71
3
72
59
73
55
40
0
40
0
40
0
40
0
40
0.125000000000001
40
0.125000000000001
40
0.250000000000002
40
0.375000000000003
40
0.375000000000003
40
0.500000000000004
40
0.500000000000004
40
0.625000000000005
40
0.625000000000005
40
0.687500000000005
40
0.687500000000005
40
0.750000000000006
40
0.750000000000006
40
0.812500000000007
40
0.812500000000007
40
0.843750000000007
40
0.843750000000007
40
0.875000000000007
40
0.875000000000007
40
0.906250000000007
40
0.906250000000007
40
0.921875000000006
40
0.921875000000006
40
0.937500000000005
40
0.937500000000005
40
0.945312500000004
40
0.945312500000004
40
0.953125000000002
40
0.953125000000002
40
0.960937500000001
40
0.960937500000001
40
0.96484375
40
0.96484375
40
0.968749999999999
40
0.968749999999999
40
0.972656249999998
40
0.972656249999998
40
0.976562499999997
40
0.976562499999997
40
0.978515624999997
40
0.978515624999997
40
0.980468749999997
40
0.980468749999997
40
0.982421874999996
40
0.982421874999996
40
0.984374999999996
40
0.984374999999996
40
0.988281249999997
40
0.988281249999997
40
0.992187499999999
40
0.992187499999999
40
1
40
1
40
1
40
1
41
1
10
149.650480947162
20
5.20552241900046
30
0
41
1
10
149.649474529164
20
5.35748528611791
30
0
41
1
10
149.647350571744
20
5.50946203431812
30
0
41
1
10
149.641070593963
20
5.81344439338005
30
0
41
1
10
149.632760419544
20
6.11745562328176
30
0
41
1
10
149.621178756172
20
6.42152886412052
30
0
41
1
10
149.608531759673
20
6.72563622957659
30
0
41
1
10
149.601672191192
20
6.87770695466065
30
0
41
1
10
149.587676377915
20
7.18188692008789
30
0
41
1
10
149.580530180473
20
7.33394573764679
30
0
41
1
10
149.570536139854
20
7.56160809848373
30
0
41
1
10
149.567328862802
20
7.63743907733289
30
0
41
1
10
149.561413484972
20
7.78896908574731
30
0
41
1
10
149.558701689912
20
7.8646683981292
30
0
41
1
10
149.554167978853
20
8.01590533592287
30
0
41
1
10
149.552334555853
20
8.09144384070086
30
0
41
1
10
149.550799054594
20
8.20458854632474
30
0
41
1
10
149.550492739192
20
8.24227603690957
30
0
41
1
10
149.550469812771
20
8.3175825427862
30
0
41
1
10
149.550750183483
20
8.35523886655218
30
0
41
1
10
149.552208755407
20
8.43023262171377
30
0
41
1
10
149.553373181025
20
8.46757297685514
30
0
41
1
10
149.556275212278
20
8.52319890720423
30
0
41
1
10
149.557437968645
20
8.54167593430742
30
0
41
1
10
149.560336644401
20
8.57844571083507
30
0
41
1
10
149.562065629678
20
8.59674052996019
30
0
41
1
10
149.565365531574
20
8.62396204542259
30
0
41
1
10
149.566584913132
20
8.63299859792573
30
0
41
1
10
149.569361551694
20
8.65096757430743
30
0
41
1
10
149.570921073671
20
8.65991916152234
30
0
41
1
10
149.574516938715
20
8.67745376451686
30
0
41
1
10
149.576547962152
20
8.6860599634289
30
0
41
1
10
149.58021552862
20
8.69854381258779
30
0
41
1
10
149.581543102687
20
8.70263313961857
30
0
41
1
10
149.584510409302
20
8.71059873923693
30
0
41
1
10
149.586161611328
20
8.71450396438161
30
0
41
1
10
149.589888240219
20
8.72177776739446
30
0
41
1
10
149.591955510826
20
8.72516274851111
30
0
41
1
10
149.59684579735
20
8.73100162030207
30
0
41
1
10
149.599637337106
20
8.73338371760653
30
0
41
1
10
149.604411839463
20
8.73527061609784
30
0
41
1
10
149.606061767276
20
8.73560195864616
30
0
41
1
10
149.609492008733
20
8.73560099260379
30
0
41
1
10
149.611227428267
20
8.73526227848572
30
0
41
1
10
149.61463552521
20
8.73400699466998
30
0
41
1
10
149.616332222931
20
8.73307964611382
30
0
41
1
10
149.61955483406
20
8.73084823538741
30
0
41
1
10
149.621102908113
20
8.72953833110901
30
0
41
1
10
149.62560527577
20
8.72517335725476
30
0
41
1
10
149.628363216431
20
8.72174764484299
30
0
41
1
10
149.633516183583
20
8.71443632136874
30
0
41
1
10
149.635914818984
20
8.71053626148321
30
0
41
1
10
149.642693644436
20
8.69852839288248
30
0
41
1
10
149.646722359183
20
8.69003079157801
30
0
41
1
10
149.650480947162
20
8.68133613838199
30
0
0
SPLINE
5
1AC
100
AcDbEntity
8
1
62
256
6
ByLayer
370
18
48
1
60
0
100
AcDbSpline
70
4
71
3
72
10
73
6
40
0
40
0
40
0
40
0
40
0.5
40
0.5
40
1
40
1
40
1
40
1
41
1
10
149.650480947161
20
8.68133613838174
30
0
41
1
10
149.798334418938
20
8.33931017858262
30
0
41
1
10
149.9309865447
20
7.99090315238422
30
0
41
1
10
150.158489259991
20
7.27822115563296
30
0
41
1
10
150.253343637489
20
6.91394777515487
30
0
41
1
10
150.324759526415
20
6.53983562436514
30
0
0
SPLINE
5
1AD
100
AcDbEntity
8
1
62
256
6
ByLayer
370
18
48
1
60
0
100
AcDbSpline
70
4
71
3
72
8
73
4
40
0
40
0
40
0
40
0
40
1
40
1
40
1
40
1
41
1
10
150.324759526419
20
9.05383691704478
30
0
41
1
10
150.164101740032
20
10.2315551818869
30
0
41
1
10
149.936650314553
20
11.3920361533956
30
0
41
1
10
149.650480947162
20
12.5373639096818
30
0
0
SPLINE
5
1AE
100
AcDbEntity
8
1
62
256
6
ByLayer
370
18
48
1
60
0
100
AcDbSpline
70
4
71
3
72
42
73
38
40
0
40
0
40
0
40
0
40
0.250000000000006
40
0.250000000000006
40
0.375000000000011
40
0.375000000000011
40
0.500000000000017
40
0.500000000000017
40
0.625000000000022
40
0.625000000000022
40
0.687500000000025
40
0.687500000000025
40
0.750000000000027
40
0.750000000000027
40
0.781250000000024
40
0.781250000000024
40
0.812500000000021
40
0.812500000000021
40
0.843750000000017
40
0.843750000000017
40
0.859375000000015
40
0.859375000000015
40
0.875000000000014
40
0.875000000000014
40
0.890625000000012
40
0.890625000000012
40
0.90625000000001
40
0.90625000000001
40
0.921875000000009
40
0.921875000000009
40
0.937500000000007
40
0.937500000000007
40
0.953125000000005
40
0.953125000000005
40
0.968750000000003
40
0.968750000000003
40
1
40
1
40
1
40
1
41
1
10
149.650480947161
20
12.5373639096818
30
0
41
1
10
149.63076897837
20
12.6162565780118
30
0
41
1
10
149.61346059995
20
12.6948483875489
30
0
41
1
10
149.591140780514
20
12.8122718609808
30
0
41
1
10
149.584320719394
20
12.8513346156637
30
0
41
1
10
149.572124668301
20
12.929284710222
30
0
41
1
10
149.566742521326
20
12.9681725752509
30
0
41
1
10
149.557864378318
20
13.0457341654564
30
0
41
1
10
149.55434285781
20
13.0844400879736
30
0
41
1
10
149.551271377319
20
13.1421780618726
30
0
41
1
10
149.550630005146
20
13.1612308644052
30
0
41
1
10
149.550377159459
20
13.198826385238
30
0
41
1
10
149.550757044976
20
13.2173731419208
30
0
41
1
10
149.552486535079
20
13.2446298400151
30
0
41
1
10
149.553258656099
20
13.2536204028762
30
0
41
1
10
149.555324288495
20
13.2713507168483
30
0
41
1
10
149.556619146011
20
13.2801132325758
30
0
41
1
10
149.559941779673
20
13.2971873027503
30
0
41
1
10
149.56194845637
20
13.3054174754386
30
0
41
1
10
149.565733288872
20
13.3170790955424
30
0
41
1
10
149.567125496084
20
13.3208510908138
30
0
41
1
10
149.570248978874
20
13.3280968735355
30
0
41
1
10
149.571992418155
20
13.3315905985701
30
0
41
1
10
149.575857623531
20
13.3380349923348
30
0
41
1
10
149.577978928924
20
13.3409948006525
30
0
41
1
10
149.582717557109
20
13.3462264145767
30
0
41
1
10
149.58536880188
20
13.3485166992711
30
0
41
1
10
149.591140283969
20
13.352017505393
30
0
41
1
10
149.594278886941
20
13.3532465409795
30
0
41
1
10
149.601038610781
20
13.3544128086474
30
0
41
1
10
149.604547324229
20
13.3543357984652
30
0
41
1
10
149.611812347963
20
13.3529157629829
30
0
41
1
10
149.615579957294
20
13.3515498926701
30
0
41
1
10
149.622949675614
20
13.347852859045
30
0
41
1
10
149.626634528598
20
13.3454932373677
30
0
41
1
10
149.637401170667
20
13.3374023255906
30
0
41
1
10
149.644079218297
20
13.3308339493788
30
0
41
1
10
149.650480947162
20
13.3236182349666
30
0
0
SPLINE
5
1AF
100
AcDbEntity
8
1
62
256
6
ByLayer
370
18
48
1
60
0
100
AcDbSpline
70
4
71
3
72
8
73
4
40
0
40
0
40
0
40
0
40
1
40
1
40
1
40
1
41
1
10
149.650480947162
20
13.3236182349666
30
0
41
1
10
149.877893938717
20
13.0672894782556
30
0
41
1
10
150.102856207569
20
12.8081293930725
30
0
41
1
10
150.324759526411
20
12.5454352922904
30
0
0
SPLINE
5
1B0
100
AcDbEntity
8
1
62
256
6
ByLayer
370
18
48
1
60
0
100
AcDbSpline
70
4
71
3
72
8
73
4
40
0
40
0
40
0
40
0
40
1
40
1
40
1
40
1
41
1
10
150.324759526419
20
13.3588930935855
30
0
41
1
10
150.120774732857
20
14.0629544043431
30
0
41
1
10
149.895186418447
20
14.7577018893108
30
0
41
1
10
149.650480947162
20
15.4442074830617
30
0
0
SPLINE
5
1B1
100
AcDbEntity
8
1
62
256
6
ByLayer
370
18
48
1
60
0
100
AcDbSpline
70
4
71
3
72
40
73
36
40
0
40
0
40
0
40
0
40
0.125000000000002
40
0.125000000000002
40
0.250000000000005
40
0.250000000000005
40
0.375000000000007
40
0.375000000000007
40
0.50000000000001
40
0.50000000000001
40
0.562500000000008
40
0.562500000000008
40
0.625000000000006
40
0.625000000000006
40
0.687500000000004
40
0.687500000000004
40
0.750000000000002
40
0.750000000000002
40
0.781250000000001
40
0.781250000000001
40
0.8125
40
0.8125
40
0.843749999999998
40
0.843749999999998
40
0.874999999999997
40
0.874999999999997
40
0.906249999999995
40
0.906249999999995
40
0.921874999999995
40
0.921874999999995
40
0.937499999999995
40
0.937499999999995
40
0.968749999999997
40
0.968749999999997
40
1
40
1
40
1
40
1
41
1
10
149.650480947162
20
15.4442074830617
30
0
41
1
10
149.640025010736
20
15.4735409458822
30
0
41
1
10
149.630210989746
20
15.502967307644
30
0
41
1
10
149.611958545041
20
15.561600232284
30
0
41
1
10
149.603523410692
20
15.5907865528445
30
0
41
1
10
149.588102337404
20
15.648885492816
30
0
41
1
10
149.581113785878
20
15.6777985452114
30
0
41
1
10
149.568829176801
20
15.7353093306318
30
0
41
1
10
149.56352332279
20
15.7639086554237
30
0
41
1
10
149.557268698593
20
15.8064991466691
30
0
41
1
10
149.555468305322
20
15.8206822963948
30
0
41
1
10
149.552619223369
20
15.8486113407319
30
0
41
1
10
149.551563972929
20
15.8623801284269
30
0
41
1
10
149.550399909879
20
15.8894214732836
30
0
41
1
10
149.550285829804
20
15.9026966836887
30
0
41
1
10
149.55138586223
20
15.9285585052092
30
0
41
1
10
149.552608640832
20
15.9412331302685
30
0
41
1
10
149.555948456209
20
15.9588608230577
30
0
41
1
10
149.557314290988
20
15.9645185412796
30
0
41
1
10
149.560709973981
20
15.9752629426485
30
0
41
1
10
149.562757184409
20
15.9803881681508
30
0
41
1
10
149.567691285185
20
15.9896473096834
30
0
41
1
10
149.570555797839
20
15.9937603959164
30
0
41
1
10
149.57735811212
20
16.0005969404046
30
0
41
1
10
149.581328265331
20
16.0032995526682
30
0
41
1
10
149.590209516905
20
16.0065701580043
30
0
41
1
10
149.595238130169
20
16.0071547338823
30
0
41
1
10
149.603144568995
20
16.0063121242092
30
0
41
1
10
149.605853809947
20
16.0057558877137
30
0
41
1
10
149.611415566325
20
16.0041091466671
30
0
41
1
10
149.614249175209
20
16.0030206655198
30
0
41
1
10
149.622685087213
20
15.9991362853473
30
0
41
1
10
149.628307688267
20
15.9957046891451
30
0
41
1
10
149.639550729521
20
15.9875472607246
30
0
41
1
10
149.645089621271
20
15.9828744514095
30
0
41
1
10
149.650480947162
20
15.9778415583044
30
0
0
SPLINE
5
1B2
100
AcDbEntity
8
1
62
256
6
ByLayer
370
18
48
1
60
0
100
AcDbSpline
70
4
71
3
72
8
73
4
40
0
40
0
40
0
40
0
40
1
40
1
40
1
40
1
41
1
10
149.650480947162
20
15.9778415583026
30
0
41
1
10
149.875878259424
20
15.7674293885319
30
0
41
1
10
150.100672937923
20
15.5561625919066
30
0
41
1
10
150.324759526419
20
15.3438916153442
30
0
0
SPLINE
5
1B3
100
AcDbEntity
8
1
62
256
6
ByLayer
370
18
48
1
60
0
100
AcDbSpline
70
4
71
3
72
8
73
4
40
0
40
0
40
0
40
0
40
1
40
1
40
1
40
1
41
1
10
150.324759526419
20
15.8999354929278
30
0
41
1
10
150.111437539985
20
16.4476285217341
30
0
41
1
10
149.886241901321
20
16.9887487173417
30
0
41
1
10
149.650480947162
20
17.5240203286129
30
0
0
SPLINE
5
1B4
100
AcDbEntity
8
1
62
256
6
ByLayer
370
18
48
1
60
0
100
AcDbSpline
70
4
71
3
72
40
73
36
40
0
40
0
40
0
40
0
40
0.12500000000001
40
0.12500000000001
40
0.25000000000002
40
0.25000000000002
40
0.37500000000003
40
0.37500000000003
40
0.50000000000004
40
0.50000000000004
40
0.562500000000039
40
0.562500000000039
40
0.625000000000037
40
0.625000000000037
40
0.687500000000036
40
0.687500000000036
40
0.718750000000032
40
0.718750000000032
40
0.750000000000029
40
0.750000000000029
40
0.781250000000025
40
0.781250000000025
40
0.812500000000022
40
0.812500000000022
40
0.843750000000018
40
0.843750000000018
40
0.875000000000014
40
0.875000000000014
40
0.906250000000011
40
0.906250000000011
40
0.937500000000007
40
0.937500000000007
40
0.968750000000004
40
0.968750000000004
40
1
40
1
40
1
40
1
41
1
10
149.650480947162
20
17.5240203286129
30
0
41
1
10
149.639690471916
20
17.5485190209088
30
0
41
1
10
149.629613916005
20
17.5729486554882
30
0
41
1
10
149.610849297583
20
17.6216689381414
30
0
41
1
10
149.602160592807
20
17.6459596622951
30
0
41
1
10
149.586289625029
20
17.6943887125294
30
0
41
1
10
149.579096154492
20
17.718552522491
30
0
41
1
10
149.566584682111
20
17.766592414756
30
0
41
1
10
149.561339273704
20
17.7901565661237
30
0
41
1
10
149.555481361028
20
17.8246060554295
30
0
41
1
10
149.553867302615
20
17.8359382479912
30
0
41
1
10
149.551487852271
20
17.8582271487089
30
0
41
1
10
149.550718615151
20
17.8692396521948
30
0
41
1
10
149.550336211257
20
17.8904892822463
30
0
41
1
10
149.550714779598
20
17.9006787514829
30
0
41
1
10
149.552465551096
20
17.9150655650475
30
0
41
1
10
149.553248182532
20
17.9197101977652
30
0
41
1
10
149.555309097648
20
17.9286248501678
30
0
41
1
10
149.556593904736
20
17.9329010995041
30
0
41
1
10
149.559717301251
20
17.9407756166948
30
0
41
1
10
149.561559358519
20
17.9444002494737
30
0
41
1
10
149.565937706079
20
17.9508777423323
30
0
41
1
10
149.568504767017
20
17.9537519025177
30
0
41
1
10
149.574349248947
20
17.9583575070413
30
0
41
1
10
149.577621102576
20
17.9601034727099
30
0
41
1
10
149.584977180313
20
17.9623048822332
30
0
41
1
10
149.589008029016
20
17.9627276846832
30
0
41
1
10
149.597554413792
20
17.9621883066385
30
0
41
1
10
149.602165047507
20
17.9612103113988
30
0
41
1
10
149.61156352127
20
17.9580305278131
30
0
41
1
10
149.616343834585
20
17.9558532438606
30
0
41
1
10
149.626039774226
20
17.9505209964747
30
0
41
1
10
149.630992916634
20
17.9473363627045
30
0
41
1
10
149.640809613647
20
17.9402688914589
30
0
41
1
10
149.64566607499
20
17.9363995135531
30
0
41
1
10
149.650480947162
20
17.9322615979166
30
0
0
SPLINE
5
1B5
100
AcDbEntity
8
1
62
256
6
ByLayer
370
18
48
1
60
0
100
AcDbSpline
70
4
71
3
72
8
73
4
40
0
40
0
40
0
40
0
40
1
40
1
40
1
40
1
41
1
10
149.650480947162
20
17.9322615979156
30
0
41
1
10
149.875423713527
20
17.7389451074576
30
0
41
1
10
150.100191536751
20
17.54535781735
30
0
41
1
10
150.324759526419
20
17.3514611989832
30
0
0
SPLINE
5
1B6
100
AcDbEntity
8
1
62
256
6
ByLayer
370
18
48
1
60
0
100
AcDbSpline
70
4
71
3
72
8
73
4
40
0
40
0
40
0
40
0
40
1
40
1
40
1
40
1
41
1
10
150.324759526419
20
17.7767794748906
30
0
41
1
10
150.107382666912
20
18.2381665161965
30
0
41
1
10
149.882352997816
20
18.6945301612782
30
0
41
1
10
149.650480947162
20
19.146402384839
30
0
0
SPLINE
5
1B7
100
AcDbEntity
8
1
62
256
6
ByLayer
370
18
48
1
60
0
100
AcDbSpline
70
4
71
3
72
40
73
36
40
0
40
0
40
0
40
0
40
0.125000000000005
40
0.125000000000005
40
0.25000000000001
40
0.25000000000001
40
0.375000000000016
40
0.375000000000016
40
0.437500000000021
40
0.437500000000021
40
0.500000000000026
40
0.500000000000026
40
0.562500000000031
40
0.562500000000031
40
0.625000000000036
40
0.625000000000036
40
0.687500000000041
40
0.687500000000041
40
0.71875000000004
40
0.71875000000004
40
0.750000000000039
40
0.750000000000039
40
0.781250000000038
40
0.781250000000038
40
0.812500000000036
40
0.812500000000036
40
0.843750000000035
40
0.843750000000035
40
0.875000000000034
40
0.875000000000034
40
0.937500000000022
40
0.937500000000022
40
0.968750000000011
40
0.968750000000011
40
1
40
1
40
1
40
1
41
1
10
149.650480947162
20
19.146402384839
30
0
41
1
10
149.639414958228
20
19.1679677827013
30
0
41
1
10
149.629040809079
20
19.1894982781837
30
0
41
1
10
149.609683150239
20
19.232484432055
30
0
41
1
10
149.600665700982
20
19.2540304822573
30
0
41
1
10
149.584409180772
20
19.2964716606378
30
0
41
1
10
149.577153956557
20
19.3173783954796
30
0
41
1
10
149.56784509696
20
19.3481740824704
30
0
41
1
10
149.565006721943
20
19.3583444727704
30
0
41
1
10
149.55994833633
20
19.3784644888767
30
0
41
1
10
149.557723039423
20
19.3884367390238
30
0
41
1
10
149.554054354315
20
19.4080137813794
30
0
41
1
10
149.552625671844
20
19.417530479521
30
0
41
1
10
149.550759790623
20
19.4359026326867
30
0
41
1
10
149.550318779816
20
19.4447605718956
30
0
41
1
10
149.550749497916
20
19.4616056545873
30
0
41
1
10
149.551636822927
20
19.4696104377063
30
0
41
1
10
149.554281873644
20
19.4802400051823
30
0
41
1
10
149.555383473851
20
19.4835703154136
30
0
41
1
10
149.55811068237
20
19.4897250071958
30
0
41
1
10
149.559751087798
20
19.4925672484102
30
0
41
1
10
149.5635955558
20
19.4975235357776
30
0
41
1
10
149.565792502249
20
19.4996397405522
30
0
41
1
10
149.570810054821
20
19.5030524418842
30
0
41
1
10
149.573662929114
20
19.504351085606
30
0
41
1
10
149.579852338377
20
19.5059489374525
30
0
41
1
10
149.583198210382
20
19.506266273411
30
0
41
1
10
149.59039654148
20
19.5059318013032
30
0
41
1
10
149.594295692839
20
19.505265139316
30
0
41
1
10
149.606418497699
20
19.5018746224371
30
0
41
1
10
149.61493133613
20
19.4978669254716
30
0
41
1
10
149.628201605806
20
19.4898327177073
30
0
41
1
10
149.632697891774
20
19.486815599819
30
0
41
1
10
149.641605111238
20
19.4803478822288
30
0
41
1
10
149.646047713552
20
19.4768784266664
30
0
41
1
10
149.650480947162
20
19.4732088630914
30
0
0
SPLINE
5
1B8
100
AcDbEntity
8
1
62
256
6
ByLayer
370
18
48
1
60
0
100
AcDbSpline
70
4
71
3
72
8
73
4
40
0
40
0
40
0
40
0
40
1
40
1
40
1
40
1
41
1
10
149.650480947162
20
19.4732088630908
30
0
41
1
10
149.87528177088
20
19.2871322907606
30
0
41
1
10
150.10004293855
20
19.100991874528
30
0
41
1
10
150.324759526419
20
18.9147796874397
30
0
0
SPLINE
5
1B9
100
AcDbEntity
8
1
62
256
6
ByLayer
370
18
48
1
60
0
100
AcDbSpline
70
4
71
3
72
8
73
4
40
0
40
0
40
0
40
0
40
1
40
1
40
1
40
1
41
1
10
150.324759526419
20
19.254248270252
30
0
41
1
10
150.105152654041
20
19.6587123242197
30
0
41
1
10
149.880211532645
20
20.0591860512799
30
0
41
1
10
149.650480947162
20
20.4560769820821
30
0
0
SPLINE
5
1BA
100
AcDbEntity
8
1
62
256
6
ByLayer
370
18
48
1
60
0
100
AcDbSpline
70
4
71
3
72
39
73
35
40
0
40
0
40
0
40
0
40
0.124999999999979
40
0.124999999999979
40
0.249999999999958
40
0.249999999999958
40
0.374999999999937
40
0.374999999999937
40
0.437499999999933
40
0.437499999999933
40
0.49999999999993
40
0.49999999999993
40
0.562499999999926
40
0.562499999999926
40
0.59374999999993
40
0.59374999999993
40
0.624999999999935
40
0.624999999999935
40
0.687499999999953
40
0.687499999999953
40
0.718749999999959
40
0.718749999999959
40
0.749999999999965
40
0.749999999999965
40
0.78124999999997
40
0.78124999999997
40
0.812499999999976
40
0.843749999999982
40
0.843749999999982
40
0.874999999999987
40
0.874999999999987
40
0.937499999999994
40
0.937499999999994
40
1
40
1
40
1
40
1
41
1
10
149.650480947162
20
20.4560769820821
30
0
41
1
10
149.639193035731
20
20.4755783891979
30
0
41
1
10
149.628590160519
20
20.4950150972996
30
0
41
1
10
149.608789608101
20
20.5337506274616
30
0
41
1
10
149.59955440175
20
20.5531394770015
30
0
41
1
10
149.582996045851
20
20.5910738569021
30
0
41
1
10
149.575636447461
20
20.6096683647392
30
0
41
1
10
149.566297083473
20
20.6368716168547
30
0
41
1
10
149.563469944102
20
20.6458235796134
30
0
41
1
10
149.558498129876
20
20.6634519327062
30
0
41
1
10
149.556355985995
20
20.6721338879732
30
0
41
1
10
149.552992495483
20
20.6887880728002
30
0
41
1
10
149.551755667217
20
20.6968054930669
30
0
41
1
10
149.550731607718
20
20.7082552465147
30
0
41
1
10
149.550529643809
20
20.7119751829306
30
0
41
1
10
149.550447718715
20
20.7191922642154
30
0
41
1
10
149.550569803588
20
20.7227031448457
30
0
41
1
10
149.551489172924
20
20.7326767960527
30
0
41
1
10
149.552823866437
20
20.7386266380575
30
0
41
1
10
149.556235634613
20
20.7461914297903
30
0
41
1
10
149.557622786118
20
20.7484972729623
30
0
41
1
10
149.560888621489
20
20.752480023925
30
0
41
1
10
149.562763444322
20
20.7541622265612
30
0
41
1
10
149.567039967856
20
20.7568546457301
30
0
41
1
10
149.569461523802
20
20.7578691446221
30
0
41
1
10
149.574799687778
20
20.7591280609586
30
0
41
1
10
149.580567979247
20
20.7596147878301
30
0
41
1
10
149.587174135165
20
20.758600553533
30
0
41
1
10
149.594197904459
20
20.7568396148938
30
0
41
1
10
149.597925489672
20
20.7555764856674
30
0
41
1
10
149.609307892352
20
20.7508672481527
30
0
41
1
10
149.617324482498
20
20.7464633141774
30
0
41
1
10
149.63384879861
20
20.7357246214992
30
0
41
1
10
149.642150093394
20
20.7295341136672
30
0
41
1
10
149.650480947162
20
20.7227274845171
30
0
0
SPLINE
5
1BB
100
AcDbEntity
8
1
62
256
6
ByLayer
370
18
48
1
60
0
100
AcDbSpline
70
4
71
3
72
8
73
4
40
0
40
0
40
0
40
0
40
1
40
1
40
1
40
1
41
1
10
149.650480947162
20
20.7227274845167
30
0
41
1
10
149.875242279349
20
20.5390887989479
30
0
41
1
10
150.10000187134
20
20.3554472734951
30
0
41
1
10
150.324759526419
20
20.1718025873652
30
0
0
SPLINE
5
1BC
100
AcDbEntity
8
1
62
256
6
ByLayer
370
18
48
1
60
0
100
AcDbSpline
70
4
71
3
72
8
73
4
40
0
40
0
40
0
40
0
40
1
40
1
40
1
40
1
41
1
10
150.324759526419
20
20.4473652688729
30
0
41
1
10
150.103764009202
20
20.8105598495155
30
0
41
1
10
149.878876276632
20
21.1705149416579
30
0
41
1
10
149.650480947162
20
21.5275506630086
30
0
0
SPLINE
5
1BD
100
AcDbEntity
8
1
62
256
6
ByLayer
370
18
48
1
60
0
100
AcDbSpline
70
4
71
3
72
41
73
37
40
0
40
0
40
0
40
0
40
0.125000000000004
40
0.125000000000004
40
0.187500000000015
40
0.187500000000015
40
0.250000000000026
40
0.250000000000026
40
0.375000000000034
40
0.375000000000034
40
0.437500000000035
40
0.437500000000035
40
0.500000000000036
40
0.500000000000036
40
0.562500000000037
40
0.562500000000037
40
0.625000000000038
40
0.625000000000038
40
0.656250000000034
40
0.656250000000034
40
0.68750000000003
40
0.68750000000003
40
0.718750000000026
40
0.718750000000026
40
0.750000000000022
40
0.750000000000022
40
0.812500000000015
40
0.812500000000015
40
0.843750000000011
40
0.843750000000011
40
0.875000000000007
40
0.906250000000003
40
0.906250000000003
40
0.937499999999999
40
0.937499999999999
40
1
40
1
40
1
40
1
41
1
10
149.650480947162
20
21.5275506630086
30
0
41
1
10
149.638981804677
20
21.5455265324866
30
0
41
1
10
149.62814548197
20
21.5634206151339
30
0
41
1
10
149.612939206481
20
21.5901281849021
30
0
41
1
10
149.608042788563
20
21.5990169496366
30
0
41
1
10
149.598721928768
20
21.6165648982941
30
0
41
1
10
149.594284643271
20
21.6252457634569
30
0
41
1
10
149.581686936374
20
21.6509896479138
30
0
41
1
10
149.574223281786
20
21.667761078108
30
0
41
1
10
149.564837577099
20
21.6921604462436
30
0
41
1
10
149.562006278076
20
21.7001981661698
30
0
41
1
10
149.557184605238
20
21.7156477088201
30
0
41
1
10
149.555179368067
20
21.7230904973058
30
0
41
1
10
149.552137250522
20
21.7373043165407
30
0
41
1
10
149.551097322754
20
21.7440774273184
30
0
41
1
10
149.550263647968
20
21.7567617390186
30
0
41
1
10
149.550482593648
20
21.7625191878588
30
0
41
1
10
149.551971457481
20
21.770061323013
30
0
41
1
10
149.552662227263
20
21.7723934928271
30
0
41
1
10
149.554488589318
20
21.7766425722045
30
0
41
1
10
149.555629696968
20
21.7785582671368
30
0
41
1
10
149.558347744801
20
21.7818281742805
30
0
41
1
10
149.559929168047
20
21.7831969176474
30
0
41
1
10
149.563569638857
20
21.7853637195277
30
0
41
1
10
149.565645521329
20
21.7861647789779
30
0
41
1
10
149.572537810431
20
21.7876065271331
30
0
41
1
10
149.57792665398
20
21.7872966647601
30
0
41
1
10
149.587151619285
20
21.7850110816932
30
0
41
1
10
149.590446302725
20
21.7839313072069
30
0
41
1
10
149.597241521147
20
21.7812338486896
30
0
41
1
10
149.604247829043
20
21.7780072079678
30
0
41
1
10
149.61163322165
20
21.7738322488318
30
0
41
1
10
149.619193271317
20
21.7692211157917
30
0
41
1
10
149.623071327699
20
21.7666886267632
30
0
41
1
10
149.634714931172
20
21.7586489532188
30
0
41
1
10
149.642563586242
20
21.7526628820387
30
0
41
1
10
149.650480947162
20
21.7461799915716
30
0
0
SPLINE
5
1BE
100
AcDbEntity
8
1
62
256
6
ByLayer
370
18
48
1
60
0
100
AcDbSpline
70
4
71
3
72
8
73
4
40
0
40
0
40
0
40
0
40
1
40
1
40
1
40
1
41
1
10
149.650480947162
20
21.7461799915714
30
0
41
1
10
149.875247737629
20
21.5621365334024
30
0
41
1
10
150.100007511727
20
21.3780816494061
30
0
41
1
10
150.324759526419
20
21.1940141333143
30
0
0
SPLINE
5
1BF
100
AcDbEntity
8
1
62
256
6
ByLayer
370
18
48
1
60
0
100
AcDbSpline
70
4
71
3
72
8
73
4
40
0
40
0
40
0
40
0
40
1
40
1
40
1
40
1
41
1
10
150.324759526419
20
21.4182396666019
30
0
41
1
10
150.10282976625
20
21.7496954266901
30
0
41
1
10
149.87797677687
20
22.0784874839767
30
0
41
1
10
149.650480947162
20
22.4048713342152
30
0
0
SPLINE
5
1C0
100
AcDbEntity
8
1
62
256
6
ByLayer
370
18
48
1
60
0
100
AcDbSpline
70
4
71
3
72
34
73
30
40
0
40
0
40
0
40
0
40
0.125000000000017
40
0.125000000000017
40
0.250000000000033
40
0.250000000000033
40
0.312500000000039
40
0.312500000000039
40
0.375000000000044
40
0.375000000000044
40
0.500000000000041
40
0.500000000000041
40
0.562500000000035
40
0.562500000000035
40
0.625000000000029
40
0.625000000000029
40
0.687500000000024
40
0.687500000000024
40
0.718750000000018
40
0.718750000000018
40
0.750000000000012
40
0.750000000000012
40
0.812500000000009
40
0.812500000000009
40
0.875000000000006
40
0.875000000000006
40
0.937500000000003
40
0.937500000000003
40
1
40
1
40
1
40
1
41
1
10
149.650480947162
20
22.4048713342152
30
0
41
1
10
149.638779782576
20
22.4216587678781
30
0
41
1
10
149.627693116502
20
22.4383758860401
30
0
41
1
10
149.607002473869
20
22.4714107933076
30
0
41
1
10
149.597504579954
20
22.4875524832552
30
0
41
1
10
149.584701626499
20
22.511120462693
30
0
41
1
10
149.580676613219
20
22.5188681596805
30
0
41
1
10
149.57317678391
20
22.5341175966374
30
0
41
1
10
149.569687169971
20
22.5416532144363
30
0
41
1
10
149.560306547286
20
22.5635746306856
30
0
41
1
10
149.555515793997
20
22.5771559030123
30
0
41
1
10
149.551444442405
20
22.5953340811035
30
0
41
1
10
149.550629414815
20
22.6010158296473
30
0
41
1
10
149.550369704542
20
22.6110410235752
30
0
41
1
10
149.550906911697
20
22.6154408318437
30
0
41
1
10
149.553649785601
20
22.6227119306331
30
0
41
1
10
149.555833495619
20
22.6254796389085
30
0
41
1
10
149.560418657478
20
22.6281044544237
30
0
41
1
10
149.562180578905
20
22.6287302685925
30
0
41
1
10
149.56612484049
20
22.6294299988255
30
0
41
1
10
149.568286199411
20
22.6295043011142
30
0
41
1
10
149.575316333567
20
22.6289333978022
30
0
41
1
10
149.580743615077
20
22.6274928474919
30
0
41
1
10
149.592956646791
20
22.6225760263921
30
0
41
1
10
149.599500450861
20
22.6192044399135
30
0
41
1
10
149.613308831925
20
22.6109620758318
30
0
41
1
10
149.620630234375
20
22.6060417517654
30
0
41
1
10
149.635395579302
20
22.5952630873192
30
0
41
1
10
149.642891402848
20
22.5893789353742
30
0
41
1
10
149.650480947162
20
22.583086448853
30
0
0
SPLINE
5
1C1
100
AcDbEntity
8
1
62
256
6
ByLayer
370
18
48
1
60
0
100
AcDbSpline
70
4
71
3
72
8
73
4
40
0
40
0
40
0
40
0
40
1
40
1
40
1
40
1
41
1
10
149.650480947162
20
22.5830864488529
30
0
41
1
10
149.87527835498
20
22.3967070563403
30
0
41
1
10
150.100039125586
20
22.210268727877
30
0
41
1
10
150.324759526419
20
22.023765557302
30
0
0
SPLINE
5
1C2
100
AcDbEntity
8
1
62
256
6
ByLayer
370
18
48
1
60
0
100
AcDbSpline
70
4
71
3
72
8
73
4
40
0
40
0
40
0
40
0
40
1
40
1
40
1
40
1
41
1
10
150.324759526419
20
22.2045370106254
30
0
41
1
10
150.102167049584
20
22.5105841760988
30
0
41
1
10
149.877337890168
20
22.8144257977407
30
0
41
1
10
149.650480947162
20
23.1162678662813
30
0
0
SPLINE
5
1C3
100
AcDbEntity
8
1
62
256
6
ByLayer
370
18
48
1
60
0
100
AcDbSpline
70
4
71
3
72
41
73
37
40
0
40
0
40
0
40
0
40
0.0625000000000002
40
0.0625000000000002
40
0.125000000000001
40
0.125000000000001
40
0.250000000000001
40
0.250000000000001
40
0.312500000000002
40
0.312500000000002
40
0.375000000000003
40
0.375000000000003
40
0.437500000000004
40
0.468750000000004
40
0.468750000000004
40
0.500000000000005
40
0.500000000000005
40
0.562500000000005
40
0.562500000000005
40
0.625000000000006
40
0.625000000000006
40
0.687500000000006
40
0.687500000000006
40
0.750000000000007
40
0.750000000000007
40
0.781250000000005
40
0.781250000000005
40
0.812500000000003
40
0.812500000000003
40
0.875000000000006
40
0.875000000000006
40
0.906250000000005
40
0.906250000000005
40
0.937500000000005
40
0.937500000000005
40
1
40
1
40
1
40
1
41
1
10
149.650480947162
20
23.1162678662813
30
0
41
1
10
149.644530707472
20
23.1241848937813
30
0
41
1
10
149.638734660478
20
23.1320661881957
30
0
41
1
10
149.627462614209
20
23.147753767644
30
0
41
1
10
149.621983627572
20
23.1555655854391
30
0
41
1
10
149.606226071217
20
23.178631905569
30
0
41
1
10
149.59655639816
20
23.1936038516687
30
0
41
1
10
149.583525644729
20
23.2153410699513
30
0
41
1
10
149.579429881242
20
23.2224656317333
30
0
41
1
10
149.571814377828
20
23.236432528452
30
0
41
1
10
149.568318980523
20
23.2432345542667
30
0
41
1
10
149.562151731737
20
23.2562021368563
30
0
41
1
10
149.558116055743
20
23.2654991328193
30
0
41
1
10
149.555124307769
20
23.2740375850837
30
0
41
1
10
149.553390593519
20
23.2795405045763
30
0
41
1
10
149.552653442229
20
23.2822028365407
30
0
41
1
10
149.550910298472
20
23.2897406107658
30
0
41
1
10
149.550352356246
20
23.2942147484462
30
0
41
1
10
149.550659068286
20
23.3018677379397
30
0
41
1
10
149.551551382701
20
23.3050594781876
30
0
41
1
10
149.554942046485
20
23.3096266601916
30
0
41
1
10
149.55744201508
20
23.3110502936695
30
0
41
1
10
149.564147905172
20
23.3119608702213
30
0
41
1
10
149.568227742826
20
23.3114399048523
30
0
41
1
10
149.575359496822
20
23.3093034854219
30
0
41
1
10
149.577906330663
20
23.3083642815711
30
0
41
1
10
149.583336023074
20
23.3060366334102
30
0
41
1
10
149.58621229645
20
23.3046487760986
30
0
41
1
10
149.595094710497
20
23.2999585110491
30
0
41
1
10
149.601422754012
20
23.2961049586608
30
0
41
1
10
149.611436330014
20
23.2893955044811
30
0
41
1
10
149.614876803774
20
23.2869917365588
30
0
41
1
10
149.62181975771
20
23.2819650556368
30
0
41
1
10
149.625327553302
20
23.279339482997
30
0
41
1
10
149.635948792471
20
23.2711611225124
30
0
41
1
10
149.643159471795
20
23.2653086512663
30
0
41
1
10
149.650480947162
20
23.2591159102944
30
0
0
SPLINE
5
1C4
100
AcDbEntity
8
1
62
256
6
ByLayer
370
18
48
1
60
0
100
AcDbSpline
70
4
71
3
72
8
73
4
40
0
40
0
40
0
40
0
40
1
40
1
40
1
40
1
41
1
10
149.650480947162
20
23.2591159102943
30
0
41
1
10
149.875326782245
20
23.068934021325
30
0
41
1
10
150.100089025132
20
22.8786205059019
30
0
41
1
10
150.324759526419
20
22.6881625317606
30
0
0
SPLINE
5
1C5
100
AcDbEntity
8
1
62
256
6
ByLayer
370
18
48
1
60
0
100
AcDbSpline
70
4
71
3
72
8
73
4
40
0
40
0
40
0
40
0
40
1
40
1
40
1
40
1
41
1
10
150.324759526419
20
22.8306924641187
30
0
41
1
10
150.101678442285
20
23.1158055554843
30
0
41
1
10
149.876866272618
20
23.3990877212192
30
0
41
1
10
149.650480947162
20
23.6807059996438
30
0
0
SPLINE
5
1C6
100
AcDbEntity
8
1
62
256
6
ByLayer
370
18
48
1
60
0
100
AcDbSpline
70
4
71
3
72
38
73
34
40
0
40
0
40
0
40
0
40
0.0625000000000031
40
0.0625000000000031
40
0.125000000000006
40
0.125000000000006
40
0.25
40
0.25
40
0.312499999999999
40
0.312499999999999
40
0.374999999999997
40
0.374999999999997
40
0.437499999999995
40
0.437499999999995
40
0.499999999999993
40
0.499999999999993
40
0.562499999999991
40
0.562499999999991
40
0.624999999999989
40
0.624999999999989
40
0.687499999999987
40
0.687499999999987
40
0.749999999999985
40
0.749999999999985
40
0.781249999999985
40
0.781249999999985
40
0.812499999999984
40
0.812499999999984
40
0.87499999999999
40
0.87499999999999
40
0.937499999999995
40
0.937499999999995
40
1
40
1
40
1
40
1
41
1
10
149.650480947162
20
23.6807059996438
30
0
41
1
10
149.644435066045
20
23.6882269404483
30
0
41
1
10
149.638541009106
20
23.695695483584
30
0
41
1
10
149.627070710279
20
23.7105219541039
30
0
41
1
10
149.621478397149
20
23.7179019338329
30
0
41
1
10
149.605382543492
20
23.7396367381099
30
0
41
1
10
149.59552307329
20
23.7536213176676
30
0
41
1
10
149.582291758194
20
23.773688274332
30
0
41
1
10
149.578143409899
20
23.7802241905297
30
0
41
1
10
149.570463431254
20
23.7929350505265
30
0
41
1
10
149.566983467968
20
23.7990266725002
30
0
41
1
10
149.560894095359
20
23.8105111646508
30
0
41
1
10
149.558273629461
20
23.8159211153955
30
0
41
1
10
149.554041861198
20
23.825950531849
30
0
41
1
10
149.552432376484
20
23.8305864249231
30
0
41
1
10
149.550538980103
20
23.8385889334801
30
0
41
1
10
149.550233118891
20
23.8420039082258
30
0
41
1
10
149.551141496283
20
23.8474028832887
30
0
41
1
10
149.552342069685
20
23.8493113044682
30
0
41
1
10
149.556322566542
20
23.8514574493089
30
0
41
1
10
149.559156903261
20
23.851669399241
30
0
41
1
10
149.566155193741
20
23.8503516061786
30
0
41
1
10
149.570327284129
20
23.8488516643686
30
0
41
1
10
149.57754044284
20
23.8454114743375
30
0
41
1
10
149.580121827421
20
23.8440551043979
30
0
41
1
10
149.585487525657
20
23.8410134790059
30
0
41
1
10
149.588275661537
20
23.8393280740417
30
0
41
1
10
149.596927885113
20
23.833822733717
30
0
41
1
10
149.603078037699
20
23.8295564416248
30
0
41
1
10
149.616050433374
20
23.8199786606833
30
0
41
1
10
149.622764082909
20
23.8147458022598
30
0
41
1
10
149.636420273296
20
23.8036638171366
30
0
41
1
10
149.64338911966
20
23.7977944023933
30
0
41
1
10
149.650480947162
20
23.7916390605847
30
0
0
SPLINE
5
1C7
100
AcDbEntity
8
1
62
256
6
ByLayer
370
18
48
1
60
0
100
AcDbSpline
70
4
71
3
72
8
73
4
40
0
40
0
40
0
40
0
40
1
40
1
40
1
40
1
41
1
10
149.650480947162
20
23.7916390605847
30
0
41
1
10
149.875390693943
20
23.5964289589467
30
0
41
1
10
150.100154848045
20
23.4009956122062
30
0
41
1
10
150.324759526419
20
23.205317732739
30
0
0
SPLINE
5
1C8
100
AcDbEntity
8
1
62
256
6
ByLayer
370
18
48
1
60
0
100
AcDbSpline
70
4
71
3
72
8
73
4
40
0
40
0
40
0
40
0
40
1
40
1
40
1
40
1
41
1
10
150.324759526419
20
23.3131399205592
30
0
41
1
10
150.101307459449
20
23.5806365366883
30
0
41
1
10
149.876507770667
20
23.8466150387256
30
0
41
1
10
149.650480947162
20
24.1112111569988
30
0
0
SPLINE
5
1C9
100
AcDbEntity
8
1
62
256
6
ByLayer
370
18
48
1
60
0
100
AcDbSpline
70
4
71
3
72
37
73
33
40
0
40
0
40
0
40
0
40
0.124999999999991
40
0.124999999999991
40
0.249999999999982
40
0.249999999999982
40
0.312499999999986
40
0.312499999999986
40
0.37499999999999
40
0.37499999999999
40
0.437499999999994
40
0.437499999999994
40
0.468749999999992
40
0.468749999999992
40
0.499999999999989
40
0.531249999999986
40
0.531249999999986
40
0.562499999999983
40
0.562499999999983
40
0.624999999999983
40
0.624999999999983
40
0.656249999999986
40
0.656249999999986
40
0.687499999999988
40
0.687499999999988
40
0.749999999999992
40
0.749999999999992
40
0.812499999999997
40
0.812499999999997
40
0.875000000000002
40
0.875000000000002
40
1
40
1
40
1
40
1
41
1
10
149.650480947162
20
24.1112111569988
30
0
41
1
10
149.638202144537
20
24.1255852187196
30
0
41
1
10
149.626485867576
20
24.1397144945016
30
0
41
1
10
149.604552320067
20
24.1671510631424
30
0
41
1
10
149.594502099815
20
24.1802445976573
30
0
41
1
10
149.581082092083
20
24.1987490698127
30
0
41
1
10
149.57688735265
20
24.2047260678895
30
0
41
1
10
149.569160111633
20
24.2162246159387
30
0
41
1
10
149.565703840036
20
24.2216334116336
30
0
41
1
10
149.559712993625
20
24.2316731893737
30
0
41
1
10
149.557175330865
20
24.2363077732505
30
0
41
1
10
149.554189582967
20
24.2425686008368
30
0
41
1
10
149.55333114082
20
24.2445439196837
30
0
41
1
10
149.551945089713
20
24.2481706791228
30
0
41
1
10
149.550880306039
20
24.251491521253
30
0
41
1
10
149.550493173189
20
24.2541672783627
30
0
41
1
10
149.550469840073
20
24.256496877161
30
0
41
1
10
149.55064329357
20
24.2574911476063
30
0
41
1
10
149.551729677775
20
24.2598627622585
30
0
41
1
10
149.553197894126
20
24.2606567256912
30
0
41
1
10
149.556546564706
20
24.2606368151028
30
0
41
1
10
149.557864176504
20
24.26042451909
30
0
41
1
10
149.560849626481
20
24.2595937482392
30
0
41
1
10
149.562509311231
20
24.2589798099641
30
0
41
1
10
149.567961306001
20
24.2565762330214
30
0
41
1
10
149.572230449554
20
24.2542238153655
30
0
41
1
10
149.581924074944
20
24.2481356233888
30
0
41
1
10
149.587203153222
20
24.2444931606367
30
0
41
1
10
149.598484907468
20
24.2362099822939
30
0
41
1
10
149.604518790299
20
24.2315432716224
30
0
41
1
10
149.623400016941
20
24.2163577993818
30
0
41
1
10
149.636681697516
20
24.2049543935819
30
0
41
1
10
149.650480947162
20
24.192604912857
30
0
0
SPLINE
5
1CA
100
AcDbEntity
8
1
62
256
6
ByLayer
370
18
48
1
60
0
100
AcDbSpline
70
4
71
3
72
8
73
4
40
0
40
0
40
0
40
0
40
1
40
1
40
1
40
1
41
1
10
149.650480947162
20
24.192604912857
30
0
41
1
10
149.875470342809
20
23.9912532251724
30
0
41
1
10
150.100236859786
20
23.7895703804286
30
0
41
1
10
150.324759526419
20
23.5875252185432
30
0
0
SPLINE
5
1CB
100
AcDbEntity
8
1
62
256
6
ByLayer
370
18
48
1
60
0
100
AcDbSpline
70
4
71
3
72
8
73
4
40
0
40
0
40
0
40
0
40
1
40
1
40
1
40
1
41
1
10
150.324759526419
20
23.6630274540327
30
0
41
1
10
150.101019214676
20
23.915465453176
30
0
41
1
10
149.876228917632
20
24.1666509399743
30
0
41
1
10
149.650480947162
20
24.4166940319321
30
0
0
SPLINE
5
1CC
100
AcDbEntity
8
1
62
256
6
ByLayer
370
18
48
1
60
0
100
AcDbSpline
70
4
71
3
72
37
73
33
40
0
40
0
40
0
40
0
40
0.062499999999982
40
0.062499999999982
40
0.124999999999964
40
0.124999999999964
40
0.249999999999943
40
0.249999999999943
40
0.312499999999937
40
0.312499999999937
40
0.374999999999932
40
0.406249999999934
40
0.406249999999934
40
0.437499999999936
40
0.437499999999936
40
0.499999999999939
40
0.499999999999939
40
0.531249999999942
40
0.531249999999942
40
0.562499999999945
40
0.562499999999945
40
0.624999999999952
40
0.624999999999952
40
0.68749999999996
40
0.68749999999996
40
0.749999999999968
40
0.749999999999968
40
0.812499999999976
40
0.812499999999976
40
0.874999999999984
40
0.874999999999984
40
1
40
1
40
1
40
1
41
1
10
149.650480947162
20
24.4166940319321
30
0
41
1
10
149.644233516261
20
24.423613814803
30
0
41
1
10
149.638128791671
20
24.4304472421314
30
0
41
1
10
149.626224587923
20
24.4439282469409
30
0
41
1
10
149.620408632679
20
24.450595339845
30
0
41
1
10
149.603696944729
20
24.4700187730243
30
0
41
1
10
149.593459438986
20
24.4822776869186
30
0
41
1
10
149.579801977809
20
24.4993597909764
30
0
41
1
10
149.575513158026
20
24.5048653228663
30
0
41
1
10
149.56782727776
20
24.5150761747944
30
0
41
1
10
149.562698992221
20
24.5221718288953
30
0
41
1
10
149.55866279162
20
24.5283005792951
30
0
41
1
10
149.556240243351
20
24.5321488241226
30
0
41
1
10
149.555161120897
20
24.5339584350353
30
0
41
1
10
149.552417952635
20
24.538902163593
30
0
41
1
10
149.551221826353
20
24.5415884195278
30
0
41
1
10
149.550485616375
20
24.5445985953602
30
0
41
1
10
149.55041909126
20
24.5454340249252
30
0
41
1
10
149.550661814729
20
24.546712836988
30
0
41
1
10
149.550968230582
20
24.5471605417457
30
0
41
1
10
149.552439131489
20
24.5479324593429
30
0
41
1
10
149.554154903999
20
24.5476875862857
30
0
41
1
10
149.559095757758
20
24.5456300292884
30
0
41
1
10
149.562230525272
20
24.5438567909983
30
0
41
1
10
149.569682176899
20
24.5389883407308
30
0
41
1
10
149.574051131848
20
24.5358516153745
30
0
41
1
10
149.583612877603
20
24.5285570395084
30
0
41
1
10
149.58879748384
20
24.524411002247
30
0
41
1
10
149.599860114334
20
24.5152650369469
30
0
41
1
10
149.605784818522
20
24.5102235776685
30
0
41
1
10
149.624098620595
20
24.4942917137728
30
0
41
1
10
149.637015243456
20
24.4826211375574
30
0
41
1
10
149.650480947162
20
24.4701429912251
30
0
0
SPLINE
5
1CD
100
AcDbEntity
8
1
62
256
6
ByLayer
370
18
48
1
60
0
100
AcDbSpline
70
4
71
3
72
8
73
4
40
0
40
0
40
0
40
0
40
1
40
1
40
1
40
1
41
1
10
149.650480947162
20
24.4701429912251
30
0
41
1
10
149.875567648883
20
24.261563858413
30
0
41
1
10
150.10033706691
20
24.052529886021
30
0
41
1
10
150.324759526419
20
23.8429985339377
30
0
0
SPLINE
5
1CE
100
AcDbEntity
8
1
62
256
6
ByLayer
370
18
48
1
60
0
100
AcDbSpline
70
4
71
3
72
8
73
4
40
0
40
0
40
0
40
0
40
1
40
1
40
1
40
1
41
1
10
150.324759526419
20
23.8877233606906
30
0
41
1
10
150.100791090601
20
24.1271433496646
30
0
41
1
10
149.876008003165
20
24.365539395738
30
0
41
1
10
149.650480947162
20
24.6030003410687
30
0
0
SPLINE
5
1CF
100
AcDbEntity
8
1
62
256
6
ByLayer
370
18
48
1
60
0
100
AcDbSpline
70
4
71
3
72
37
73
33
40
0
40
0
40
0
40
0
40
0.124999999999996
40
0.124999999999996
40
0.187499999999995
40
0.187499999999995
40
0.249999999999994
40
0.249999999999994
40
0.312499999999992
40
0.343749999999992
40
0.343749999999992
40
0.374999999999991
40
0.374999999999991
40
0.437499999999991
40
0.437499999999991
40
0.468749999999992
40
0.468749999999992
40
0.499999999999992
40
0.499999999999992
40
0.562499999999994
40
0.562499999999994
40
0.624999999999997
40
0.624999999999997
40
0.6875
40
0.6875
40
0.750000000000003
40
0.750000000000003
40
0.812500000000005
40
0.812500000000005
40
0.875000000000008
40
0.875000000000008
40
1
40
1
40
1
40
1
41
1
10
149.650480947162
20
24.6030003410687
30
0
41
1
10
149.637713524711
20
24.6164433587639
30
0
41
1
10
149.625555134204
20
24.6293990848531
30
0
41
1
10
149.60856985031
20
24.6477688699767
30
0
41
1
10
149.603108564082
20
24.6537238617302
30
0
41
1
10
149.592645038061
20
24.665246912038
30
0
41
1
10
149.587628553198
20
24.6708318448446
30
0
41
1
10
149.578394061833
20
24.6812540907376
30
0
41
1
10
149.572016535815
20
24.6885648297587
30
0
41
1
10
149.566579562048
20
24.6950058114142
30
0
41
1
10
149.563185659207
20
24.6990862291312
30
0
41
1
10
149.561600856608
20
24.701023888925
30
0
41
1
10
149.557303071354
20
24.7063893319175
30
0
41
1
10
149.555014755975
20
24.7094065301888
30
0
41
1
10
149.552553203198
20
24.7129894842044
30
0
41
1
10
149.551893247071
20
24.7140301161121
30
0
41
1
10
149.550941407315
20
24.7157401602281
30
0
41
1
10
149.550646743412
20
24.7164124694585
30
0
41
1
10
149.550307456757
20
24.7178803359903
30
0
41
1
10
149.550804218982
20
24.718130145352
30
0
41
1
10
149.553323180194
20
24.7170929258183
30
0
41
1
10
149.555303382755
20
24.7158212919823
30
0
41
1
10
149.560517793468
20
24.7119566589436
30
0
41
1
10
149.563756830219
20
24.7093608741004
30
0
41
1
10
149.571431586465
20
24.7029148992643
30
0
41
1
10
149.575773222109
20
24.6991432590715
30
0
41
1
10
149.585223568068
20
24.6907486294532
30
0
41
1
10
149.59034747327
20
24.6861125346098
30
0
41
1
10
149.601310018783
20
24.6760560925483
30
0
41
1
10
149.607046357809
20
24.6707294245965
30
0
41
1
10
149.624771194315
20
24.6541190568006
30
0
41
1
10
149.637325338164
20
24.6421616074535
30
0
41
1
10
149.650480947162
20
24.6294893682052
30
0
0
SPLINE
5
1D0
100
AcDbEntity
8
1
62
256
6
ByLayer
370
18
48
1
60
0
100
AcDbSpline
70
4
71
3
72
8
73
4
40
0
40
0
40
0
40
0
40
1
40
1
40
1
40
1
41
1
10
149.650480947162
20
24.6294893682052
30
0
41
1
10
149.875685997486
20
24.4125589107663
30
0
41
1
10
150.100458994954
20
24.1950332762276
30
0
41
1
10
150.324759526419
20
23.9768567932094
30
0
0
SPLINE
5
1D1
100
AcDbEntity
8
1
62
256
6
ByLayer
370
18
48
1
60
0
100
AcDbSpline
70
4
71
3
72
8
73
4
40
0
40
0
40
0
40
0
40
1
40
1
40
1
40
1
41
1
10
150.324759526419
20
23.9916716944554
30
0
41
1
10
150.100607863251
20
24.2197546698703
30
0
41
1
10
149.875830405165
20
24.4470125106991
30
0
41
1
10
149.650480947162
20
24.6735161477101
30
0
0
SPLINE
5
1D2
100
AcDbEntity
8
1
62
256
6
ByLayer
370
18
48
1
60
0
100
AcDbSpline
70
4
71
3
72
24
73
20
40
0
40
0
40
0
40
0
40
0.125028419249471
40
0.125028419249471
40
0.250056838498942
40
0.250056838498942
40
0.500113676997913
40
0.500113676997913
40
0.625142096247387
40
0.625142096247387
40
0.687656305872124
40
0.687656305872124
40
0.75017051549686
40
0.75017051549686
40
0.875198934746334
40
0.875198934746334
40
0.937713144371074
40
0.937713144371074
40
1
40
1
40
1
40
1
41
1
10
149.650480947162
20
24.6735161477101
30
0
41
1
10
149.643995528497
20
24.680034782936
30
0
41
1
10
149.637641930968
20
24.6864240983019
30
0
41
1
10
149.625223781212
20
24.6989177330077
30
0
41
1
10
149.619159362558
20
24.7050219490501
30
0
41
1
10
149.601760540395
20
24.7225422830353
30
0
41
1
10
149.591092877904
20
24.7332946246379
30
0
41
1
10
149.576962978984
20
24.7475455477892
30
0
41
1
10
149.572665768936
20
24.7518812199189
30
0
41
1
10
149.566937041454
20
24.7576626687882
30
0
41
1
10
149.565146159727
20
24.7594703034828
30
0
41
1
10
149.561821741835
20
24.7628262012979
30
0
41
1
10
149.560285385347
20
24.7643773132457
30
0
41
1
10
149.556170769704
20
24.7685318245771
30
0
41
1
10
149.554054662599
20
24.7706689842459
30
0
41
1
10
149.551904777519
20
24.772840385565
30
0
41
1
10
149.551358069514
20
24.7733926014472
30
0
41
1
10
149.550643985671
20
24.7741138892638
30
0
41
1
10
149.550472424772
20
24.7742871878252
30
0
41
1
10
149.5504812719
20
24.7742782512342
30
0
0
SPLINE
5
1D3
100
AcDbEntity
8
1
62
256
6
ByLayer
370
13
48
1
60
0
100
AcDbSpline
70
4
71
3
72
34
73
30
40
0
40
0
40
0
40
0
40
0.0624999999999999
40
0.0624999999999999
40
0.125
40
0.15625
40
0.15625
40
0.1875
40
0.1875
40
0.25
40
0.25
40
0.375
40
0.40625
40
0.40625
40
0.4375
40
0.4375
40
0.5
40
0.5
40
0.625
40
0.625
40
0.6875
40
0.6875
40
0.75
40
0.75
40
0.875
40
0.875
40
0.9375
40
0.9375
40
1
40
1
40
1
40
1
41
1
10
148
20
24.9999999999995
30
0
41
1
10
148.014812739614
20
24.9999999999995
30
0
41
1
10
148.029622238173
20
24.996724135879
30
0
41
1
10
148.059139800026
20
24.983637197473
30
0
41
1
10
148.081206597765
20
24.9689207780155
30
0
41
1
10
148.103081239536
20
24.9468494149338
30
0
41
1
10
148.117611926543
20
24.9304980569004
30
0
41
1
10
148.124852375046
20
24.9215017564261
30
0
41
1
10
148.146457520478
20
24.8920857452441
30
0
41
1
10
148.160712834101
20
24.869233262533
30
0
41
1
10
148.20291630061
20
24.7909839098413
30
0
41
1
10
148.237152682465
20
24.7096352615534
30
0
41
1
10
148.269682158228
20
24.6080642925886
30
0
41
1
10
148.282544446913
20
24.5658113771969
30
0
41
1
10
148.288902986091
20
24.5438661551313
30
0
41
1
10
148.3077213716
20
24.4756414302043
30
0
41
1
10
148.31991839485
20
24.4269981302985
30
0
41
1
10
148.355312517614
20
24.2716211294441
30
0
41
1
10
148.377321211601
20
24.155450064225
30
0
41
1
10
148.40722530712
20
23.9622722142655
30
0
41
1
10
148.41667329215
20
23.8947236348506
30
0
41
1
10
148.43437761318
20
23.7532778952803
30
0
41
1
10
148.442617490402
20
23.6795117451558
30
0
41
1
10
148.465247523275
20
23.4491666082549
30
0
41
1
10
148.477575832709
20
23.2835274913184
30
0
41
1
10
148.490600456538
20
23.0169088242283
30
0
41
1
10
148.494026128838
20
22.9249759938861
30
0
41
1
10
148.498725623193
20
22.7351579663391
30
0
41
1
10
148.5
20
22.6373314104561
30
0
41
1
10
148.5
20
22.5365853658619
30
0
0
SPLINE
5
1D4
100
AcDbEntity
8
1
62
256
6
ByLayer
370
18
48
1
60
0
100
AcDbSpline
70
4
71
3
72
73
73
69
40
0
40
0
40
0
40
0
40
0.0173685652626429
40
0.0346693658320719
40
0.0519023857450232
40
0.0690676086282236
40
0.0861650177047592
40
0.103194595800468
40
0.120156325350305
40
0.137050188404719
40
0.153876166636001
40
0.170634241344653
40
0.187324393465714
40
0.203946603575094
40
0.220500851895897
40
0.236987118304732
40
0.25340538233801
40
0.269755623198208
40
0.286037819760155
40
0.302251950577264
40
0.31839799388778
40
0.334475927620996
40
0.350485729403433
40
0.366427376565046
40
0.382300846145363
40
0.398106114899632
40
0.413843159304948
40
0.429511955566335
40
0.445112479622837
40
0.460644707153556
40
0.476108613583687
40
0.491504174090518
40
0.506831363609425
40
0.522090156839799
40
0.537280528250995
40
0.552402452088228
40
0.567455902378441
40
0.582440852936164
40
0.597357277369313
40
0.612205149084998
40
0.626984441295279
40
0.641695127022883
40
0.656337179106936
40
0.670910570208592
40
0.685415272816712
40
0.699851259253442
40
0.714218501679808
40
0.728516972101257
40
0.742746642373157
40
0.756907484206298
40
0.77099946917232
40
0.785022568709134
40
0.798976754126302
40
0.812861996610377
40
0.826678267230228
40
0.840425536942296
40
0.854103776595858
40
0.867712956938224
40
0.88125304861991
40
0.894724022199777
40
0.908125848150138
40
0.921458496861826
40
0.934721938649219
40
0.947916143755237
40
0.961041082356316
40
0.974096724567317
40
0.987083040446425
40
1
40
1
40
1
40
1
41
1
10
148.067675282232
20
22.7547511370662
30
0
41
1
10
148.066970994684
20
22.7437790593187
30
0
41
1
10
148.065565167416
20
22.7218777121658
30
0
41
1
10
148.063493924058
20
22.6888038938665
30
0
41
1
10
148.061455391542
20
22.6556525193592
30
0
41
1
10
148.059451921734
20
22.6224061037306
30
0
41
1
10
148.057482862837
20
22.5890731214164
30
0
41
1
10
148.055548358859
20
22.555655113183
30
0
41
1
10
148.053648337597
20
22.5221554478726
30
0
41
1
10
148.05178278024
20
22.4885769886025
30
0
41
1
10
148.049951649607
20
22.4549227144024
30
0
41
1
10
148.048154909302
20
22.4211955546535
30
0
41
1
10
148.046392518658
20
22.3873984331971
30
0
41
1
10
148.044664434127
20
22.3535342566003
30
0
41
1
10
148.042970608955
20
22.3196059172931
30
0
41
1
10
148.041310993316
20
22.2856162927461
30
0
41
1
10
148.039685534317
20
22.2515682457031
30
0
41
1
10
148.038094176042
20
22.2174646241312
30
0
41
1
10
148.036536859588
20
22.1833082612479
30
0
41
1
10
148.035013523097
20
22.149101975527
30
0
41
1
10
148.033524101796
20
22.1148485707103
30
0
41
1
10
148.032068528028
20
22.0805508358181
30
0
41
1
10
148.030646731289
20
22.0462115451595
30
0
41
1
10
148.029258638265
20
22.011833458344
30
0
41
1
10
148.027904172866
20
21.9774193202918
30
0
41
1
10
148.026583256264
20
21.9429718612449
30
0
41
1
10
148.025295806922
20
21.9084937967785
30
0
41
1
10
148.02404174064
20
21.8739878278118
30
0
41
1
10
148.022820970579
20
21.8394566406197
30
0
41
1
10
148.021633407305
20
21.8049029068442
30
0
41
1
10
148.020478958822
20
21.7703292835058
30
0
41
1
10
148.019357530603
20
21.7357384130153
30
0
41
1
10
148.018269025633
20
21.7011329231855
30
0
41
1
10
148.01721334444
20
21.6665154272435
30
0
41
1
10
148.016190385127
20
21.6318885238425
30
0
41
1
10
148.015200043416
20
21.5972547970743
30
0
41
1
10
148.014242212674
20
21.5626168164815
30
0
41
1
10
148.013316783954
20
21.52797713707
30
0
41
1
10
148.012423646026
20
21.4933382993223
30
0
41
1
10
148.011562685417
20
21.4587028292097
30
0
41
1
10
148.01073378644
20
21.4240732382056
30
0
41
1
10
148.009936831233
20
21.3894520232992
30
0
41
1
10
148.009171699792
20
21.3548416670082
30
0
41
1
10
148.008438270005
20
21.3202446373929
30
0
41
1
10
148.007736417687
20
21.2856633880699
30
0
41
1
10
148.007066016616
20
21.2511003582263
30
0
41
1
10
148.006426938565
20
21.2165579726335
30
0
41
1
10
148.005819053336
20
21.182038641662
30
0
41
1
10
148.005242228796
20
21.1475447612959
30
0
41
1
10
148.004696330911
20
21.1130787131476
30
0
41
1
10
148.004181223776
20
21.0786428644734
30
0
41
1
10
148.003696769654
20
21.0442395681881
30
0
41
1
10
148.003242829006
20
21.0098711628811
30
0
41
1
10
148.002819260524
20
20.9755399728315
30
0
41
1
10
148.002425921168
20
20.9412483080266
30
0
41
1
10
148.002062666197
20
20.9069984641689
30
0
41
1
10
148.001729349193
20
20.8727927227263
30
0
41
1
10
148.001425822132
20
20.8386333508237
30
0
41
1
10
148.001151935291
20
20.8045226017253
30
0
41
1
10
148.000907537724
20
20.7704627131276
30
0
41
1
10
148.000692475666
20
20.7364559135619
30
0
41
1
10
148.000506598586
20
20.7025043987679
30
0
41
1
10
148.000349736934
20
20.6686104192701
30
0
41
1
10
148.000221784686
20
20.6347759561664
30
0
41
1
10
148.000122393851
20
20.6010039217182
30
0
41
1
10
148.00005210575
20
20.567293714044
30
0
41
1
10
148.000008162608
20
20.5336576759847
30
0
41
1
10
148.000002716008
20
20.5111991810328
30
0
41
1
10
148
20
20.4999999999995
30
0
0
SPLINE
5
1D5
100
AcDbEntity
8
1
62
256
6
ByLayer
370
18
48
1
60
0
100
AcDbSpline
70
4
71
1
72
4
73
2
40
0
40
0
40
1
40
1
41
1
10
147.5
20
20.9183673469382
30
0
41
1
10
148
20
20.4999999999994
30
0
0
SPLINE
5
1D6
100
AcDbEntity
8
1
62
256
6
ByLayer
370
18
48
1
60
0
100
AcDbSpline
70
4
71
3
72
51
73
47
40
0
40
0
40
0
40
0
40
0.0163698658227556
40
0.0328016119007479
40
0.0492952623575901
40
0.0658508410462714
40
0.0824683715531076
40
0.0991478772015861
40
0.115889381056156
40
0.132692905925976
40
0.149558474368561
40
0.166486108693374
40
0.183475830965383
40
0.200527663008522
40
0.217641626409105
40
0.234817742519192
40
0.252056032459867
40
0.26935651712451
40
0.286719217181959
40
0.304144153079655
40
0.321631345046717
40
0.339180813096971
40
0.356792577031925
40
0.374466656443695
40
0.392203070717891
40
0.410001839036428
40
0.427862980380329
40
0.445786513532442
40
0.463772457080143
40
0.481820829417984
40
0.499931648750275
40
0.531729742561769
40
0.563747425027471
40
0.595984789744238
40
0.628441928408118
40
0.661118930864687
40
0.694015885157785
40
0.727132877576663
40
0.76046999270163
40
0.794027313448234
40
0.827804921110051
40
0.86180289540015
40
0.896021314491218
40
0.930460255054464
40
0.96511979229733
40
1
40
1
40
1
40
1
41
1
10
147.5
20
20.9183673469382
30
0
41
1
10
147.500010032665
20
20.9315221621954
30
0
41
1
10
147.50003013592
20
20.9578815196491
30
0
41
1
10
147.500172268434
20
20.9972726393063
30
0
41
1
10
147.500396275852
20
21.0366474215531
30
0
41
1
10
147.500710285225
20
21.0759875467448
30
0
41
1
10
147.501112106629
20
21.1152949764785
30
0
41
1
10
147.501602330167
20
21.1545661901962
30
0
41
1
10
147.502180796846
20
21.1937991273887
30
0
41
1
10
147.50284754952
20
21.2329913169704
30
0
41
1
10
147.503602576652
20
21.2721403813103
30
0
41
1
10
147.504445881362
20
21.3112439004139
30
0
41
1
10
147.505377462823
20
21.3502994485111
30
0
41
1
10
147.506397321267
20
21.389304584191
30
0
41
1
10
147.507505456645
20
21.4282568530548
30
0
41
1
10
147.508701868979
20
21.467153786997
30
0
41
1
10
147.509986558276
20
21.5059929043959
30
0
41
1
10
147.511359524545
20
21.5447717100606
30
0
41
1
10
147.512820767793
20
21.5834876952447
30
0
41
1
10
147.514370288031
20
21.6221383376435
30
0
41
1
10
147.516008085265
20
21.6607211013966
30
0
41
1
10
147.517734159505
20
21.6992334370904
30
0
41
1
10
147.519548510757
20
21.7376727817619
30
0
41
1
10
147.521451139038
20
21.7760365589049
30
0
41
1
10
147.523442044323
20
21.8143221784686
30
0
41
1
10
147.525521226744
20
21.852527036894
30
0
41
1
10
147.527688685841
20
21.8906485170101
30
0
41
1
10
147.529944423382
20
21.9286839884619
30
0
41
1
10
147.532288432771
20
21.9666308061497
30
0
41
1
10
147.53472073879
20
22.0044863161333
30
0
41
1
10
147.537873309971
20
22.0517171881034
30
0
41
1
10
147.541838989512
20
22.1081879219395
30
0
41
1
10
147.546731421531
20
22.1736906151845
30
0
41
1
10
147.551898535712
20
22.2389257212347
30
0
41
1
10
147.55734037521
20
22.3038766023263
30
0
41
1
10
147.563056928704
20
22.3685264772539
30
0
41
1
10
147.569048199042
20
22.4328584026168
30
0
41
1
10
147.575314187376
20
22.4968552674567
30
0
41
1
10
147.58185488724
20
22.5604998357511
30
0
41
1
10
147.588670324646
20
22.6237745821823
30
0
41
1
10
147.595760402152
20
22.6866623144911
30
0
41
1
10
147.60312548785
20
22.7491438295756
30
0
41
1
10
147.610764195354
20
22.8112067491159
30
0
41
1
10
147.618681749719
20
22.8728122261415
30
0
41
1
10
147.626858463382
20
22.9340204025345
30
0
41
1
10
147.63251388199
20
22.974224324903
30
0
41
1
10
147.635350564464
20
22.9943900756369
30
0
0
SPLINE
5
1D7
100
AcDbEntity
8
1
62
256
6
ByLayer
370
18
48
1
60
0
100
AcDbSpline
70
4
71
3
72
55
73
51
40
0
40
0
40
0
40
0
40
0.0079245655345783
40
0.0159114253084012
40
0.0239605829212847
40
0.0320720418900571
40
0.0402458056510963
40
0.0484818775627481
40
0.0567802609076743
40
0.0651409588951036
40
0.073563974662993
40
0.0820493112801276
40
0.0905969717481253
40
0.099206959003389
40
0.107879275918966
40
0.116613925306361
40
0.125410909917276
40
0.154479422763259
40
0.184954478282284
40
0.216836148163241
40
0.250124494582527
40
0.30630053375266
40
0.366464850257788
40
0.430617606472867
40
0.498758926831092
40
0.554560544510239
40
0.614775322165124
40
0.67940325612816
40
0.74844433078931
40
0.756529661225179
40
0.765004342929402
40
0.773868375905948
40
0.783121760149294
40
0.79276449564557
40
0.802796582373484
40
0.81321802030507
40
0.824028809406309
40
0.835228949637628
40
0.846818440954335
40
0.858797283306961
40
0.871165476641574
40
0.883923020900011
40
0.897069916020117
40
0.910606161935911
40
0.924531758577755
40
0.938846705872486
40
0.953551003743539
40
0.968644652111046
40
0.984127650891938
40
1
40
1
40
1
40
1
41
1
10
147.635350564464
20
22.9943900756369
30
0
41
1
10
147.636827231209
20
23.0048101163508
30
0
41
1
10
147.639792172631
20
23.0257321087054
30
0
41
1
10
147.644187677625
20
23.0569385932364
30
0
41
1
10
147.648567480635
20
23.0881650731178
30
0
41
1
10
147.652926486448
20
23.1193839852773
30
0
41
1
10
147.657266076186
20
23.1505951298858
30
0
41
1
10
147.661585875399
20
23.1817908172802
30
0
41
1
10
147.665885985496
20
23.2129653154661
30
0
41
1
10
147.670166378896
20
23.2441122893144
30
0
41
1
10
147.674427063057
20
23.2752254944768
30
0
41
1
10
147.678668035641
20
23.3062985893323
30
0
41
1
10
147.682889298113
20
23.3373251855375
30
0
41
1
10
147.687090846582
20
23.3682988354855
30
0
41
1
10
147.691272694941
20
23.3992130309977
30
0
41
1
10
147.695434790658
20
23.43006122112
30
0
41
1
10
147.702749531823
20
23.4844034635151
30
0
41
1
10
147.713202997964
20
23.5624587972594
30
0
41
1
10
147.726687452156
20
23.6634130587569
30
0
41
1
10
147.740315176372
20
23.7652105530396
30
0
41
1
10
147.757060675379
20
23.8892768552798
30
0
41
1
10
147.776818712095
20
24.0336161723129
30
0
41
1
10
147.799459956364
20
24.1940645144838
30
0
41
1
10
147.82250506025
20
24.3494711028515
30
0
41
1
10
147.844080926517
20
24.4849394003196
30
0
41
1
10
147.864458435076
20
24.6024163086362
30
0
41
1
10
147.88388942393
20
24.7036775557663
30
0
41
1
10
147.904230575193
20
24.7961499467153
30
0
41
1
10
147.918777827684
20
24.8510224692618
30
0
41
1
10
147.927463692301
20
24.8797034882569
30
0
41
1
10
147.930035638375
20
24.8879379258378
30
0
41
1
10
147.93271897357
20
24.896239499573
30
0
41
1
10
147.935513501391
20
24.904566180392
30
0
41
1
10
147.938419276188
20
24.9128740548782
30
0
41
1
10
147.94143628084
20
24.9211173469689
30
0
41
1
10
147.944564518854
20
24.9292484106843
30
0
41
1
10
147.947803988062
20
24.9372177315425
30
0
41
1
10
147.951154688067
20
24.9449739258946
30
0
41
1
10
147.954616618106
20
24.9524637415517
30
0
41
1
10
147.958189777629
20
24.959632057819
30
0
41
1
10
147.961874166129
20
24.9664218893891
30
0
41
1
10
147.965669783141
20
24.9727743777804
30
0
41
1
10
147.969576628361
20
24.9786288341045
30
0
41
1
10
147.973594701092
20
24.9839225843723
30
0
41
1
10
147.977724002382
20
24.9885915879317
30
0
41
1
10
147.981964526669
20
24.992568048433
30
0
41
1
10
147.986316294249
20
24.9957897271059
30
0
41
1
10
147.990779225129
20
24.9981637903868
30
0
41
1
10
147.995353628535
20
24.9997071335426
30
0
41
1
10
147.998438441113
20
24.9999015730394
30
0
41
1
10
148
20
24.9999999999995
30
0
0
SPLINE
5
1D8
100
AcDbEntity
8
SK1
62
256
6
ByLayer
370
18
48
1
60
0
100
AcDbSpline
70
4
71
3
72
11
73
7
40
0
40
0
40
0
40
0
40
0.242589954178611
40
0.502544718947534
40
0.761087572808619
40
1
40
1
40
1
40
1
41
1
10
-0.199999999999932
20
17.5545583467655
30
0
41
1
10
-0.200957889270285
20
17.5289140231062
30
0
41
1
10
-0.211248315226158
20
17.4799022728818
30
0
41
1
10
-0.255179720944057
20
17.4139496110851
30
0
41
1
10
-0.321113897423714
20
17.3707504109673
30
0
41
1
10
-0.369683795840132
20
17.3607068368228
30
0
41
1
10
-0.394913799811235
20
17.359780267379
30
0
0
SPLINE
5
1D9
100
AcDbEntity
8
SK1
62
256
6
ByLayer
370
18
48
1
60
0
100
AcDbSpline
70
4
71
3
72
11
73
7
40
0
40
0
40
0
40
0
40
0.238912427113142
40
0.497455280942537
40
0.757410045745086
40
1
40
1
40
1
40
1
41
1
10
-0.394913799811349
20
-17.3597801301672
30
0
41
1
10
-0.369683795838455
20
-17.3607066995757
30
0
41
1
10
-0.321113897416495
20
-17.3707502735068
30
0
41
1
10
-0.255179720936411
20
-17.4139494728386
30
0
41
1
10
-0.211248315224651
20
-17.4799021334559
30
0
41
1
10
-0.200957889268778
20
-17.5289138828004
30
0
41
1
10
-0.200000000000074
20
-17.5545582060014
30
0
0
SPLINE
5
1DA
100
AcDbEntity
8
SK1
62
256
6
ByLayer
370
18
48
1
60
0
100
AcDbSpline
70
4
71
2
72
6
73
3
40
0
40
0
40
0
40
1
40
1
40
1
41
1
10
-28.4999999999999
20
16.8588088260864
30
0
41
1
10
-29.2499999297871
20
16.4259984461423
30
0
41
1
10
-29.9999999999999
20
15.993187350886
30
0
0
SPLINE
5
1DB
100
AcDbEntity
8
SK1
62
256
6
ByLayer
370
18
48
1
60
0
100
AcDbSpline
70
4
71
2
72
6
73
3
40
0
40
0
40
0
40
1
40
1
40
1
41
1
10
-30.0000000000001
20
-15.9931874249211
30
0
41
1
10
-29.2499999297895
20
-16.4259985176869
30
0
41
1
10
-28.5000000000001
20
-16.8588088951666
30
0
0
SPLINE
5
1DC
100
AcDbEntity
8
SK1
62
256
6
ByLayer
370
18
48
1
60
0
100
AcDbSpline
70
4
71
2
72
6
73
3
40
0
40
0
40
0
40
1
40
1
40
1
41
1
10
-0.394913799811235
20
17.3602209523781
30
0
41
1
10
-1.19497688886892
20
17.3401342706943
30
0
41
1
10
-1.99503997793923
20
17.3200475850767
30
0
0
SPLINE
5
1DD
100
AcDbEntity
8
SK1
62
256
6
ByLayer
370
18
48
1
60
0
100
AcDbSpline
70
4
71
2
72
6
73
3
40
0
40
0
40
0
40
1
40
1
40
1
41
1
10
-1.99503997793937
20
-17.3200478774323
30
0
41
1
10
-1.19497688886904
20
-17.340134563042
30
0
41
1
10
-0.394913799811349
20
-17.3602212447177
30
0
0
SPLINE
5
1DE
100
AcDbEntity
8
SK1
62
256
6
ByLayer
370
18
48
1
60
0
100
AcDbSpline
70
4
71
3
72
13
73
9
40
0
40
0
40
0
40
0
40
0.239505987673083
40
0.368426538155688
40
0.500072261058321
40
0.631705987654816
40
0.760593443052916
40
1
40
1
40
1
40
1
41
1
10
-1.99503997793923
20
17.3252686883829
30
0
41
1
10
-2.02110925982333
20
17.3248665791032
30
0
41
1
10
-2.0588386380993
20
17.3310361992814
30
0
41
1
10
-2.10627567686478
20
17.3540696096462
30
0
41
1
10
-2.13886243911918
20
17.3792256041407
30
0
41
1
10
-2.16563490776909
20
17.4104933211739
30
0
41
1
10
-2.19103207710589
20
17.4566915621889
30
0
41
1
10
-2.1990912192168
20
17.4940488942773
30
0
41
1
10
-2.19999999999993
20
17.5200961072231
30
0
0
SPLINE
5
1DF
100
AcDbEntity
8
SK1
62
256
6
ByLayer
370
18
48
1
60
0
100
AcDbSpline
70
4
71
3
72
13
73
9
40
0
40
0
40
0
40
0
40
0.239406556342956
40
0.368294011542631
40
0.499927738071791
40
0.631573461053609
40
0.76049401174041
40
1
40
1
40
1
40
1
41
1
10
-2.20000000000007
20
-17.5200962264206
30
0
41
1
10
-2.1990912192077
20
-17.494049013599
30
0
41
1
10
-2.19103207709693
20
-17.4566916816953
30
0
41
1
10
-2.16563490775667
20
-17.4104934409328
30
0
41
1
10
-2.13886243910261
20
-17.379225724067
30
0
41
1
10
-2.10627567684708
20
-17.3540697297104
30
0
41
1
10
-2.05883863807631
20
-17.3310363194718
30
0
41
1
10
-2.02110925981125
20
-17.3248666993254
30
0
41
1
10
-1.99503997793937
20
-17.3252688086104
30
0
0
SPLINE
5
1E0
100
AcDbEntity
8
SK1
62
256
6
ByLayer
370
18
48
1
60
0
100
AcDbSpline
70
4
71
2
72
6
73
3
40
0
40
0
40
0
40
1
40
1
40
1
41
1
10
-2.19999999999993
20
17.5148287077807
30
0
41
1
10
-15.3499999982431
20
17.1846805562454
30
0
41
1
10
-28.4999999999999
20
16.8545313165691
30
0
0
SPLINE
5
1E1
100
AcDbEntity
8
SK1
62
256
6
ByLayer
370
18
48
1
60
0
100
AcDbSpline
70
4
71
2
72
6
73
3
40
0
40
0
40
0
40
1
40
1
40
1
41
1
10
-28.5000000000001
20
-16.854531609135
30
0
41
1
10
-15.3499999982429
20
-17.1846808487113
30
0
41
1
10
-2.20000000000007
20
-17.5148290000611
30
0
0
LINE
5
9F
100
AcDbEntity
8
4
62
256
6
ByLayer
370
18
48
0.05
60
0
100
AcDbLine
10
146
20
5
30
0
11
150
21
5
31
0
39
0
210
0
220
0
230
1
0
LINE
5
A1
100
AcDbEntity
8
80
62
256
6
ByLayer
370
18
48
1
60
0
100
AcDbLine
10
0
20
0
30
0
11
-5
21
0
31
0
39
0
210
0
220
0
230
1
0
LINE
5
A2
100
AcDbEntity
8
SK4
62
256
6
ByLayer
370
18
48
0.05
60
0
100
AcDbLine
10
4
20
0
30
0
11
146
21
0
31
0
39
0
210
0
220
0
230
1
0
LINE
5
A4
100
AcDbEntity
8
81
62
256
6
ByLayer
370
18
48
1
60
0
100
AcDbLine
10
150
20
5
30
0
11
155
21
5
31
0
39
0
210
0
220
0
230
1
0
LINE
5
A5
100
AcDbEntity
8
1
62
256
6
ByLayer
370
18
48
1
60
0
100
AcDbLine
10
154.8
20
-1.899495
30
0
11
154.8
21
-7.899495
31
0
39
0
210
0
220
0
230
1
0
LINE
5
A6
100
AcDbEntity
8
1
62
256
6
ByLayer
370
13
48
1
60
0
100
AcDbLine
10
150.324503
20
-7.344995
30
0
11
154.8
21
-7.344995
31
0
39
0
210
0
220
0
230
1
0
LINE
5
A7
100
AcDbEntity
8
1
62
256
6
ByLayer
370
13
48
1
60
0
100
AcDbLine
10
150.324503
20
-2.453995
30
0
11
154.8
21
-2.453995
31
0
39
0
210
0
220
0
230
1
0
LINE
5
A8
100
AcDbEntity
8
1
62
256
6
ByLayer
370
18
48
1
60
0
100
AcDbLine
10
154.8
20
17.899495
30
0
11
154.8
21
11.899495
31
0
39
0
210
0
220
0
230
1
0
LINE
5
A9
100
AcDbEntity
8
1
62
256
6
ByLayer
370
13
48
1
60
0
100
AcDbLine
10
150.324503
20
12.453995
30
0
11
154.8
21
12.453995
31
0
39
0
210
0
220
0
230
1
0
LINE
5
AA
100
AcDbEntity
8
1
62
256
6
ByLayer
370
13
48
1
60
0
100
AcDbLine
10
150.324503
20
17.344995
30
0
11
154.8
21
17.344995
31
0
39
0
210
0
220
0
230
1
0
LINE
5
AB
100
AcDbEntity
8
SK1
62
256
6
ByLayer
370
18
48
1
60
0
100
AcDbLine
10
-0.2
20
-6.078431
30
0
11
-0.2
21
-17.833485
31
0
39
0
210
0
220
0
230
1
0
LINE
5
AD
100
AcDbEntity
8
SK1
62
256
6
ByLayer
370
18
48
1
60
0
100
AcDbLine
10
-0.2
20
17.833485
30
0
11
-0.2
21
6.078432
31
0
39
0
210
0
220
0
230
1
0
LINE
5
AE
100
AcDbEntity
8
SK1
62
256
6
ByLayer
370
13
48
1
60
0
100
AcDbLine
10
-1.307107
20
3.918083
30
0
11
-1.307107
21
-3.918083
31
0
39
0
210
0
220
0
230
1
0
LINE
5
AF
100
AcDbEntity
8
SK1
62
256
6
ByLayer
370
18
48
1
60
0
100
AcDbLine
10
-1.99504
20
17.325269
30
0
11
-1.99504
21
17.320045
31
0
39
0
210
0
220
0
230
1
0
LINE
5
B0
100
AcDbEntity
8
SK1
62
256
6
ByLayer
370
18
48
1
60
0
100
AcDbLine
10
-1.99504
20
-17.320045
30
0
11
-1.99504
21
-17.325269
31
0
39
0
210
0
220
0
230
1
0
LINE
5
B1
100
AcDbEntity
8
1
62
256
6
ByLayer
370
13
48
1
60
0
100
AcDbLine
10
11.461325
20
-7.529667
30
0
11
11.461325
21
-23.83913
31
0
39
0
210
0
220
0
230
1
0
LINE
5
B2
100
AcDbEntity
8
1
62
256
6
ByLayer
370
13
48
1
60
0
100
AcDbLine
10
11.894338
20
-8.055848
30
0
11
11.894338
21
-23.666502
31
0
39
0
210
0
220
0
230
1
0
LINE
5
B3
100
AcDbEntity
8
1
62
256
6
ByLayer
370
13
48
1
60
0
100
AcDbLine
10
8.105662
20
23.666502
30
0
11
8.105662
21
8.055848
31
0
39
0
210
0
220
0
230
1
0
LINE
5
B4
100
AcDbEntity
8
1
62
256
6
ByLayer
370
13
48
1
60
0
100
AcDbLine
10
8.538675
20
23.83913
30
0
11
8.538675
21
7.529667
31
0
39
0
210
0
220
0
230
1
0
LINE
5
B5
100
AcDbEntity
8
1
62
256
6
ByLayer
370
13
48
1
60
0
100
AcDbLine
10
11.461325
20
23.83913
30
0
11
11.461325
21
7.529667
31
0
39
0
210
0
220
0
230
1
0
LINE
5
B6
100
AcDbEntity
8
1
62
256
6
ByLayer
370
13
48
1
60
0
100
AcDbLine
10
11.894338
20
23.666502
30
0
11
11.894338
21
8.055848
31
0
39
0
210
0
220
0
230
1
0
LINE
5
B7
100
AcDbEntity
8
1
62
256
6
ByLayer
370
13
48
1
60
0
100
AcDbLine
10
8.105662
20
-8.055848
30
0
11
8.105662
21
-23.666502
31
0
39
0
210
0
220
0
230
1
0
LINE
5
B8
100
AcDbEntity
8
1
62
256
6
ByLayer
370
13
48
1
60
0
100
AcDbLine
10
8.538675
20
-7.529667
30
0
11
8.538675
21
-23.83913
31
0
39
0
210
0
220
0
230
1
0
LINE
5
B9
100
AcDbEntity
8
1
62
256
6
ByLayer
370
18
48
1
60
0
100
AcDbLine
10
11.461325
20
7.529667
30
0
11
8.538675
21
7.529667
31
0
39
0
210
0
220
0
230
1
0
LINE
5
BA
100
AcDbEntity
8
1
62
256
6
ByLayer
370
18
48
1
60
0
100
AcDbLine
10
8.538675
20
23.83913
30
0
11
11.461325
21
23.83913
31
0
39
0
210
0
220
0
230
1
0
LINE
5
BB
100
AcDbEntity
8
1
62
256
6
ByLayer
370
18
48
1
60
0
100
AcDbLine
10
8.538675
20
-7.529667
30
0
11
11.461325
21
-7.529667
31
0
39
0
210
0
220
0
230
1
0
LINE
5
BC
100
AcDbEntity
8
1
62
256
6
ByLayer
370
18
48
1
60
0
100
AcDbLine
10
11.461325
20
-23.83913
30
0
11
8.538675
21
-23.83913
31
0
39
0
210
0
220
0
230
1
0
LINE
5
BD
100
AcDbEntity
8
1
62
256
6
ByLayer
370
18
48
1
60
0
100
AcDbLine
10
0.3
20
-25
30
0
11
0.3
21
25
31
0
39
0
210
0
220
0
230
1
0
LINE
5
BE
100
AcDbEntity
8
1
62
256
6
ByLayer
370
18
48
1
60
0
100
AcDbLine
10
0
20
-24.7
30
0
11
0
21
24.7
31
0
39
0
210
0
220
0
230
1
0
LINE
5
BF
100
AcDbEntity
8
1
62
256
6
ByLayer
370
13
48
1
60
0
100
AcDbLine
10
145.8
20
25
30
0
11
145.8
21
-25
31
0
39
0
210
0
220
0
230
1
0
LINE
5
C0
100
AcDbEntity
8
1
62
256
6
ByLayer
370
18
48
1
60
0
100
AcDbLine
10
146
20
24.8
30
0
11
146
21
-24.8
31
0
39
0
210
0
220
0
230
1
0
LINE
5
C1
100
AcDbEntity
8
1
62
256
6
ByLayer
370
13
48
1
60
0
100
AcDbLine
10
154.8
20
-1.899495
30
0
11
154.8
21
-4.899495
31
0
39
0
210
0
220
0
230
1
0
LINE
5
C2
100
AcDbEntity
8
1
62
256
6
ByLayer
370
13
48
1
60
0
100
AcDbLine
10
154.8
20
-4.899495
30
0
11
154.8
21
-7.899495
31
0
39
0
210
0
220
0
230
1
0
LINE
5
C3
100
AcDbEntity
8
1
62
256
6
ByLayer
370
18
48
1
60
0
100
AcDbLine
10
161
20
-9.299495
30
0
11
161
21
-4.899495
31
0
39
0
210
0
220
0
230
1
0
LINE
5
C4
100
AcDbEntity
8
1
62
256
6
ByLayer
370
18
48
1
60
0
100
AcDbLine
10
161
20
-4.899495
30
0
11
161
21
-0.499495
31
0
39
0
210
0
220
0
230
1
0
LINE
5
C5
100
AcDbEntity
8
1
62
256
6
ByLayer
370
13
48
1
60
0
100
AcDbLine
10
160.4
20
0.100505
30
0
11
160.4
21
-4.899495
31
0
39
0
210
0
220
0
230
1
0
LINE
5
C6
100
AcDbEntity
8
1
62
256
6
ByLayer
370
13
48
1
60
0
100
AcDbLine
10
160.4
20
-4.899495
30
0
11
160.4
21
-9.899495
31
0
39
0
210
0
220
0
230
1
0
LINE
5
C7
100
AcDbEntity
8
1
62
256
6
ByLayer
370
18
48
1
60
0
100
AcDbLine
10
155
20
-9.899495
30
0
11
155
21
-4.899495
31
0
39
0
210
0
220
0
230
1
0
LINE
5
C8
100
AcDbEntity
8
1
62
256
6
ByLayer
370
18
48
1
60
0
100
AcDbLine
10
155
20
-4.899495
30
0
11
155
21
0.100505
31
0
39
0
210
0
220
0
230
1
0
LINE
5
C9
100
AcDbEntity
8
1
62
256
6
ByLayer
370
13
48
1
60
0
100
AcDbLine
10
154.8
20
17.899495
30
0
11
154.8
21
11.899495
31
0
39
0
210
0
220
0
230
1
0
LINE
5
CA
100
AcDbEntity
8
1
62
256
6
ByLayer
370
18
48
1
60
0
100
AcDbLine
10
155
20
19.899495
30
0
11
155
21
9.899495
31
0
39
0
210
0
220
0
230
1
0
LINE
5
CB
100
AcDbEntity
8
1
62
256
6
ByLayer
370
13
48
1
60
0
100
AcDbLine
10
160.4
20
19.899495
30
0
11
160.4
21
9.899495
31
0
39
0
210
0
220
0
230
1
0
LINE
5
CC
100
AcDbEntity
8
1
62
256
6
ByLayer
370
18
48
1
60
0
100
AcDbLine
10
161
20
19.299495
30
0
11
161
21
10.499495
31
0
39
0
210
0
220
0
230
1
0
LINE
5
CD
100
AcDbEntity
8
1
62
256
6
ByLayer
370
18
48
1
60
0
100
AcDbLine
10
150.32476
20
-13.976857
30
0
11
150.32476
21
-13.887542
31
0
39
0
210
0
220
0
230
1
0
LINE
5
CE
100
AcDbEntity
8
1
62
256
6
ByLayer
370
18
48
1
60
0
100
AcDbLine
10
150.32476
20
23.887542
30
0
11
150.32476
21
23.976857
31
0
39
0
210
0
220
0
230
1
0
LINE
5
CF
100
AcDbEntity
8
1
62
256
6
ByLayer
370
13
48
1
60
0
100
AcDbLine
10
149.650481
20
24.602807
30
0
11
149.650481
21
24.629489
31
0
39
0
210
0
220
0
230
1
0
LINE
5
D0
100
AcDbEntity
8
1
62
256
6
ByLayer
370
13
48
1
60
0
100
AcDbLine
10
149.650481
20
-14.629489
30
0
11
149.650481
21
-14.602807
31
0
39
0
210
0
220
0
230
1
0
LINE
5
D1
100
AcDbEntity
8
1
62
256
6
ByLayer
370
18
48
1
60
0
100
AcDbLine
10
150.32476
20
-13.842999
30
0
11
150.32476
21
-13.662842
31
0
39
0
210
0
220
0
230
1
0
LINE
5
D2
100
AcDbEntity
8
1
62
256
6
ByLayer
370
18
48
1
60
0
100
AcDbLine
10
150.32476
20
23.662842
30
0
11
150.32476
21
23.842999
31
0
39
0
210
0
220
0
230
1
0
LINE
5
D3
100
AcDbEntity
8
1
62
256
6
ByLayer
370
13
48
1
60
0
100
AcDbLine
10
149.650481
20
24.416627
30
0
11
149.650481
21
24.470143
31
0
39
0
210
0
220
0
230
1
0
LINE
5
D4
100
AcDbEntity
8
1
62
256
6
ByLayer
370
13
48
1
60
0
100
AcDbLine
10
149.650481
20
-14.470143
30
0
11
149.650481
21
-14.416627
31
0
39
0
210
0
220
0
230
1
0
LINE
5
D5
100
AcDbEntity
8
1
62
256
6
ByLayer
370
18
48
1
60
0
100
AcDbLine
10
150.32476
20
23.31313
30
0
11
150.32476
21
23.587525
31
0
39
0
210
0
220
0
230
1
0
LINE
5
D6
100
AcDbEntity
8
1
62
256
6
ByLayer
370
18
48
1
60
0
100
AcDbLine
10
150.32476
20
-13.587525
30
0
11
150.32476
21
-13.31313
31
0
39
0
210
0
220
0
230
1
0
LINE
5
D7
100
AcDbEntity
8
1
62
256
6
ByLayer
370
13
48
1
60
0
100
AcDbLine
10
149.650481
20
24.111162
30
0
11
149.650481
21
24.192605
31
0
39
0
210
0
220
0
230
1
0
LINE
5
D8
100
AcDbEntity
8
1
62
256
6
ByLayer
370
13
48
1
60
0
100
AcDbLine
10
149.650481
20
-14.192605
30
0
11
149.650481
21
-14.111162
31
0
39
0
210
0
220
0
230
1
0
LINE
5
D9
100
AcDbEntity
8
1
62
256
6
ByLayer
370
18
48
1
60
0
100
AcDbLine
10
150.32476
20
-13.205318
30
0
11
150.32476
21
-12.830489
31
0
39
0
210
0
220
0
230
1
0
LINE
5
DA
100
AcDbEntity
8
1
62
256
6
ByLayer
370
18
48
1
60
0
100
AcDbLine
10
150.32476
20
22.830489
30
0
11
150.32476
21
23.205318
31
0
39
0
210
0
220
0
230
1
0
LINE
5
DB
100
AcDbEntity
8
1
62
256
6
ByLayer
370
13
48
1
60
0
100
AcDbLine
10
149.650481
20
-13.791639
30
0
11
149.650481
21
-13.680651
31
0
39
0
210
0
220
0
230
1
0
LINE
5
DC
100
AcDbEntity
8
1
62
256
6
ByLayer
370
13
48
1
60
0
100
AcDbLine
10
149.650481
20
23.680651
30
0
11
149.650481
21
23.791639
31
0
39
0
210
0
220
0
230
1
0
LINE
5
DD
100
AcDbEntity
8
1
62
256
6
ByLayer
370
18
48
1
60
0
100
AcDbLine
10
150.32476
20
22.204449
30
0
11
150.32476
21
22.688163
31
0
39
0
210
0
220
0
230
1
0
LINE
5
DE
100
AcDbEntity
8
1
62
256
6
ByLayer
370
18
48
1
60
0
100
AcDbLine
10
150.32476
20
-12.688163
30
0
11
150.32476
21
-12.204449
31
0
39
0
210
0
220
0
230
1
0
LINE
5
DF
100
AcDbEntity
8
1
62
256
6
ByLayer
370
13
48
1
60
0
100
AcDbLine
10
149.650481
20
-13.259116
30
0
11
149.650481
21
-13.116188
31
0
39
0
210
0
220
0
230
1
0
LINE
5
E0
100
AcDbEntity
8
1
62
256
6
ByLayer
370
13
48
1
60
0
100
AcDbLine
10
149.650481
20
23.116188
30
0
11
149.650481
21
23.259116
31
0
39
0
210
0
220
0
230
1
0
LINE
5
E1
100
AcDbEntity
8
1
62
256
6
ByLayer
370
18
48
1
60
0
100
AcDbLine
10
150.32476
20
21.418191
30
0
11
150.32476
21
22.023766
31
0
39
0
210
0
220
0
230
1
0
LINE
5
E2
100
AcDbEntity
8
1
62
256
6
ByLayer
370
18
48
1
60
0
100
AcDbLine
10
150.32476
20
-12.023766
30
0
11
150.32476
21
-11.418191
31
0
39
0
210
0
220
0
230
1
0
LINE
5
E3
100
AcDbEntity
8
1
62
256
6
ByLayer
370
13
48
1
60
0
100
AcDbLine
10
149.650481
20
-12.583086
30
0
11
149.650481
21
-12.404844
31
0
39
0
210
0
220
0
230
1
0
LINE
5
E4
100
AcDbEntity
8
1
62
256
6
ByLayer
370
13
48
1
60
0
100
AcDbLine
10
149.650481
20
22.404844
30
0
11
149.650481
21
22.583086
31
0
39
0
210
0
220
0
230
1
0
LINE
5
E5
100
AcDbEntity
8
1
62
256
6
ByLayer
370
18
48
1
60
0
100
AcDbLine
10
150.32476
20
20.447336
30
0
11
150.32476
21
21.194014
31
0
39
0
210
0
220
0
230
1
0
LINE
5
E6
100
AcDbEntity
8
1
62
256
6
ByLayer
370
18
48
1
60
0
100
AcDbLine
10
150.32476
20
-11.194014
30
0
11
150.32476
21
-10.447336
31
0
39
0
210
0
220
0
230
1
0
LINE
5
E7
100
AcDbEntity
8
1
62
256
6
ByLayer
370
13
48
1
60
0
100
AcDbLine
10
149.650481
20
-11.74618
30
0
11
149.650481
21
-11.527523
31
0
39
0
210
0
220
0
230
1
0
LINE
5
E8
100
AcDbEntity
8
1
62
256
6
ByLayer
370
13
48
1
60
0
100
AcDbLine
10
149.650481
20
21.527523
30
0
11
149.650481
21
21.74618
31
0
39
0
210
0
220
0
230
1
0
LINE
5
E9
100
AcDbEntity
8
1
62
256
6
ByLayer
370
18
48
1
60
0
100
AcDbLine
10
150.32476
20
19.254246
30
0
11
150.32476
21
20.171803
31
0
39
0
210
0
220
0
230
1
0
LINE
5
EA
100
AcDbEntity
8
1
62
256
6
ByLayer
370
18
48
1
60
0
100
AcDbLine
10
150.32476
20
-10.171803
30
0
11
150.32476
21
-9.254246
31
0
39
0
210
0
220
0
230
1
0
LINE
5
EB
100
AcDbEntity
8
1
62
256
6
ByLayer
370
13
48
1
60
0
100
AcDbLine
10
149.650481
20
20.456027
30
0
11
149.650481
21
20.722727
31
0
39
0
210
0
220
0
230
1
0
LINE
5
EC
100
AcDbEntity
8
1
62
256
6
ByLayer
370
13
48
1
60
0
100
AcDbLine
10
149.650481
20
-10.722727
30
0
11
149.650481
21
-10.456027
31
0
39
0
210
0
220
0
230
1
0
LINE
5
ED
100
AcDbEntity
8
1
62
256
6
ByLayer
370
18
48
1
60
0
100
AcDbLine
10
150.32476
20
17.776776
30
0
11
150.32476
21
18.91478
31
0
39
0
210
0
220
0
230
1
0
LINE
5
EE
100
AcDbEntity
8
1
62
256
6
ByLayer
370
18
48
1
60
0
100
AcDbLine
10
150.32476
20
-8.91478
30
0
11
150.32476
21
-7.776776
31
0
39
0
210
0
220
0
230
1
0
LINE
5
EF
100
AcDbEntity
8
1
62
256
6
ByLayer
370
13
48
1
60
0
100
AcDbLine
10
149.650481
20
-9.473209
30
0
11
149.650481
21
-9.146205
31
0
39
0
210
0
220
0
230
1
0
LINE
5
F0
100
AcDbEntity
8
1
62
256
6
ByLayer
370
13
48
1
60
0
100
AcDbLine
10
149.650481
20
19.146205
30
0
11
149.650481
21
19.473209
31
0
39
0
210
0
220
0
230
1
0
LINE
5
F1
100
AcDbEntity
8
1
62
256
6
ByLayer
370
18
48
1
60
0
100
AcDbLine
10
150.32476
20
-7.351461
30
0
11
150.32476
21
-5.899779
31
0
39
0
210
0
220
0
230
1
0
LINE
5
F2
100
AcDbEntity
8
1
62
256
6
ByLayer
370
18
48
1
60
0
100
AcDbLine
10
150.32476
20
15.899779
30
0
11
150.32476
21
17.351461
31
0
39
0
210
0
220
0
230
1
0
LINE
5
F3
100
AcDbEntity
8
1
62
256
6
ByLayer
370
13
48
1
60
0
100
AcDbLine
10
149.650481
20
-7.932262
30
0
11
149.650481
21
-7.523683
31
0
39
0
210
0
220
0
230
1
0
LINE
5
F4
100
AcDbEntity
8
1
62
256
6
ByLayer
370
13
48
1
60
0
100
AcDbLine
10
149.650481
20
17.523683
30
0
11
149.650481
21
17.932262
31
0
39
0
210
0
220
0
230
1
0
LINE
5
F5
100
AcDbEntity
8
1
62
256
6
ByLayer
370
18
48
1
60
0
100
AcDbLine
10
150.32476
20
-5.343892
30
0
11
150.32476
21
-3.358834
31
0
39
0
210
0
220
0
230
1
0
LINE
5
F6
100
AcDbEntity
8
1
62
256
6
ByLayer
370
18
48
1
60
0
100
AcDbLine
10
150.32476
20
13.358834
30
0
11
150.32476
21
15.343892
31
0
39
0
210
0
220
0
230
1
0
LINE
5
F7
100
AcDbEntity
8
1
62
256
6
ByLayer
370
13
48
1
60
0
100
AcDbLine
10
149.650481
20
-5.977842
30
0
11
149.650481
21
-5.444044
31
0
39
0
210
0
220
0
230
1
0
LINE
5
F8
100
AcDbEntity
8
1
62
256
6
ByLayer
370
13
48
1
60
0
100
AcDbLine
10
149.650481
20
15.444044
30
0
11
149.650481
21
15.977842
31
0
39
0
210
0
220
0
230
1
0
LINE
5
F9
100
AcDbEntity
8
1
62
256
6
ByLayer
370
18
48
1
60
0
100
AcDbLine
10
150.32476
20
-2.545435
30
0
11
150.32476
21
0.946215
31
0
39
0
210
0
220
0
230
1
0
LINE
5
FA
100
AcDbEntity
8
1
62
256
6
ByLayer
370
18
48
1
60
0
100
AcDbLine
10
150.32476
20
9.053785
30
0
11
150.32476
21
12.545435
31
0
39
0
210
0
220
0
230
1
0
LINE
5
FB
100
AcDbEntity
8
1
62
256
6
ByLayer
370
13
48
1
60
0
100
AcDbLine
10
149.650481
20
-3.323618
30
0
11
149.650481
21
-2.537296
31
0
39
0
210
0
220
0
230
1
0
LINE
5
FC
100
AcDbEntity
8
1
62
256
6
ByLayer
370
13
48
1
60
0
100
AcDbLine
10
149.650481
20
12.537296
30
0
11
149.650481
21
13.323618
31
0
39
0
210
0
220
0
230
1
0
LINE
5
FD
100
AcDbEntity
8
1
62
256
6
ByLayer
370
18
48
1
60
0
100
AcDbLine
10
150.32476
20
3.460164
30
0
11
150.32476
21
6.539836
31
0
39
0
210
0
220
0
230
1
0
LINE
5
FE
100
AcDbEntity
8
1
62
256
6
ByLayer
370
13
48
1
60
0
100
AcDbLine
10
149.650481
20
1.318664
30
0
11
149.650481
21
4.790509
31
0
39
0
210
0
220
0
230
1
0
LINE
5
FF
100
AcDbEntity
8
1
62
256
6
ByLayer
370
13
48
1
60
0
100
AcDbLine
10
149.650481
20
5.209491
30
0
11
149.650481
21
8.681336
31
0
39
0
210
0
220
0
230
1
0
LINE
5
100
100
AcDbEntity
8
1
62
256
6
ByLayer
370
18
48
1
60
0
100
AcDbLine
10
150.32476
20
-13.976857
30
0
11
150.32476
21
-13.991672
31
0
39
0
210
0
220
0
230
1
0
LINE
5
101
100
AcDbEntity
8
1
62
256
6
ByLayer
370
18
48
1
60
0
100
AcDbLine
10
150.32476
20
-13.842999
30
0
11
150.32476
21
-13.887723
31
0
39
0
210
0
220
0
230
1
0
LINE
5
102
100
AcDbEntity
8
1
62
256
6
ByLayer
370
18
48
1
60
0
100
AcDbLine
10
150.32476
20
-13.587525
30
0
11
150.32476
21
-13.663027
31
0
39
0
210
0
220
0
230
1
0
LINE
5
103
100
AcDbEntity
8
1
62
256
6
ByLayer
370
18
48
1
60
0
100
AcDbLine
10
150.32476
20
-13.205318
30
0
11
150.32476
21
-13.31314
31
0
39
0
210
0
220
0
230
1
0
LINE
5
104
100
AcDbEntity
8
1
62
256
6
ByLayer
370
18
48
1
60
0
100
AcDbLine
10
150.32476
20
-12.688163
30
0
11
150.32476
21
-12.830692
31
0
39
0
210
0
220
0
230
1
0
LINE
5
105
100
AcDbEntity
8
1
62
256
6
ByLayer
370
18
48
1
60
0
100
AcDbLine
10
150.32476
20
-12.023766
30
0
11
150.32476
21
-12.204537
31
0
39
0
210
0
220
0
230
1
0
LINE
5
106
100
AcDbEntity
8
1
62
256
6
ByLayer
370
18
48
1
60
0
100
AcDbLine
10
150.32476
20
-11.194014
30
0
11
150.32476
21
-11.41824
31
0
39
0
210
0
220
0
230
1
0
LINE
5
107
100
AcDbEntity
8
1
62
256
6
ByLayer
370
18
48
1
60
0
100
AcDbLine
10
150.32476
20
-10.171803
30
0
11
150.32476
21
-10.447365
31
0
39
0
210
0
220
0
230
1
0
LINE
5
108
100
AcDbEntity
8
1
62
256
6
ByLayer
370
18
48
1
60
0
100
AcDbLine
10
150.32476
20
-8.91478
30
0
11
150.32476
21
-9.254248
31
0
39
0
210
0
220
0
230
1
0
LINE
5
109
100
AcDbEntity
8
1
62
256
6
ByLayer
370
18
48
1
60
0
100
AcDbLine
10
150.32476
20
-7.351461
30
0
11
150.32476
21
-7.776779
31
0
39
0
210
0
220
0
230
1
0
LINE
5
10A
100
AcDbEntity
8
1
62
256
6
ByLayer
370
18
48
1
60
0
100
AcDbLine
10
150.32476
20
-5.343892
30
0
11
150.32476
21
-5.899935
31
0
39
0
210
0
220
0
230
1
0
LINE
5
10B
100
AcDbEntity
8
1
62
256
6
ByLayer
370
18
48
1
60
0
100
AcDbLine
10
150.32476
20
-2.545435
30
0
11
150.32476
21
-3.358893
31
0
39
0
210
0
220
0
230
1
0
LINE
5
10C
100
AcDbEntity
8
1
62
256
6
ByLayer
370
18
48
1
60
0
100
AcDbLine
10
150.32476
20
3.460164
30
0
11
150.32476
21
0.946163
31
0
39
0
210
0
220
0
230
1
0
LINE
5
10D
100
AcDbEntity
8
1
62
256
6
ByLayer
370
18
48
1
60
0
100
AcDbLine
10
150.32476
20
9.053837
30
0
11
150.32476
21
6.539836
31
0
39
0
210
0
220
0
230
1
0
LINE
5
10E
100
AcDbEntity
8
1
62
256
6
ByLayer
370
18
48
1
60
0
100
AcDbLine
10
150.32476
20
13.358893
30
0
11
150.32476
21
12.545435
31
0
39
0
210
0
220
0
230
1
0
LINE
5
10F
100
AcDbEntity
8
1
62
256
6
ByLayer
370
18
48
1
60
0
100
AcDbLine
10
150.32476
20
15.899935
30
0
11
150.32476
21
15.343892
31
0
39
0
210
0
220
0
230
1
0
LINE
5
110
100
AcDbEntity
8
1
62
256
6
ByLayer
370
18
48
1
60
0
100
AcDbLine
10
150.32476
20
17.776779
30
0
11
150.32476
21
17.351461
31
0
39
0
210
0
220
0
230
1
0
LINE
5
111
100
AcDbEntity
8
1
62
256
6
ByLayer
370
18
48
1
60
0
100
AcDbLine
10
150.32476
20
19.254248
30
0
11
150.32476
21
18.91478
31
0
39
0
210
0
220
0
230
1
0
LINE
5
112
100
AcDbEntity
8
1
62
256
6
ByLayer
370
18
48
1
60
0
100
AcDbLine
10
150.32476
20
20.447365
30
0
11
150.32476
21
20.171803
31
0
39
0
210
0
220
0
230
1
0
LINE
5
113
100
AcDbEntity
8
1
62
256
6
ByLayer
370
18
48
1
60
0
100
AcDbLine
10
150.32476
20
21.41824
30
0
11
150.32476
21
21.194014
31
0
39
0
210
0
220
0
230
1
0
LINE
5
114
100
AcDbEntity
8
1
62
256
6
ByLayer
370
18
48
1
60
0
100
AcDbLine
10
150.32476
20
22.204537
30
0
11
150.32476
21
22.023766
31
0
39
0
210
0
220
0
230
1
0
LINE
5
115
100
AcDbEntity
8
1
62
256
6
ByLayer
370
18
48
1
60
0
100
AcDbLine
10
150.32476
20
22.830692
30
0
11
150.32476
21
22.688163
31
0
39
0
210
0
220
0
230
1
0
LINE
5
116
100
AcDbEntity
8
1
62
256
6
ByLayer
370
18
48
1
60
0
100
AcDbLine
10
150.32476
20
23.31314
30
0
11
150.32476
21
23.205318
31
0
39
0
210
0
220
0
230
1
0
LINE
5
117
100
AcDbEntity
8
1
62
256
6
ByLayer
370
18
48
1
60
0
100
AcDbLine
10
150.32476
20
23.663027
30
0
11
150.32476
21
23.587525
31
0
39
0
210
0
220
0
230
1
0
LINE
5
118
100
AcDbEntity
8
1
62
256
6
ByLayer
370
18
48
1
60
0
100
AcDbLine
10
150.32476
20
23.887723
30
0
11
150.32476
21
23.842999
31
0
39
0
210
0
220
0
230
1
0
LINE
5
119
100
AcDbEntity
8
1
62
256
6
ByLayer
370
18
48
1
60
0
100
AcDbLine
10
150.32476
20
23.991672
30
0
11
150.32476
21
23.976857
31
0
39
0
210
0
220
0
230
1
0
LINE
5
11A
100
AcDbEntity
8
1
62
256
6
ByLayer
370
18
48
1
60
0
100
AcDbLine
10
149.32476
20
-15
30
0
11
149.32476
21
25
31
0
39
0
210
0
220
0
230
1
0
LINE
5
11B
100
AcDbEntity
8
1
62
256
6
ByLayer
370
13
48
1
60
0
100
AcDbLine
10
148.5
20
-15
30
0
11
148.5
21
22.536585
31
0
39
0
210
0
220
0
230
1
0
LINE
5
11C
100
AcDbEntity
8
1
62
256
6
ByLayer
370
18
48
1
60
0
100
AcDbLine
10
146
20
24.8
30
0
11
146
21
-24.8
31
0
39
0
210
0
220
0
230
1
0
LINE
5
11D
100
AcDbEntity
8
1
62
256
6
ByLayer
370
18
48
1
60
0
100
AcDbLine
10
148
20
-24.5
30
0
11
148
21
20.5
31
0
39
0
210
0
220
0
230
1
0
LINE
5
11E
100
AcDbEntity
8
1
62
256
6
ByLayer
370
13
48
1
60
0
100
AcDbLine
10
146.2
20
25
30
0
11
146.2
21
-25
31
0
39
0
210
0
220
0
230
1
0
LINE
5
11F
100
AcDbEntity
8
1
62
256
6
ByLayer
370
18
48
1
60
0
100
AcDbLine
10
147.5
20
-25
30
0
11
147.5
21
20.918367
31
0
39
0
210
0
220
0
230
1
0
LINE
5
120
100
AcDbEntity
8
1
62
256
6
ByLayer
370
18
48
1
60
0
100
AcDbLine
10
145.8
20
25
30
0
11
0.3
21
25
31
0
39
0
210
0
220
0
230
1
0
LINE
5
121
100
AcDbEntity
8
1
62
256
6
ByLayer
370
18
48
1
60
0
100
AcDbLine
10
0.3
20
-25
30
0
11
145.8
21
-25
31
0
39
0
210
0
220
0
230
1
0
LINE
5
122
100
AcDbEntity
8
1
62
256
6
ByLayer
370
18
48
1
60
0
100
AcDbLine
10
0
20
-24.7
30
0
11
0.3
21
-25
31
0
39
0
210
0
220
0
230
1
0
LINE
5
123
100
AcDbEntity
8
1
62
256
6
ByLayer
370
18
48
1
60
0
100
AcDbLine
10
0.3
20
25
30
0
11
0
21
24.7
31
0
39
0
210
0
220
0
230
1
0
LINE
5
124
100
AcDbEntity
8
1
62
256
6
ByLayer
370
18
48
1
60
0
100
AcDbLine
10
150.324609
20
-7.899495
30
0
11
154.8
21
-7.899495
31
0
39
0
210
0
220
0
230
1
0
LINE
5
125
100
AcDbEntity
8
1
62
256
6
ByLayer
370
18
48
1
60
0
100
AcDbLine
10
154.8
20
-1.899495
30
0
11
150.324609
21
-1.899495
31
0
39
0
210
0
220
0
230
1
0
LINE
5
126
100
AcDbEntity
8
1
62
256
6
ByLayer
370
18
48
1
60
0
100
AcDbLine
10
155
20
-9.899495
30
0
11
160.4
21
-9.899495
31
0
39
0
210
0
220
0
230
1
0
LINE
5
127
100
AcDbEntity
8
1
62
256
6
ByLayer
370
18
48
1
60
0
100
AcDbLine
10
160.4
20
0.100505
30
0
11
155
21
0.100505
31
0
39
0
210
0
220
0
230
1
0
LINE
5
128
100
AcDbEntity
8
1
62
256
6
ByLayer
370
18
48
1
60
0
100
AcDbLine
10
150.324609
20
11.899495
30
0
11
154.8
21
11.899495
31
0
39
0
210
0
220
0
230
1
0
LINE
5
129
100
AcDbEntity
8
1
62
256
6
ByLayer
370
18
48
1
60
0
100
AcDbLine
10
154.8
20
17.899495
30
0
11
150.324609
21
17.899495
31
0
39
0
210
0
220
0
230
1
0
LINE
5
12A
100
AcDbEntity
8
1
62
256
6
ByLayer
370
18
48
1
60
0
100
AcDbLine
10
155
20
9.899495
30
0
11
160.4
21
9.899495
31
0
39
0
210
0
220
0
230
1
0
LINE
5
12B
100
AcDbEntity
8
1
62
256
6
ByLayer
370
18
48
1
60
0
100
AcDbLine
10
160.4
20
19.899495
30
0
11
155
21
19.899495
31
0
39
0
210
0
220
0
230
1
0
LINE
5
12C
100
AcDbEntity
8
1
62
256
6
ByLayer
370
18
48
1
60
0
100
AcDbLine
10
149.552123
20
24.772637
30
0
11
149.32476
21
25
31
0
39
0
210
0
220
0
230
1
0
LINE
5
12D
100
AcDbEntity
8
1
62
256
6
ByLayer
370
18
48
1
60
0
100
AcDbLine
10
149.32476
20
-15
30
0
11
149.552123
21
-14.772637
31
0
39
0
210
0
220
0
230
1
0
LINE
5
12E
100
AcDbEntity
8
1
62
256
6
ByLayer
370
18
48
1
60
0
100
AcDbLine
10
148.5
20
-15
30
0
11
149.32476
21
-15
31
0
39
0
210
0
220
0
230
1
0
LINE
5
12F
100
AcDbEntity
8
1
62
256
6
ByLayer
370
18
48
1
60
0
100
AcDbLine
10
149.32476
20
25
30
0
11
148
21
25
31
0
39
0
210
0
220
0
230
1
0
LINE
5
130
100
AcDbEntity
8
1
62
256
6
ByLayer
370
18
48
1
60
0
100
AcDbLine
10
147.5
20
-25
30
0
11
148
21
-24.5
31
0
39
0
210
0
220
0
230
1
0
LINE
5
131
100
AcDbEntity
8
1
62
256
6
ByLayer
370
18
48
1
60
0
100
AcDbLine
10
148.02
20
25
30
0
11
146.2
21
25
31
0
39
0
210
0
220
0
230
1
0
LINE
5
132
100
AcDbEntity
8
1
62
256
6
ByLayer
370
18
48
1
60
0
100
AcDbLine
10
146.2
20
-25
30
0
11
147.5
21
-25
31
0
39
0
210
0
220
0
230
1
0
LINE
5
133
100
AcDbEntity
8
1
62
256
6
ByLayer
370
13
48
0.05
60
0
100
AcDbLine
10
152.3
20
0
30
0
11
-6.5
21
0
31
0
39
0
210
0
220
0
230
1
0
LINE
5
134
100
AcDbEntity
8
SK2
62
256
6
ByLayer
370
18
48
1
60
0
100
AcDbLine
10
-36.6
20
-25
30
0
11
-36.6
21
25
31
0
39
0
210
0
220
0
230
1
0
LINE
5
136
100
AcDbEntity
8
SK2
62
256
6
ByLayer
370
18
48
1
60
0
100
AcDbLine
10
-1.2875
20
25
30
0
11
-38.6
21
25
31
0
39
0
210
0
220
0
230
1
0
LINE
5
137
100
AcDbEntity
8
SK2
62
256
6
ByLayer
370
18
48
1
60
0
100
AcDbLine
10
-1.2875
20
-25
30
0
11
-38.6
21
-25
31
0
39
0
210
0
220
0
230
1
0
LINE
5
138
100
AcDbEntity
8
1
62
256
6
ByLayer
370
18
48
1
60
1
100
AcDbLine
10
-36.6
20
25
30
0
11
-36.139216
21
21.500002
31
0
39
0
210
0
220
0
230
1
0
LINE
5
139
100
AcDbEntity
8
1
62
256
6
ByLayer
370
18
48
1
60
1
100
AcDbLine
10
-36.139216
20
21.500002
30
0
11
-37.060784
21
21.499998
31
0
39
0
210
0
220
0
230
1
0
LINE
5
13A
100
AcDbEntity
8
1
62
256
6
ByLayer
370
18
48
1
60
1
100
AcDbLine
10
-37.060784
20
21.499998
30
0
11
-36.6
21
25
31
0
39
0
210
0
220
0
230
1
0
LINE
5
13B
100
AcDbEntity
8
1
62
256
6
ByLayer
370
18
48
1
60
1
100
AcDbLine
10
-36.6
20
-25
30
0
11
-37.060784
21
-21.500002
31
0
39
0
210
0
220
0
230
1
0
LINE
5
13C
100
AcDbEntity
8
1
62
256
6
ByLayer
370
18
48
1
60
1
100
AcDbLine
10
-37.060784
20
-21.500002
30
0
11
-36.139216
21
-21.499998
31
0
39
0
210
0
220
0
230
1
0
LINE
5
13D
100
AcDbEntity
8
1
62
256
6
ByLayer
370
18
48
1
60
1
100
AcDbLine
10
-36.139216
20
-21.499998
30
0
11
-36.6
21
-25
31
0
39
0
210
0
220
0
230
1
0
LINE
5
13E
100
AcDbEntity
8
SK2
62
256
6
ByLayer
370
18
48
1
60
0
100
AcDbLine
10
181.748181
20
-25
30
0
11
181.748181
21
25
31
0
39
0
210
0
220
0
230
1
0
LINE
5
13F
100
AcDbEntity
8
SK2
62
256
6
ByLayer
370
18
48
1
60
0
100
AcDbLine
10
147.3875
20
25
30
0
11
183.748181
21
25
31
0
39
0
210
0
220
0
230
1
0
LINE
5
140
100
AcDbEntity
8
SK2
62
256
6
ByLayer
370
18
48
1
60
0
100
AcDbLine
10
147.3875
20
-25
30
0
11
183.748181
21
-25
31
0
39
0
210
0
220
0
230
1
0
LINE
5
141
100
AcDbEntity
8
1
62
256
6
ByLayer
370
18
48
1
60
1
100
AcDbLine
10
181.748181
20
25
30
0
11
182.208964
21
21.500002
31
0
39
0
210
0
220
0
230
1
0
LINE
5
142
100
AcDbEntity
8
1
62
256
6
ByLayer
370
18
48
1
60
1
100
AcDbLine
10
182.208964
20
21.500002
30
0
11
181.287397
21
21.499998
31
0
39
0
210
0
220
0
230
1
0
LINE
5
143
100
AcDbEntity
8
1
62
256
6
ByLayer
370
18
48
1
60
1
100
AcDbLine
10
181.287397
20
21.499998
30
0
11
181.748181
21
25
31
0
39
0
210
0
220
0
230
1
0
LINE
5
144
100
AcDbEntity
8
1
62
256
6
ByLayer
370
18
48
1
60
1
100
AcDbLine
10
181.748181
20
-25
30
0
11
181.287397
21
-21.500002
31
0
39
0
210
0
220
0
230
1
0
LINE
5
145
100
AcDbEntity
8
1
62
256
6
ByLayer
370
18
48
1
60
1
100
AcDbLine
10
181.287397
20
-21.500002
30
0
11
182.208964
21
-21.499998
31
0
39
0
210
0
220
0
230
1
0
LINE
5
146
100
AcDbEntity
8
1
62
256
6
ByLayer
370
18
48
1
60
1
100
AcDbLine
10
182.208964
20
-21.499998
30
0
11
181.748181
21
-25
31
0
39
0
210
0
220
0
230
1
0
LINE
5
147
100
AcDbEntity
8
SK2
62
256
6
ByLayer
370
13
48
1
60
0
100
AcDbLine
10
170.123181
20
25
30
0
11
170.123181
21
-15
31
0
39
0
210
0
220
0
230
1
0
LINE
5
148
100
AcDbEntity
8
SK2
62
256
6
ByLayer
370
13
48
1
60
0
100
AcDbLine
10
150.91226
20
-15
30
0
11
172.123181
21
-15
31
0
39
0
210
0
220
0
230
1
0
LINE
5
149
100
AcDbEntity
8
SK2
62
256
6
ByLayer
370
13
48
1
60
0
100
AcDbLine
10
150.91226
20
25
30
0
11
172.123181
21
25
31
0
39
0
210
0
220
0
230
1
0
LINE
5
14A
100
AcDbEntity
8
1
62
256
6
ByLayer
370
18
48
1
60
1
100
AcDbLine
10
170.123181
20
-15
30
0
11
169.662397
21
-11.500002
31
0
39
0
210
0
220
0
230
1
0
LINE
5
14B
100
AcDbEntity
8
1
62
256
6
ByLayer
370
18
48
1
60
1
100
AcDbLine
10
169.662397
20
-11.500002
30
0
11
170.583964
21
-11.499998
31
0
39
0
210
0
220
0
230
1
0
LINE
5
14C
100
AcDbEntity
8
1
62
256
6
ByLayer
370
18
48
1
60
1
100
AcDbLine
10
170.583964
20
-11.499998
30
0
11
170.123181
21
-15
31
0
39
0
210
0
220
0
230
1
0
LINE
5
14D
100
AcDbEntity
8
1
62
256
6
ByLayer
370
18
48
1
60
1
100
AcDbLine
10
170.123181
20
25
30
0
11
170.583964
21
21.500002
31
0
39
0
210
0
220
0
230
1
0
LINE
5
14E
100
AcDbEntity
8
1
62
256
6
ByLayer
370
18
48
1
60
1
100
AcDbLine
10
170.583964
20
21.500002
30
0
11
169.662397
21
21.499998
31
0
39
0
210
0
220
0
230
1
0
LINE
5
14F
100
AcDbEntity
8
1
62
256
6
ByLayer
370
18
48
1
60
1
100
AcDbLine
10
169.662397
20
21.499998
30
0
11
170.123181
21
25
31
0
39
0
210
0
220
0
230
1
0
LINE
5
150
100
AcDbEntity
8
SK2
62
256
6
ByLayer
370
18
48
1
60
0
100
AcDbLine
10
0
20
30.795327
30
0
11
150
21
30.795327
31
0
39
0
210
0
220
0
230
1
0
LINE
5
151
100
AcDbEntity
8
SK2
62
256
6
ByLayer
370
18
48
1
60
0
100
AcDbLine
10
150
20
26.5875
30
0
11
150
21
32.795327
31
0
39
0
210
0
220
0
230
1
0
LINE
5
152
100
AcDbEntity
8
SK2
62
256
6
ByLayer
370
18
48
1
60
0
100
AcDbLine
10
0
20
26.2875
30
0
11
0
21
32.795327
31
0
39
0
210
0
220
0
230
1
0
LINE
5
153
100
AcDbEntity
8
1
62
256
6
ByLayer
370
18
48
1
60
1
100
AcDbLine
10
150
20
30.795327
30
0
11
146.500002
21
30.334543
31
0
39
0
210
0
220
0
230
1
0
LINE
5
154
100
AcDbEntity
8
1
62
256
6
ByLayer
370
18
48
1
60
1
100
AcDbLine
10
146.500002
20
30.334543
30
0
11
146.499998
21
31.25611
31
0
39
0
210
0
220
0
230
1
0
LINE
5
155
100
AcDbEntity
8
1
62
256
6
ByLayer
370
18
48
1
60
1
100
AcDbLine
10
146.499998
20
31.25611
30
0
11
150
21
30.795327
31
0
39
0
210
0
220
0
230
1
0
LINE
5
156
100
AcDbEntity
8
1
62
256
6
ByLayer
370
18
48
1
60
1
100
AcDbLine
10
0
20
30.795327
30
0
11
3.499998
21
31.25611
31
0
39
0
210
0
220
0
230
1
0
LINE
5
157
100
AcDbEntity
8
1
62
256
6
ByLayer
370
18
48
1
60
1
100
AcDbLine
10
3.499998
20
31.25611
30
0
11
3.500002
21
30.334543
31
0
39
0
210
0
220
0
230
1
0
LINE
5
158
100
AcDbEntity
8
1
62
256
6
ByLayer
370
18
48
1
60
1
100
AcDbLine
10
3.500002
20
30.334543
30
0
11
0
21
30.795327
31
0
39
0
210
0
220
0
230
1
0
LINE
5
1E2
100
AcDbEntity
8
1
62
256
6
ByLayer
370
13
48
0.05
60
0
100
AcDbLine
10
137.05
20
-4.899495
30
0
11
166.9
21
-4.899495
31
0
39
0
210
0
220
0
230
1
0
LINE
5
1E3
100
AcDbEntity
8
1
62
256
6
ByLayer
370
13
48
0.05
60
0
100
AcDbLine
10
154.52
20
0
30
0
11
139.7
21
0
31
0
39
0
210
0
220
0
230
1
0
LINE
5
1E4
100
AcDbEntity
8
1
62
256
6
ByLayer
370
13
48
0.05
60
0
100
AcDbLine
10
141.330172
20
5
30
0
11
156.82476
21
5
31
0
39
0
210
0
220
0
230
1
0
LINE
5
1E5
100
AcDbEntity
8
1
62
256
6
ByLayer
370
13
48
0.05
60
0
100
AcDbLine
10
137.05
20
14.899495
30
0
11
166.9
21
14.899495
31
0
39
0
210
0
220
0
230
1
0
LINE
5
1EA
100
AcDbEntity
8
1
62
256
6
ByLayer
370
18
48
1
60
1
100
AcDbLine
10
-36.6
20
25
30
0
11
-36.139216
21
21.500002
31
0
39
0
210
0
220
0
230
1
0
LINE
5
1EB
100
AcDbEntity
8
1
62
256
6
ByLayer
370
18
48
1
60
1
100
AcDbLine
10
-36.139216
20
21.500002
30
0
11
-37.060784
21
21.499998
31
0
39
0
210
0
220
0
230
1
0
LINE
5
1EC
100
AcDbEntity
8
1
62
256
6
ByLayer
370
18
48
1
60
1
100
AcDbLine
10
-37.060784
20
21.499998
30
0
11
-36.6
21
25
31
0
39
0
210
0
220
0
230
1
0
LINE
5
1EE
100
AcDbEntity
8
1
62
256
6
ByLayer
370
18
48
1
60
1
100
AcDbLine
10
-36.6
20
-25
30
0
11
-37.060784
21
-21.500002
31
0
39
0
210
0
220
0
230
1
0
LINE
5
1EF
100
AcDbEntity
8
1
62
256
6
ByLayer
370
18
48
1
60
1
100
AcDbLine
10
-37.060784
20
-21.500002
30
0
11
-36.139216
21
-21.499998
31
0
39
0
210
0
220
0
230
1
0
LINE
5
1F0
100
AcDbEntity
8
1
62
256
6
ByLayer
370
18
48
1
60
1
100
AcDbLine
10
-36.139216
20
-21.499998
30
0
11
-36.6
21
-25
31
0
39
0
210
0
220
0
230
1
0
LINE
5
1F4
100
AcDbEntity
8
1
62
256
6
ByLayer
370
18
48
1
60
1
100
AcDbLine
10
181.748181
20
25
30
0
11
182.208964
21
21.500002
31
0
39
0
210
0
220
0
230
1
0
LINE
5
1F5
100
AcDbEntity
8
1
62
256
6
ByLayer
370
18
48
1
60
1
100
AcDbLine
10
182.208964
20
21.500002
30
0
11
181.287397
21
21.499998
31
0
39
0
210
0
220
0
230
1
0
LINE
5
1F6
100
AcDbEntity
8
1
62
256
6
ByLayer
370
18
48
1
60
1
100
AcDbLine
10
181.287397
20
21.499998
30
0
11
181.748181
21
25
31
0
39
0
210
0
220
0
230
1
0
LINE
5
1F8
100
AcDbEntity
8
1
62
256
6
ByLayer
370
18
48
1
60
1
100
AcDbLine
10
181.748181
20
-25
30
0
11
181.287397
21
-21.500002
31
0
39
0
210
0
220
0
230
1
0
LINE
5
1F9
100
AcDbEntity
8
1
62
256
6
ByLayer
370
18
48
1
60
1
100
AcDbLine
10
181.287397
20
-21.500002
30
0
11
182.208964
21
-21.499998
31
0
39
0
210
0
220
0
230
1
0
LINE
5
1FA
100
AcDbEntity
8
1
62
256
6
ByLayer
370
18
48
1
60
1
100
AcDbLine
10
182.208964
20
-21.499998
30
0
11
181.748181
21
-25
31
0
39
0
210
0
220
0
230
1
0
LINE
5
200
100
AcDbEntity
8
1
62
256
6
ByLayer
370
18
48
1
60
1
100
AcDbLine
10
170.123181
20
-15
30
0
11
169.662397
21
-11.500002
31
0
39
0
210
0
220
0
230
1
0
LINE
5
201
100
AcDbEntity
8
1
62
256
6
ByLayer
370
18
48
1
60
1
100
AcDbLine
10
169.662397
20
-11.500002
30
0
11
170.583964
21
-11.499998
31
0
39
0
210
0
220
0
230
1
0
LINE
5
202
100
AcDbEntity
8
1
62
256
6
ByLayer
370
18
48
1
60
1
100
AcDbLine
10
170.583964
20
-11.499998
30
0
11
170.123181
21
-15
31
0
39
0
210
0
220
0
230
1
0
LINE
5
204
100
AcDbEntity
8
1
62
256
6
ByLayer
370
18
48
1
60
1
100
AcDbLine
10
170.123181
20
25
30
0
11
170.583964
21
21.500002
31
0
39
0
210
0
220
0
230
1
0
LINE
5
205
100
AcDbEntity
8
1
62
256
6
ByLayer
370
18
48
1
60
1
100
AcDbLine
10
170.583964
20
21.500002
30
0
11
169.662397
21
21.499998
31
0
39
0
210
0
220
0
230
1
0
LINE
5
206
100
AcDbEntity
8
1
62
256
6
ByLayer
370
18
48
1
60
1
100
AcDbLine
10
169.662397
20
21.499998
30
0
11
170.123181
21
25
31
0
39
0
210
0
220
0
230
1
0
LINE
5
209
100
AcDbEntity
8
1
62
256
6
ByLayer
370
18
48
1
60
1
100
AcDbLine
10
150
20
30.795327
30
0
11
146.500002
21
30.334543
31
0
39
0
210
0
220
0
230
1
0
LINE
5
20A
100
AcDbEntity
8
1
62
256
6
ByLayer
370
18
48
1
60
1
100
AcDbLine
10
146.500002
20
30.334543
30
0
11
146.499998
21
31.25611
31
0
39
0
210
0
220
0
230
1
0
LINE
5
20B
100
AcDbEntity
8
1
62
256
6
ByLayer
370
18
48
1
60
1
100
AcDbLine
10
146.499998
20
31.25611
30
0
11
150
21
30.795327
31
0
39
0
210
0
220
0
230
1
0
LINE
5
20D
100
AcDbEntity
8
1
62
256
6
ByLayer
370
18
48
1
60
1
100
AcDbLine
10
0
20
30.795327
30
0
11
3.499998
21
31.25611
31
0
39
0
210
0
220
0
230
1
0
LINE
5
20E
100
AcDbEntity
8
1
62
256
6
ByLayer
370
18
48
1
60
1
100
AcDbLine
10
3.499998
20
31.25611
30
0
11
3.500002
21
30.334543
31
0
39
0
210
0
220
0
230
1
0
LINE
5
20F
100
AcDbEntity
8
1
62
256
6
ByLayer
370
18
48
1
60
1
100
AcDbLine
10
3.500002
20
30.334543
30
0
11
0
21
30.795327
31
0
39
0
210
0
220
0
230
1
0
MTEXT
5
1E6
100
AcDbEntity
8
SK2
62
256
6
ByLayer
370
18
48
1
60
0
100
AcDbMText
10
-38.164634
20
-4.530622
30
0
210
0
220
0
230
1
1
%%c
40
3.5
41
0
44
1.084337
50
90
71
7
72
5
7
iso_b_vert
0
MTEXT
5
1E9
100
AcDbEntity
8
SK2
62
256
6
ByLayer
370
18
48
1
60
0
100
AcDbMText
10
-38.164634
20
2.442034
30
0
210
0
220
0
230
1
1
\W0.6740;50
40
3.5
41
0
44
1.084337
50
90
71
7
72
5
7
iso_b_vert
0
MTEXT
5
1F2
100
AcDbEntity
8
SK2
62
256
6
ByLayer
370
18
48
1
60
0
100
AcDbMText
10
180.183547
20
-4.530622
30
0
210
0
220
0
230
1
1
%%c
40
3.5
41
0
44
1.084337
50
90
71
7
72
5
7
iso_b_vert
0
MTEXT
5
1F3
100
AcDbEntity
8
SK2
62
256
6
ByLayer
370
18
48
1
60
0
100
AcDbMText
10
180.183547
20
2.442034
30
0
210
0
220
0
230
1
1
\W0.6740;50
40
3.5
41
0
44
1.084337
50
90
71
7
72
5
7
iso_b_vert
0
MTEXT
5
1FC
100
AcDbEntity
8
SK2
62
256
6
ByLayer
370
18
48
1
60
0
100
AcDbMText
10
167.902297
20
11.807233
30
0
210
0
220
0
230
1
1
\W1.1313;{\H1.88x;)}
40
3.5
41
0
44
1.084337
50
90
71
7
72
5
7
iso_b_vert
0
MTEXT
5
1FD
100
AcDbEntity
8
SK2
62
256
6
ByLayer
370
18
48
1
60
0
100
AcDbMText
10
167.902297
20
-3.942233
30
0
210
0
220
0
230
1
1
\W1.1313;{\H1.88x;(}
40
3.5
41
0
44
1.084337
50
90
71
7
72
5
7
iso_b_vert
0
MTEXT
5
1FE
100
AcDbEntity
8
SK2
62
256
6
ByLayer
370
18
48
1
60
0
100
AcDbMText
10
167.902297
20
0.285111
30
0
210
0
220
0
230
1
1
%%c
40
3.5
41
0
44
1.084337
50
90
71
7
72
5
7
iso_b_vert
0
MTEXT
5
1FF
100
AcDbEntity
8
SK2
62
256
6
ByLayer
370
18
48
1
60
0
100
AcDbMText
10
167.902297
20
7.257767
30
0
210
0
220
0
230
1
1
\W0.7361;40
40
3.5
41
0
44
1.084337
50
90
71
7
72
5
7
iso_b_vert
0
MTEXT
5
208
100
AcDbEntity
8
SK2
62
256
6
ByLayer
370
18
48
1
60
0
100
AcDbMText
10
72.224734
20
31.82796
30
0
210
0
220
0
230
1
1
\W0.6217;150
40
3.5
41
0
44
1.084337
50
0
71
7
72
5
7
iso_b_vert
0
MTEXT
5
211
100
AcDbEntity
8
SK6
62
256
6
ByLayer
370
18
48
1
60
0
100
AcDbMText
10
42.52106
20
-50.567391
30
0
210
0
220
0
230
1
1
\W0.7593;HT40D-C5 50 150R40
40
3.5
41
0
44
1.084337
50
0
71
7
72
5
7
iso_b_vert
0
HATCH
5
1ED
100
AcDbEntity
8
SK2
62
256
6
ByLayer
370
13
48
1
60
0
100
AcDbHatch
10
0
20
0
30
0
210
0
220
0
230
1
2
ANSI31
70
0
71
0
91
1
92
5
93
3
72
1
10
-36.6000000000001
20
24.9999999999995
11
-36.1392162584473
21
21.5000016925526
72
1
10
-36.1392162584473
20
21.5000016925526
11
-37.0607837415529
21
21.4999983074463
72
1
10
-37.0607837415529
20
21.4999983074463
11
-36.6000000000001
21
24.9999999999995
97
0
75
0
76
1
52
0
41
0.0062
77
0
78
1
53
45
43
0
44
0
45
-0.0139193969876572
46
0.0139193969876572
79
0
47
0
98
1
10
0
20
0
0
HATCH
5
1F1
100
AcDbEntity
8
SK2
62
256
6
ByLayer
370
13
48
1
60
0
100
AcDbHatch
10
0
20
0
30
0
210
0
220
0
230
1
2
ANSI31
70
0
71
0
91
1
92
5
93
3
72
1
10
-36.6000000000001
20
-25.0000000000005
11
-37.0607837415529
21
-21.5000016925537
72
1
10
-37.0607837415529
20
-21.5000016925537
11
-36.1392162584473
21
-21.4999983074473
72
1
10
-36.1392162584473
20
-21.4999983074473
11
-36.6000000000001
21
-25.0000000000005
97
0
75
0
76
1
52
0
41
0.0062
77
0
78
1
53
45
43
0
44
0
45
-0.0139193969876572
46
0.0139193969876572
79
0
47
0
98
1
10
0
20
0
0
HATCH
5
1F7
100
AcDbEntity
8
SK2
62
256
6
ByLayer
370
13
48
1
60
0
100
AcDbHatch
10
0
20
0
30
0
210
0
220
0
230
1
2
ANSI31
70
0
71
0
91
1
92
5
93
3
72
1
10
181.748180566759
20
24.9999999999995
11
182.208964308312
21
21.5000016925526
72
1
10
182.208964308312
20
21.5000016925526
11
181.287396825206
21
21.4999983074463
72
1
10
181.287396825206
20
21.4999983074463
11
181.748180566759
21
24.9999999999995
97
0
75
0
76
1
52
0
41
0.0062
77
0
78
1
53
45
43
0
44
0
45
-0.0139193969876572
46
0.0139193969876572
79
0
47
0
98
1
10
0
20
0
0
HATCH
5
1FB
100
AcDbEntity
8
SK2
62
256
6
ByLayer
370
13
48
1
60
0
100
AcDbHatch
10
0
20
0
30
0
210
0
220
0
230
1
2
ANSI31
70
0
71
0
91
1
92
5
93
3
72
1
10
181.748180566759
20
-25.0000000000005
11
181.287396825206
21
-21.5000016925537
72
1
10
181.287396825206
20
-21.5000016925537
11
182.208964308312
21
-21.4999983074473
72
1
10
182.208964308312
20
-21.4999983074473
11
181.748180566759
21
-25.0000000000005
97
0
75
0
76
1
52
0
41
0.0062
77
0
78
1
53
45
43
0
44
0
45
-0.0139193969876572
46
0.0139193969876572
79
0
47
0
98
1
10
0
20
0
0
HATCH
5
203
100
AcDbEntity
8
SK2
62
256
6
ByLayer
370
13
48
1
60
0
100
AcDbHatch
10
0
20
0
30
0
210
0
220
0
230
1
2
ANSI31
70
0
71
0
91
1
92
5
93
3
72
1
10
170.123180566759
20
-15.0000000000006
11
169.662396825206
21
-11.5000016925538
72
1
10
169.662396825206
20
-11.5000016925538
11
170.583964308312
21
-11.4999983074474
72
1
10
170.583964308312
20
-11.4999983074474
11
170.123180566759
21
-15.0000000000006
97
0
75
0
76
1
52
0
41
0.0062
77
0
78
1
53
45
43
0
44
0
45
-0.0139193969876572
46
0.0139193969876572
79
0
47
0
98
1
10
0
20
0
0
HATCH
5
207
100
AcDbEntity
8
SK2
62
256
6
ByLayer
370
13
48
1
60
0
100
AcDbHatch
10
0
20
0
30
0
210
0
220
0
230
1
2
ANSI31
70
0
71
0
91
1
92
5
93
3
72
1
10
170.123180566759
20
24.9999999999994
11
170.583964308312
21
21.5000016925526
72
1
10
170.583964308312
20
21.5000016925526
11
169.662396825206
21
21.4999983074463
72
1
10
169.662396825206
20
21.4999983074463
11
170.123180566759
21
24.9999999999994
97
0
75
0
76
1
52
0
41
0.0062
77
0
78
1
53
45
43
0
44
0
45
-0.0139193969876572
46
0.0139193969876572
79
0
47
0
98
1
10
0
20
0
0
HATCH
5
20C
100
AcDbEntity
8
SK2
62
256
6
ByLayer
370
13
48
1
60
0
100
AcDbHatch
10
0
20
0
30
0
210
0
220
0
230
1
2
ANSI31
70
0
71
0
91
1
92
5
93
3
72
1
10
150
20
30.7953266343513
11
146.500001692553
21
30.3345428927985
72
1
10
146.500001692553
20
30.3345428927985
11
146.499998307447
21
31.256110375904
72
1
10
146.499998307447
20
31.256110375904
11
150
21
30.7953266343513
97
0
75
0
76
1
52
0
41
0.0062
77
0
78
1
53
45
43
0
44
0
45
-0.0139193969876572
46
0.0139193969876572
79
0
47
0
98
1
10
0
20
0
0
HATCH
5
210
100
AcDbEntity
8
SK2
62
256
6
ByLayer
370
13
48
1
60
0
100
AcDbHatch
10
0
20
0
30
0
210
0
220
0
230
1
2
ANSI31
70
0
71
0
91
1
92
5
93
3
72
1
10
0
20
30.7953266343513
11
3.49999830744682
21
31.256110375904
72
1
10
3.49999830744682
20
31.256110375904
11
3.50000169255318
21
30.3345428927985
72
1
10
3.50000169255318
20
30.3345428927985
11
0
21
30.7953266343513
97
0
75
0
76
1
52
0
41
0.0062
77
0
78
1
53
45
43
0
44
0
45
-0.0139193969876572
46
0.0139193969876572
79
0
47
0
98
1
10
0
20
0
0
ENDSEC
0
SECTION
2
OBJECTS
0
DICTIONARY
5
280
330
0
100
AcDbDictionary
280
0
281
1
3
ACAD_GROUP
350
281
3
ACAD_MLINESTYLE
350
282
0
DICTIONARY
5
281
330
0
100
AcDbDictionary
280
0
281
1
0
DICTIONARY
5
282
330
0
100
AcDbDictionary
280
0
281
1
3
Standard
350
18
0
MLINESTYLE
5
18
330
282
100
AcDbMlineStyle
2
Standard
70
0
3

62
256
51
90
52
90
71
2
49
-0.5
62
256
6
ByLayer
49
0.5
62
256
6
ByLayer
0
RASTERVARIABLES
5
26e
330

100
AcDbRasterVariables
90
0
70
1
71
1
72
1
0
ENDSEC
0
EOF
