0
SECTION
2
HEADER
9
$ACADVER
1
AC1015
9
$DWGCODEPAGE
3
ANSI_1252
9
$HANDSEED
5
26e
9
$ANGBASE
50
0
9
$ANGDIR
70
0
9
$ATTMODE
70
1
9
$AUNITS
70
0
9
$AUPREC
70
0
9
$CECOLOR
62
256
9
$CELTSCALE
40
1
9
$CELTYPE
6
ByLayer
9
$CELWEIGHT
370
18
9
$CLAYER
8
0
9
$CMLJUST
70
0
9
$CMLSCALE
40
1
9
$CMLSTYLE
2
Standard
9
$DIMSTYLE
2
Standard
9
$TEXTSIZE
40
0.2
9
$TEXTSTYLE
7
Standard
9
$LUNITS
70
2
9
$LUPREC
70
4
9
$EXTNAMES
290
1
9
$INSUNITS
70
4
9
$LTSCALE
40
1
9
$LWDISPLAY
290
1
9
$PDMODE
70
0
9
$PDSIZE
40
0
9
$PLINEGEN
70
0
0
ENDSEC
0
SECTION
2
CLASSES
0
CLASS
1
RASTERVARIABLES
2
AcDbRasterVariables
3
ISM
90
0
280
0
281
0
0
ENDSEC
0
SECTION
2
TABLES
0
TABLE
2
VPORT
5
264
100
AcDbSymbolTable
0
VPORT
5
1
100
AcDbSymbolTableRecord
100
AcDbViewportTableRecord
2
*Active
70
0
10
0
20
0
11
1
21
1
12
-1
22
1
13
0
23
0
14
0.5
24
0.5
15
10
25
10
16
0
26
0
36
1
17
0
27
0
37
0
0
ENDTAB
0
TABLE
2
LTYPE
5
265
100
AcDbSymbolTable
0
LTYPE
5
14
100
AcDbSymbolTableRecord
100
AcDbLinetypeTableRecord
70
0
2
ByBlock
3

72
65
73
0
40
0
0
LTYPE
5
15
100
AcDbSymbolTableRecord
100
AcDbLinetypeTableRecord
70
0
2
ByLayer
3

72
65
73
0
40
0
0
LTYPE
5
16
100
AcDbSymbolTableRecord
100
AcDbLinetypeTableRecord
70
0
2
Continuous
3
Solid line
72
65
73
0
40
0
0
LTYPE
5
6E
100
AcDbSymbolTableRecord
100
AcDbLinetypeTableRecord
70
0
2
CENTER
3
____ _ ____ _ ____ _ ____
72
65
73
4
40
47.5
49
22
74
0
49
-8.5
74
0
49
8.5
74
0
49
-8.5
74
0
0
LTYPE
5
6F
100
AcDbSymbolTableRecord
100
AcDbLinetypeTableRecord
70
0
2
DASHED
3
__ __ __ __ __ __ __ __ __
72
65
73
2
40
25.72
49
12.86
74
0
49
-12.86
74
0
0
ENDTAB
0
TABLE
2
LAYER
5
266
100
AcDbSymbolTable
0
LAYER
5
10
100
AcDbSymbolTableRecord
100
AcDbLayerTableRecord
2
0
70
0
62
7
6
Continuous
290
1
370
-3
390
0
0
LAYER
5
71
100
AcDbSymbolTableRecord
100
AcDbLayerTableRecord
2
2
70
0
62
7
6
Continuous
290
1
370
-3
390
0
0
LAYER
5
93
100
AcDbSymbolTableRecord
100
AcDbLayerTableRecord
2
81
70
0
62
-3
6
Continuous
290
1
370
-3
390
0
0
LAYER
5
95
100
AcDbSymbolTableRecord
100
AcDbLayerTableRecord
2
80
70
0
62
-6
6
Continuous
290
1
370
-3
390
0
0
LAYER
5
97
100
AcDbSymbolTableRecord
100
AcDbLayerTableRecord
2
1
70
0
62
4
6
Continuous
290
1
370
-3
390
0
0
LAYER
5
A2
100
AcDbSymbolTableRecord
100
AcDbLayerTableRecord
2
4
70
0
62
-2
6
CENTER
290
1
370
-3
390
0
0
LAYER
5
250
100
AcDbSymbolTableRecord
100
AcDbLayerTableRecord
2
SK4
70
0
62
2
6
CENTER
290
1
370
-3
390
0
0
LAYER
5
251
100
AcDbSymbolTableRecord
100
AcDbLayerTableRecord
2
SK1
70
0
62
4
6
Continuous
290
1
370
-3
390
0
0
LAYER
5
252
100
AcDbSymbolTableRecord
100
AcDbLayerTableRecord
2
SK2
70
0
62
7
6
Continuous
290
1
370
-3
390
0
0
LAYER
5
253
100
AcDbSymbolTableRecord
100
AcDbLayerTableRecord
2
SK6
70
0
62
5
6
Continuous
290
1
370
-3
390
0
0
ENDTAB
0
TABLE
2
STYLE
5
267
100
AcDbSymbolTable
0
STYLE
5
11
100
AcDbSymbolTableRecord
100
AcDbTextStyleTableRecord
2
Standard
3
txt
70
0
71
0
40
0
41
1
42
0
50
0
0
STYLE
5
1D4
100
AcDbSymbolTableRecord
100
AcDbTextStyleTableRecord
2
iso_b_vert
3
simplex.shx
70
0
71
0
40
0
41
1
42
0
50
0
0
STYLE
5
1D5
100
AcDbSymbolTableRecord
100
AcDbTextStyleTableRecord
2
DWGDirectTextStyle
3
simplex
70
0
71
0
40
0
41
1
42
0
50
0
0
ENDTAB
0
TABLE
2
DIMSTYLE
5
268
100
AcDbSymbolTable
100
AcDbDimStyleTable
0
DIMSTYLE
105
27
100
AcDbSymbolTableRecord
100
AcDbDimStyleTableRecord
2
Standard
70
0
3
<>
41
0.18
42
0.0625
44
0.18
140
0.18
147
0.09
73
0
74
0
77
1
271
2
275
0
278
52
280
0
340
11
0
ENDTAB
0
TABLE
2
VIEW
5
269
100
AcDbSymbolTable
0
ENDTAB
0
TABLE
2
UCS
5
26a
100
AcDbSymbolTable
0
ENDTAB
0
TABLE
2
APPID
5
26b
100
AcDbSymbolTable
0
APPID
5
12
100
AcDbSymbolTableRecord
100
AcDbRegAppTableRecord
2
ACAD
70
0
0
APPID
5
24C
100
AcDbSymbolTableRecord
100
AcDbRegAppTableRecord
2
ACAD_MLEADERVER
70
0
0
ENDTAB
0
TABLE
2
BLOCK_RECORD
5
26c
100
AcDbSymbolTable
0
BLOCK_RECORD
5
1F
100
AcDbSymbolTableRecord
100
AcDbBlockTableRecord
2
*Model_Space
340
0
70
0
0
BLOCK_RECORD
5
1B
100
AcDbSymbolTableRecord
100
AcDbBlockTableRecord
2
*Paper_Space
340
0
70
0
0
BLOCK_RECORD
5
23
100
AcDbSymbolTableRecord
100
AcDbBlockTableRecord
2
*Paper_Space0
340
0
70
0
0
ENDTAB
0
ENDSEC
0
SECTION
2
BLOCKS
0
BLOCK
5
20
100
AcDbEntity
8
0
100
AcDbBlockBegin
2
*Model_Space
70
0
10
0
20
0
30
0
3
*Model_Space
0
ENDBLK
5
21
100
AcDbEntity
8
0
100
AcDbBlockEnd
0
BLOCK
5
1C
100
AcDbEntity
8
0
100
AcDbBlockBegin
2
*Paper_Space
70
0
10
0
20
0
30
0
3
*Paper_Space
0
ENDBLK
5
1D
100
AcDbEntity
8
0
100
AcDbBlockEnd
0
BLOCK
5
24
100
AcDbEntity
8
0
100
AcDbBlockBegin
2
*Paper_Space0
70
0
10
0
20
0
30
0
3
*Paper_Space0
0
ENDBLK
5
25
100
AcDbEntity
8
0
100
AcDbBlockEnd
0
ENDSEC
0
SECTION
2
ENTITIES
0
ARC
5
146
100
AcDbEntity
8
1
62
256
6
ByLayer
370
18
48
1
60
0
100
AcDbCircle
39
0
10
117.8
20
-19.8
30
0
40
0.2
210
0
220
0
230
1
100
AcDbArc
50
270
51
360
0
ARC
5
147
100
AcDbEntity
8
1
62
256
6
ByLayer
370
18
48
1
60
0
100
AcDbCircle
39
0
10
117.8
20
19.8
30
0
40
0.2
210
0
220
0
230
1
100
AcDbArc
50
360
51
90
0
ARC
5
148
100
AcDbEntity
8
SK1
62
256
6
ByLayer
370
18
48
1
60
0
100
AcDbCircle
39
0
10
-0.6
20
15
30
0
40
0.999999999999994
210
0
220
0
230
1
100
AcDbArc
50
293.578178
51
306.869898
0
ARC
5
149
100
AcDbEntity
8
SK1
62
256
6
ByLayer
370
18
48
1
60
0
100
AcDbCircle
39
0
10
-0.6
20
-15
30
0
40
0.999999999999994
210
0
220
0
230
1
100
AcDbArc
50
53.130102
51
66.421822
0
ARC
5
14A
100
AcDbEntity
8
1
62
256
6
ByLayer
370
18
48
1
60
0
100
AcDbCircle
39
0
10
124.8
20
6.699495
30
0
40
0.2
210
0
220
0
230
1
100
AcDbArc
50
0
51
90
0
ARC
5
14B
100
AcDbEntity
8
1
62
256
6
ByLayer
370
18
48
1
60
0
100
AcDbCircle
39
0
10
124.8
20
13.099495
30
0
40
0.2
210
0
220
0
230
1
100
AcDbArc
50
270
51
0
0
ARC
5
14C
100
AcDbEntity
8
1
62
256
6
ByLayer
370
18
48
1
60
0
100
AcDbCircle
39
0
10
130.4
20
5.499495
30
0
40
0.6
210
0
220
0
230
1
100
AcDbArc
50
270
51
360
0
ARC
5
14D
100
AcDbEntity
8
1
62
256
6
ByLayer
370
18
48
1
60
0
100
AcDbCircle
39
0
10
130.4
20
14.299495
30
0
40
0.6
210
0
220
0
230
1
100
AcDbArc
50
360
51
90
0
ARC
5
14E
100
AcDbEntity
8
1
62
256
6
ByLayer
370
18
48
1
60
0
100
AcDbCircle
39
0
10
118.2
20
-19.8
30
0
40
0.2
210
0
220
0
230
1
100
AcDbArc
50
180
51
270
0
ARC
5
14F
100
AcDbEntity
8
1
62
256
6
ByLayer
370
18
48
1
60
0
100
AcDbCircle
39
0
10
118.2
20
19.8
30
0
40
0.2
210
0
220
0
230
1
100
AcDbArc
50
90
51
180
0
ARC
5
150
100
AcDbEntity
8
1
62
256
6
ByLayer
370
18
48
1
60
0
100
AcDbCircle
39
0
10
124.8
20
-13.099495
30
0
40
0.2
210
0
220
0
230
1
100
AcDbArc
50
0
51
90
0
ARC
5
151
100
AcDbEntity
8
1
62
256
6
ByLayer
370
18
48
1
60
0
100
AcDbCircle
39
0
10
124.8
20
-6.699495
30
0
40
0.2
210
0
220
0
230
1
100
AcDbArc
50
270
51
0
0
ARC
5
152
100
AcDbEntity
8
1
62
256
6
ByLayer
370
18
48
1
60
0
100
AcDbCircle
39
0
10
130.4
20
-14.299495
30
0
40
0.6
210
0
220
0
230
1
100
AcDbArc
50
270
51
360
0
ARC
5
153
100
AcDbEntity
8
1
62
256
6
ByLayer
370
18
48
1
60
0
100
AcDbCircle
39
0
10
130.4
20
-5.499495
30
0
40
0.6
210
0
220
0
230
1
100
AcDbArc
50
360
51
90
0
ELLIPSE
5
154
100
AcDbEntity
8
1
62
256
6
ByLayer
370
18
48
1
60
0
100
AcDbEllipse
10
-0.948929
20
0
30
0
11
9.3674178797821
21
19.7417491527499
31
0
210
0
220
0
230
1
40
0.341999
41
-1.0963195274999
42
-0.152726244898346
0
ELLIPSE
5
155
100
AcDbEntity
8
1
62
256
6
ByLayer
370
18
48
1
60
0
100
AcDbEllipse
10
16.948929
20
0
30
0
11
9.36741787978119
21
-19.7417491527495
31
0
210
0
220
0
230
1
40
0.341999
41
-2.98886640869143
42
-2.04527312608987
0
ELLIPSE
5
156
100
AcDbEntity
8
1
62
256
6
ByLayer
370
18
48
1
60
0
100
AcDbEllipse
10
16.948929
20
0
30
0
11
9.36741787978142
21
19.7417491527498
31
0
210
0
220
0
230
1
40
0.341999
41
2.04527312608987
42
2.98886640869144
0
ELLIPSE
5
157
100
AcDbEntity
8
1
62
256
6
ByLayer
370
18
48
1
60
0
100
AcDbEllipse
10
-0.948929
20
0
30
0
11
9.36741787978197
21
-19.7417491527498
31
0
210
0
220
0
230
1
40
0.341999
41
0.15272624489835
42
1.0963195274999
0
POINT
5
70
100
AcDbEntity
8
2
62
256
6
ByLayer
370
18
48
1
60
0
100
AcDbPoint
10
121
20
-9.899495
30
0
39
0
210
0
220
0
230
1
50
360
0
POINT
5
72
100
AcDbEntity
8
2
62
256
6
ByLayer
370
18
48
1
60
0
100
AcDbPoint
10
108
20
0
30
0
39
0
210
0
220
0
230
1
50
360
0
POINT
5
73
100
AcDbEntity
8
2
62
256
6
ByLayer
370
18
48
1
60
0
100
AcDbPoint
10
125
20
9.899495
30
0
39
0
210
0
220
0
230
1
50
360
0
POINT
5
74
100
AcDbEntity
8
2
62
256
6
ByLayer
370
18
48
1
60
0
100
AcDbPoint
10
121
20
9.899495
30
0
39
0
210
0
220
0
230
1
50
360
0
POINT
5
75
100
AcDbEntity
8
2
62
256
6
ByLayer
370
18
48
1
60
0
100
AcDbPoint
10
55.95
20
0
30
0
39
0
210
0
220
0
230
1
50
360
0
POINT
5
76
100
AcDbEntity
8
2
62
256
6
ByLayer
370
18
48
1
60
0
100
AcDbPoint
10
59.45
20
0
30
0
39
0
210
0
220
0
230
1
50
360
0
POINT
5
77
100
AcDbEntity
8
2
62
256
6
ByLayer
370
18
48
1
60
0
100
AcDbPoint
10
92.55
20
0
30
0
39
0
210
0
220
0
230
1
50
360
0
POINT
5
78
100
AcDbEntity
8
2
62
256
6
ByLayer
370
18
48
1
60
0
100
AcDbPoint
10
121
20
-9.899495
30
0
39
0
210
0
220
0
230
1
50
360
0
POINT
5
79
100
AcDbEntity
8
2
62
256
6
ByLayer
370
18
48
1
60
0
100
AcDbPoint
10
96.05
20
0
30
0
39
0
210
0
220
0
230
1
50
360
0
POINT
5
7A
100
AcDbEntity
8
2
62
256
6
ByLayer
370
18
48
1
60
0
100
AcDbPoint
10
108
20
0
30
0
39
0
210
0
220
0
230
1
50
360
0
POINT
5
7B
100
AcDbEntity
8
2
62
256
6
ByLayer
370
50
48
1
60
0
100
AcDbPoint
10
104
20
0
30
0
39
0
210
0
220
0
230
1
50
360
0
POINT
5
7C
100
AcDbEntity
8
2
62
256
6
ByLayer
370
18
48
1
60
0
100
AcDbPoint
10
94
20
0
30
0
39
0
210
0
220
0
230
1
50
360
0
POINT
5
7D
100
AcDbEntity
8
2
62
256
6
ByLayer
370
18
48
1
60
0
100
AcDbPoint
10
117.37476
20
0
30
0
39
0
210
0
220
0
230
1
50
360
0
POINT
5
7E
100
AcDbEntity
8
2
62
256
6
ByLayer
370
50
48
1
60
0
100
AcDbPoint
10
127
20
0
30
0
39
0
210
0
220
0
230
1
50
360
0
POINT
5
7F
100
AcDbEntity
8
2
62
256
6
ByLayer
370
18
48
1
60
0
100
AcDbPoint
10
118
20
0
30
0
39
0
210
0
220
0
230
1
50
360
0
POINT
5
80
100
AcDbEntity
8
2
62
256
6
ByLayer
370
18
48
1
60
0
100
AcDbPoint
10
103.5
20
0
30
0
39
0
210
0
220
0
230
1
50
360
0
POINT
5
81
100
AcDbEntity
8
2
62
256
6
ByLayer
370
18
48
1
60
0
100
AcDbPoint
10
118
20
0
30
0
39
0
210
0
220
0
230
1
50
360
0
POINT
5
82
100
AcDbEntity
8
2
62
256
6
ByLayer
370
18
48
1
60
0
100
AcDbPoint
10
55.95
20
0
30
0
39
0
210
0
220
0
230
1
50
360
0
POINT
5
83
100
AcDbEntity
8
2
62
256
6
ByLayer
370
18
48
1
60
0
100
AcDbPoint
10
103.5
20
0
30
0
39
0
210
0
220
0
230
1
50
360
0
POINT
5
84
100
AcDbEntity
8
2
62
256
6
ByLayer
370
18
48
1
60
0
100
AcDbPoint
10
48.5
20
0
30
0
39
0
210
0
220
0
230
1
50
360
0
POINT
5
85
100
AcDbEntity
8
2
62
256
6
ByLayer
370
18
48
1
60
0
100
AcDbPoint
10
92.55
20
0
30
0
39
0
210
0
220
0
230
1
50
360
0
POINT
5
86
100
AcDbEntity
8
2
62
256
6
ByLayer
370
18
48
1
60
0
100
AcDbPoint
10
59.45
20
0
30
0
39
0
210
0
220
0
230
1
50
360
0
POINT
5
87
100
AcDbEntity
8
2
62
256
6
ByLayer
370
18
48
1
60
0
100
AcDbPoint
10
96.05
20
0
30
0
39
0
210
0
220
0
230
1
50
360
0
POINT
5
88
100
AcDbEntity
8
2
62
256
6
ByLayer
370
18
48
1
60
0
100
AcDbPoint
10
103.5
20
0
30
0
39
0
210
0
220
0
230
1
50
360
0
POINT
5
89
100
AcDbEntity
8
2
62
256
6
ByLayer
370
18
48
1
60
0
100
AcDbPoint
10
125
20
9.899495
30
0
39
0
210
0
220
0
230
1
50
360
0
POINT
5
8A
100
AcDbEntity
8
2
62
256
6
ByLayer
370
18
48
1
60
0
100
AcDbPoint
10
108
20
0
30
0
39
0
210
0
220
0
230
1
50
360
0
POINT
5
8B
100
AcDbEntity
8
2
62
256
6
ByLayer
370
18
48
1
60
0
100
AcDbPoint
10
117.37476
20
0
30
0
39
0
210
0
220
0
230
1
50
360
0
POINT
5
8C
100
AcDbEntity
8
2
62
256
6
ByLayer
370
18
48
1
60
0
100
AcDbPoint
10
44.05
20
0
30
0
39
0
210
0
220
0
230
1
50
360
0
POINT
5
8D
100
AcDbEntity
8
2
62
256
6
ByLayer
370
18
48
1
60
0
100
AcDbPoint
10
48.5
20
0
30
0
39
0
210
0
220
0
230
1
50
360
0
POINT
5
8E
100
AcDbEntity
8
2
62
256
6
ByLayer
370
18
48
1
60
0
100
AcDbPoint
10
43.8
20
0
30
0
39
0
210
0
220
0
230
1
50
360
0
POINT
5
8F
100
AcDbEntity
8
2
62
256
6
ByLayer
370
18
48
1
60
0
100
AcDbPoint
10
48
20
0
30
0
39
0
210
0
220
0
230
1
50
360
0
POINT
5
90
100
AcDbEntity
8
2
62
256
6
ByLayer
370
18
48
1
60
0
100
AcDbPoint
10
39.6
20
0
30
0
39
0
210
0
220
0
230
1
50
360
0
POINT
5
91
100
AcDbEntity
8
2
62
256
6
ByLayer
370
18
48
1
60
0
100
AcDbPoint
10
39.6
20
-10
30
0
39
0
210
0
220
0
230
1
50
360
0
POINT
5
92
100
AcDbEntity
8
81
62
256
6
ByLayer
370
18
48
1
60
0
100
AcDbPoint
10
120
20
0
30
0
39
0
210
0
220
0
230
1
50
360
0
POINT
5
94
100
AcDbEntity
8
80
62
256
6
ByLayer
370
18
48
1
60
0
100
AcDbPoint
10
0
20
0
30
0
39
0
210
0
220
0
230
1
50
360
0
POINT
5
96
100
AcDbEntity
8
1
62
256
6
ByLayer
370
13
48
1
60
1
100
AcDbPoint
10
112.05
20
-9.899495
30
0
39
0
210
0
220
0
230
1
50
360
0
POINT
5
98
100
AcDbEntity
8
1
62
256
6
ByLayer
370
13
48
1
60
1
100
AcDbPoint
10
131.9
20
-9.899495
30
0
39
0
210
0
220
0
230
1
50
360
0
POINT
5
99
100
AcDbEntity
8
1
62
256
6
ByLayer
370
13
48
1
60
1
100
AcDbPoint
10
121.82476
20
0
30
0
39
0
210
0
220
0
230
1
50
360
0
POINT
5
9A
100
AcDbEntity
8
1
62
256
6
ByLayer
370
13
48
1
60
1
100
AcDbPoint
10
116.7
20
0
30
0
39
0
210
0
220
0
230
1
50
360
0
POINT
5
9B
100
AcDbEntity
8
1
62
256
6
ByLayer
370
13
48
1
60
1
100
AcDbPoint
10
112.05
20
9.899495
30
0
39
0
210
0
220
0
230
1
50
360
0
POINT
5
9C
100
AcDbEntity
8
1
62
256
6
ByLayer
370
13
48
1
60
1
100
AcDbPoint
10
131.9
20
9.899495
30
0
39
0
210
0
220
0
230
1
50
360
0
SPLINE
5
158
100
AcDbEntity
8
1
62
256
6
ByLayer
370
18
48
1
60
0
100
AcDbSpline
70
4
71
3
72
25
73
21
40
0
40
0
40
0
40
0
40
0.0625000000000043
40
0.0625000000000043
40
0.125000000000009
40
0.125000000000009
40
0.250000000000007
40
0.250000000000007
40
0.31250000000001
40
0.31250000000001
40
0.375000000000014
40
0.437500000000017
40
0.437500000000017
40
0.500000000000021
40
0.500000000000021
40
0.625000000000017
40
0.625000000000017
40
0.750000000000014
40
0.750000000000014
40
1
40
1
40
1
40
1
41
1
10
9.07679491924333
20
19.1222825906925
30
0
41
1
10
9.08618793610032
20
19.1222825906925
30
0
41
1
10
9.09541273714811
20
19.1220079254874
30
0
41
1
10
9.11355518087376
20
19.1209563802606
30
0
41
1
10
9.12253667740629
20
19.1201714845572
30
0
41
1
10
9.14859952398751
20
19.1171586755843
30
0
41
1
10
9.16442417341901
20
19.1143521510704
30
0
41
1
10
9.18652951961016
20
19.1092882103459
30
0
41
1
10
9.19352784170763
20
19.1074753109817
30
0
41
1
10
9.20680755936004
20
19.1036766400565
30
0
41
1
10
9.21941536169072
20
19.0996940974827
30
0
41
1
10
9.23090181997074
20
19.0953996597769
30
0
41
1
10
9.24190585527103
20
19.0909686533589
30
0
41
1
10
9.24718147390914
20
19.0886774015103
30
0
41
1
10
9.26222766550291
20
19.0816874304591
30
0
41
1
10
9.27124506170031
20
19.0768715139989
30
0
41
1
10
9.28776218432901
20
19.0669920754349
30
0
41
1
10
9.29525647265248
20
19.0619278372253
30
0
41
1
10
9.3158845394758
20
19.0464153092312
30
0
41
1
10
9.32720842156837
20
19.0356185274184
30
0
41
1
10
9.33660254037866
20
19.0245744101322
30
0
0
SPLINE
5
159
100
AcDbEntity
8
1
62
256
6
ByLayer
370
18
48
1
60
0
100
AcDbSpline
70
4
71
3
72
26
73
22
40
0
40
0
40
0
40
0
40
0.250000000000001
40
0.250000000000001
40
0.375000000000001
40
0.375000000000001
40
0.500000000000002
40
0.500000000000002
40
0.625000000000002
40
0.625000000000002
40
0.687500000000002
40
0.687500000000002
40
0.750000000000001
40
0.750000000000001
40
0.812500000000001
40
0.812500000000001
40
0.875000000000001
40
0.875000000000001
40
0.9375
40
0.9375
40
1
40
1
40
1
40
1
41
1
10
9.33660254037861
20
6.16973001948571
30
0
41
1
10
9.32721186043497
20
6.13568757087464
30
0
41
1
10
9.31597445228979
20
6.10231901184946
30
0
41
1
10
9.29538640224743
20
6.05364979751809
30
0
41
1
10
9.28789550729914
20
6.03765971826817
30
0
41
1
10
9.27134184136727
20
6.00626721095975
30
0
41
1
10
9.26223393369838
20
5.99079069805941
30
0
41
1
10
9.2421773079827
20
5.96102885758609
30
0
41
1
10
9.23126332140686
20
5.9467625930485
30
0
41
1
10
9.21306307463752
20
5.92663822853581
30
0
41
1
10
9.20667890314763
20
5.92014175764379
30
0
41
1
10
9.19339083915176
20
5.90787848896431
30
0
41
1
10
9.18646533697239
20
5.9020849157825
30
0
41
1
10
9.17194694863741
20
5.8913003134268
30
0
41
1
10
9.16435507239595
20
5.88630806692441
30
0
41
1
10
9.14834794030483
20
5.87731470491119
30
0
41
1
10
9.13991769670082
20
5.87332463683578
30
0
41
1
10
9.12269397006514
20
5.8668296585777
30
0
41
1
10
9.11383421352812
20
5.86428190495295
30
0
41
1
10
9.09554387437271
20
5.86079831910376
30
0
41
1
10
9.0861755275335
20
5.85988980456938
30
0
41
1
10
9.07679491924327
20
5.85988980456938
30
0
0
SPLINE
5
15A
100
AcDbEntity
8
1
62
256
6
ByLayer
370
18
48
1
60
0
100
AcDbSpline
70
4
71
3
72
25
73
21
40
0
40
0
40
0
40
0
40
0.0625000000000024
40
0.0625000000000024
40
0.125000000000005
40
0.125000000000005
40
0.250000000000015
40
0.250000000000015
40
0.312500000000016
40
0.312500000000016
40
0.375000000000017
40
0.437500000000018
40
0.437500000000018
40
0.500000000000019
40
0.500000000000019
40
0.625000000000011
40
0.625000000000011
40
0.750000000000003
40
0.750000000000003
40
1
40
1
40
1
40
1
41
1
10
6.9232050807569
20
5.85988980456935
30
0
41
1
10
6.91381206389991
20
5.85988980456935
30
0
41
1
10
6.90458726285215
20
5.86078630517147
30
0
41
1
10
6.88644481912647
20
5.86421608754827
30
0
41
1
10
6.87746332259391
20
5.86677544388638
30
0
41
1
10
6.85140047601271
20
5.87658838136369
30
0
41
1
10
6.83557582658119
20
5.88571770958592
30
0
41
1
10
6.81347048039004
20
5.90212985895326
30
0
41
1
10
6.80647215829259
20
5.9079969952312
30
0
41
1
10
6.79319244064018
20
5.92026858238677
30
0
41
1
10
6.78058463830948
20
5.9331131563525
30
0
41
1
10
6.76909818002946
20
5.94691241043867
30
0
41
1
10
6.75809414472917
20
5.96112164449838
30
0
41
1
10
6.75281852609106
20
5.9684550655306
30
0
41
1
10
6.73777233449732
20
5.99078025293946
30
0
41
1
10
6.72875493829991
20
6.00610043240178
30
0
41
1
10
6.71223781567119
20
6.03739036016586
30
0
41
1
10
6.70474352734772
20
6.05336249030205
30
0
41
1
10
6.6841154605244
20
6.10206728171738
30
0
41
1
10
6.67279157843186
20
6.13567510453115
30
0
41
1
10
6.66339745962156
20
6.16973001948568
30
0
0
SPLINE
5
15B
100
AcDbEntity
8
1
62
256
6
ByLayer
370
18
48
1
60
0
100
AcDbSpline
70
4
71
3
72
26
73
22
40
0
40
0
40
0
40
0
40
0.249999999999996
40
0.249999999999996
40
0.374999999999998
40
0.374999999999998
40
0.499999999999999
40
0.499999999999999
40
0.625
40
0.625
40
0.6875
40
0.6875
40
0.75
40
0.75
40
0.8125
40
0.8125
40
0.875
40
0.875
40
0.9375
40
0.9375
40
1
40
1
40
1
40
1
41
1
10
6.66339745962162
20
19.0245744101322
30
0
41
1
10
6.67278813956526
20
19.0356144845435
30
0
41
1
10
6.68402554771041
20
19.0463346141653
30
0
41
1
10
6.70461359775277
20
19.0618365856569
30
0
41
1
10
6.71210449270106
20
19.0669068299453
30
0
41
1
10
6.72865815863292
20
19.07681905156
30
0
41
1
10
6.73776606630182
20
19.0816841489935
30
0
41
1
10
6.7578226920175
20
19.0910025433169
30
0
41
1
10
6.76873667859337
20
19.0954500347066
30
0
41
1
10
6.78693692536271
20
19.1017017213014
30
0
41
1
10
6.79332109685257
20
19.1037159413756
30
0
41
1
10
6.80660916084844
20
19.1075119510364
30
0
41
1
10
6.81353466302781
20
19.1093020671091
30
0
41
1
10
6.82805305136282
20
19.1126296584783
30
0
41
1
10
6.83564492760428
20
19.1141675067423
30
0
41
1
10
6.8516520596954
20
19.1169347436762
30
0
41
1
10
6.86008230329941
20
19.1181607182976
30
0
41
1
10
6.87730602993509
20
19.1201548450203
30
0
41
1
10
6.88616578647211
20
19.1209361972228
30
0
41
1
10
6.90445612562752
20
19.1220042459417
30
0
41
1
10
6.91382447246673
20
19.1222825906925
30
0
41
1
10
6.92320508075696
20
19.1222825906925
30
0
0
SPLINE
5
15C
100
AcDbEntity
8
1
62
256
6
ByLayer
370
18
48
1
60
0
100
AcDbSpline
70
4
71
3
72
25
73
21
40
0
40
0
40
0
40
0
40
0.0625000000000003
40
0.0625000000000003
40
0.125000000000001
40
0.125000000000001
40
0.249999999999999
40
0.249999999999999
40
0.3125
40
0.3125
40
0.375000000000001
40
0.437500000000002
40
0.437500000000002
40
0.500000000000003
40
0.500000000000003
40
0.624999999999998
40
0.624999999999998
40
0.749999999999994
40
0.749999999999994
40
1
40
1
40
1
40
1
41
1
10
6.92320508075682
20
-19.1222825906926
30
0
41
1
10
6.91381206389983
20
-19.1222825906926
30
0
41
1
10
6.90458726285203
20
-19.1220079254874
30
0
41
1
10
6.88644481912638
20
-19.1209563802606
30
0
41
1
10
6.87746332259383
20
-19.1201714845572
30
0
41
1
10
6.85140047601263
20
-19.1171586755844
30
0
41
1
10
6.83557582658111
20
-19.1143521510704
30
0
41
1
10
6.81347048038995
20
-19.109288210346
30
0
41
1
10
6.80647215829248
20
-19.1074753109818
30
0
41
1
10
6.7931924406401
20
-19.1036766400566
30
0
41
1
10
6.78058463830939
20
-19.0996940974827
30
0
41
1
10
6.76909818002937
20
-19.095399659777
30
0
41
1
10
6.75809414472909
20
-19.090968653359
30
0
41
1
10
6.75281852609098
20
-19.0886774015103
30
0
41
1
10
6.73777233449721
20
-19.0816874304591
30
0
41
1
10
6.7287549382998
20
-19.076871513999
30
0
41
1
10
6.7122378156711
20
-19.0669920754349
30
0
41
1
10
6.70474352734763
20
-19.0619278372253
30
0
41
1
10
6.68411546052431
20
-19.0464153092313
30
0
41
1
10
6.67279157843174
20
-19.0356185274185
30
0
41
1
10
6.66339745962145
20
-19.0245744101322
30
0
0
SPLINE
5
15D
100
AcDbEntity
8
1
62
256
6
ByLayer
370
18
48
1
60
0
100
AcDbSpline
70
4
71
3
72
26
73
22
40
0
40
0
40
0
40
0
40
0.250000000000006
40
0.250000000000006
40
0.375000000000006
40
0.375000000000006
40
0.500000000000005
40
0.500000000000005
40
0.625000000000005
40
0.625000000000005
40
0.687500000000004
40
0.687500000000004
40
0.750000000000003
40
0.750000000000003
40
0.812500000000002
40
0.812500000000002
40
0.875000000000002
40
0.875000000000002
40
0.937500000000001
40
0.937500000000001
40
1
40
1
40
1
40
1
41
1
10
6.66339745962151
20
-6.16973001948574
30
0
41
1
10
6.67278813956514
20
-6.13568757087469
30
0
41
1
10
6.68402554771032
20
-6.10231901184952
30
0
41
1
10
6.70461359775268
20
-6.05364979751815
30
0
41
1
10
6.71210449270097
20
-6.0376597182682
30
0
41
1
10
6.72865815863284
20
-6.00626721095978
30
0
41
1
10
6.73776606630173
20
-5.99079069805944
30
0
41
1
10
6.75782269201741
20
-5.96102885758611
30
0
41
1
10
6.76873667859326
20
-5.94676259304853
30
0
41
1
10
6.78693692536262
20
-5.92663822853584
30
0
41
1
10
6.79332109685248
20
-5.92014175764382
30
0
41
1
10
6.80660916084835
20
-5.90787848896434
30
0
41
1
10
6.81353466302772
20
-5.9020849157825
30
0
41
1
10
6.82805305136273
20
-5.89130031342683
30
0
41
1
10
6.83564492760419
20
-5.88630806692444
30
0
41
1
10
6.85165205969531
20
-5.87731470491121
30
0
41
1
10
6.86008230329929
20
-5.87332463683578
30
0
41
1
10
6.877306029935
20
-5.8668296585777
30
0
41
1
10
6.88616578647199
20
-5.86428190495295
30
0
41
1
10
6.90445612562743
20
-5.86079831910376
30
0
41
1
10
6.91382447246662
20
-5.85988980456938
30
0
41
1
10
6.92320508075684
20
-5.85988980456938
30
0
0
SPLINE
5
15E
100
AcDbEntity
8
1
62
256
6
ByLayer
370
18
48
1
60
0
100
AcDbSpline
70
4
71
3
72
25
73
21
40
0
40
0
40
0
40
0
40
0.0625000000000116
40
0.0625000000000116
40
0.125000000000023
40
0.125000000000023
40
0.250000000000038
40
0.250000000000038
40
0.312500000000039
40
0.312500000000039
40
0.37500000000004
40
0.437500000000041
40
0.437500000000041
40
0.500000000000042
40
0.500000000000042
40
0.625000000000033
40
0.625000000000033
40
0.750000000000024
40
0.750000000000024
40
1
40
1
40
1
40
1
41
1
10
9.07679491924324
20
-5.85988980456946
30
0
41
1
10
9.08618793610023
20
-5.85988980456946
30
0
41
1
10
9.095412737148
20
-5.86078630517156
30
0
41
1
10
9.11355518087368
20
-5.86421608754836
30
0
41
1
10
9.1225366774062
20
-5.86677544388647
30
0
41
1
10
9.14859952398743
20
-5.87658838136377
30
0
41
1
10
9.16442417341895
20
-5.88571770958603
30
0
41
1
10
9.1865295196101
20
-5.90212985895337
30
0
41
1
10
9.19352784170758
20
-5.90799699523129
30
0
41
1
10
9.20680755935996
20
-5.92026858238685
30
0
41
1
10
9.21941479944627
20
-5.93311363814726
30
0
41
1
10
9.23090181997068
20
-5.94691241043878
30
0
41
1
10
9.24190585527097
20
-5.96112164449846
30
0
41
1
10
9.24718147390908
20
-5.96845506553069
30
0
41
1
10
9.26222766550282
20
-5.99078025293957
30
0
41
1
10
9.27124506170023
20
-6.00610043240189
30
0
41
1
10
9.28776218432895
20
-6.03739036016594
30
0
41
1
10
9.29525647265243
20
-6.05336249030213
30
0
41
1
10
9.31588453947575
20
-6.10206728171749
30
0
41
1
10
9.3272084215684
20
-6.1356751045316
30
0
41
1
10
9.33660254037866
20
-6.16973001948617
30
0
0
SPLINE
5
15F
100
AcDbEntity
8
1
62
256
6
ByLayer
370
18
48
1
60
0
100
AcDbSpline
70
4
71
3
72
26
73
22
40
0
40
0
40
0
40
0
40
0.250000000000012
40
0.250000000000012
40
0.375000000000013
40
0.375000000000013
40
0.500000000000013
40
0.500000000000013
40
0.625000000000014
40
0.625000000000014
40
0.687500000000011
40
0.687500000000011
40
0.750000000000009
40
0.750000000000009
40
0.812500000000007
40
0.812500000000007
40
0.875000000000005
40
0.875000000000005
40
0.937500000000002
40
0.937500000000002
40
1
40
1
40
1
40
1
41
1
10
9.33660254037861
20
-19.0245744101321
30
0
41
1
10
9.327211860435
20
-19.0356144845435
30
0
41
1
10
9.31597445228974
20
-19.0463346141653
30
0
41
1
10
9.29538640224737
20
-19.061836585657
30
0
41
1
10
9.28789550729908
20
-19.0669068299453
30
0
41
1
10
9.27134184136722
20
-19.07681905156
30
0
41
1
10
9.26223393369833
20
-19.0816841489935
30
0
41
1
10
9.24217730798264
20
-19.0910025433169
30
0
41
1
10
9.2312633214068
20
-19.0954500347067
30
0
41
1
10
9.21306307463743
20
-19.1017017213015
30
0
41
1
10
9.20667890314758
20
-19.1037159413756
30
0
41
1
10
9.1933908391517
20
-19.1075119510364
30
0
41
1
10
9.18646533697233
20
-19.1093020671092
30
0
41
1
10
9.17194694863736
20
-19.1126296584783
30
0
41
1
10
9.16435507239586
20
-19.1141675067423
30
0
41
1
10
9.14834794030475
20
-19.1169347436763
30
0
41
1
10
9.13991769670074
20
-19.1181607182977
30
0
41
1
10
9.12269397006506
20
-19.1201548450204
30
0
41
1
10
9.11383421352804
20
-19.1209361972229
30
0
41
1
10
9.09554387437262
20
-19.1220042459418
30
0
41
1
10
9.08617552753341
20
-19.1222825906926
30
0
41
1
10
9.07679491924318
20
-19.1222825906926
30
0
0
SPLINE
5
160
100
AcDbEntity
8
SK1
62
256
6
ByLayer
370
18
48
1
60
0
100
AcDbSpline
70
4
71
3
72
9
73
5
40
0
40
0
40
0
40
0
40
0.398612302526601
40
1
40
1
40
1
40
1
41
1
10
-0.394913799811235
20
13.8446595289407
30
0
41
1
10
-0.394913799811235
20
13.8386282511807
30
0
41
1
10
-0.394913799811235
20
13.8153202987596
30
0
41
1
10
-0.394913799811235
20
13.7726147174672
30
0
41
1
10
-0.394913799811263
20
13.7403545289408
30
0
0
SPLINE
5
161
100
AcDbEntity
8
SK1
62
256
6
ByLayer
370
13
48
1
60
0
100
AcDbSpline
70
4
71
3
72
18
73
14
40
0
40
0
40
0
40
0
40
0.0327428665776918
40
0.112953690052841
40
0.19316451352799
40
0.353586160478288
40
0.514007807428585
40
0.594218630903734
40
0.674429454378883
40
0.834851101329181
40
0.91506192480433
40
0.995272748279479
40
1
40
1
40
1
40
1
41
1
10
-0.394913799811235
20
13.7403540821911
30
0
41
1
10
-0.394913799811235
20
13.7181012197967
30
0
41
1
10
-0.394913799811235
20
13.6305385249393
30
0
41
1
10
-0.394913799811235
20
13.4200270263956
30
0
41
1
10
-0.394913799811235
20
12.9393754432253
30
0
41
1
10
-0.394913799811235
20
12.1118907902116
30
0
41
1
10
-0.394913799811263
20
11.015314225612
30
0
41
1
10
-0.394913799811263
20
9.98771978618734
30
0
41
1
10
-0.394913799811263
20
8.86359092653058
30
0
41
1
10
-0.394913799811263
20
7.59985122616763
30
0
41
1
10
-0.394913799811263
20
6.19788950405021
30
0
41
1
10
-0.394913799811263
20
5.43069780454792
30
0
41
1
10
-0.394913799811263
20
5.02384266526144
30
0
41
1
10
-0.394913799811263
20
5.00116108217654
30
0
0
SPLINE
5
162
100
AcDbEntity
8
SK1
62
256
6
ByLayer
370
13
48
1
60
0
100
AcDbSpline
70
4
71
3
72
18
73
14
40
0
40
0
40
0
40
0
40
0.0047272869868406
40
0.084938101914298
40
0.165148916841756
40
0.32557054669667
40
0.405781361624128
40
0.485992176551585
40
0.6464138064065
40
0.806835436261415
40
0.887046251188872
40
0.96725706611633
40
1
40
1
40
1
40
1
41
1
10
-0.39491379981132
20
-5.00116056257954
30
0
41
1
10
-0.39491379981132
20
-5.02384231959817
30
0
41
1
10
-0.39491379981132
20
-5.43069766104711
30
0
41
1
10
-0.39491379981132
20
-6.19788936064776
30
0
41
1
10
-0.39491379981132
20
-7.59985108367658
30
0
41
1
10
-0.39491379981132
20
-8.86359091499725
30
0
41
1
10
-0.39491379981132
20
-9.98771966705354
30
0
41
1
10
-0.39491379981132
20
-11.0153145242407
30
0
41
1
10
-0.394913799811349
20
-12.1118904563386
30
0
41
1
10
-0.394913799811349
20
-12.9393760577865
30
0
41
1
10
-0.394913799811349
20
-13.4200269261686
30
0
41
1
10
-0.394913799811349
20
-13.6305387837862
30
0
41
1
10
-0.39491379981132
20
-13.7181016404717
30
0
41
1
10
-0.39491379981132
20
-13.7403545625593
30
0
0
SPLINE
5
163
100
AcDbEntity
8
SK1
62
256
6
ByLayer
370
18
48
1
60
0
100
AcDbSpline
70
4
71
3
72
9
73
5
40
0
40
0
40
0
40
0
40
0.601388592244572
40
1
40
1
40
1
40
1
41
1
10
-0.394913799811349
20
-13.7403546982823
30
0
41
1
10
-0.394913799811349
20
-13.7726150014335
30
0
41
1
10
-0.394913799811349
20
-13.8153206302248
30
0
41
1
10
-0.394913799811349
20
-13.8386284705405
30
0
41
1
10
-0.394913799811349
20
-13.8446596982821
30
0
0
SPLINE
5
164
100
AcDbEntity
8
SK1
62
256
6
ByLayer
370
18
48
1
60
0
100
AcDbSpline
70
4
71
3
72
38
73
34
40
0
40
0
40
0
40
0
40
0.250000000000002
40
0.250000000000002
40
0.375000000000002
40
0.375000000000002
40
0.500000000000002
40
0.500000000000002
40
0.625000000000002
40
0.625000000000002
40
0.687500000000001
40
0.687500000000001
40
0.75
40
0.75
40
0.8125
40
0.8125
40
0.843750000000001
40
0.843750000000001
40
0.875000000000001
40
0.875000000000001
40
0.906250000000002
40
0.906250000000002
40
0.921875000000002
40
0.921875000000002
40
0.937500000000002
40
0.937500000000002
40
0.953125000000001
40
0.953125000000001
40
0.968750000000001
40
0.968750000000001
40
0.984375
40
0.984375
40
1
40
1
40
1
40
1
41
1
10
-0.199999999999363
20
-5.67845150386444
30
0
41
1
10
-0.200325582586345
20
-5.61546983787082
30
0
41
1
10
-0.201889292857572
20
-5.55215860517754
30
0
41
1
10
-0.206944102194683
20
-5.45662122321775
30
0
41
1
10
-0.209086134714454
20
-5.42467998239266
30
0
41
1
10
-0.21457199069215
20
-5.3605854115099
30
0
41
1
10
-0.217912063161634
20
-5.32841102024764
30
0
41
1
10
-0.226295439932102
20
-5.26391096451732
30
0
41
1
10
-0.231309806286362
20
-5.2316498923106
30
0
41
1
10
-0.240869472301768
20
-5.1832943458636
30
0
41
1
10
-0.244408671816416
20
-5.1671511226622
30
0
41
1
10
-0.252415474864961
20
-5.13507348952746
30
0
41
1
10
-0.256872941279795
20
-5.11914471875505
30
0
41
1
10
-0.267174521639589
20
-5.08763962812168
30
0
41
1
10
-0.272989810767712
20
-5.0720552884666
30
0
41
1
10
-0.28358861701804
20
-5.04917503165311
30
0
41
1
10
-0.287438460226042
20
-5.04163217306021
30
0
41
1
10
-0.296146757253496
20
-5.02681840776788
30
0
41
1
10
-0.301009391388107
20
-5.0195415451586
30
0
41
1
10
-0.312085221061153
20
-5.00607580183632
30
0
41
1
10
-0.318315705389438
20
-4.99984728402768
30
0
41
1
10
-0.329074985885256
20
-4.99241446107195
30
0
41
1
10
-0.332955447380527
20
-4.99024185405489
30
0
41
1
10
-0.340970311890771
20
-4.98696063906132
30
0
41
1
10
-0.345215229647579
20
-4.98581465317102
30
0
41
1
10
-0.353680105344097
20
-4.98475614855747
30
0
41
1
10
-0.357908257096057
20
-4.98482371680851
30
0
41
1
10
-0.366237107963428
20
-4.9860363417142
30
0
41
1
10
-0.370199866879318
20
-4.9871503845547
30
0
41
1
10
-0.377826935749425
20
-4.99013013351933
30
0
41
1
10
-0.381503554974358
20
-4.99201030025074
30
0
41
1
10
-0.38845158918636
20
-4.99624657017239
30
0
41
1
10
-0.391748910596078
20
-4.99861131394746
30
0
41
1
10
-0.394913799807426
20
-5.0011605625827
30
0
0
SPLINE
5
165
100
AcDbEntity
8
SK1
62
256
6
ByLayer
370
18
48
1
60
0
100
AcDbSpline
70
4
71
3
72
40
73
36
40
0
40
0
40
0
40
0
40
0.015625000000001
40
0.015625000000001
40
0.0312500000000019
40
0.0312500000000019
40
0.0468750000000029
40
0.0468750000000029
40
0.0625000000000039
40
0.0625000000000039
40
0.0781250000000048
40
0.0781250000000048
40
0.0937500000000058
40
0.0937500000000058
40
0.109375000000007
40
0.109375000000007
40
0.125000000000008
40
0.125000000000008
40
0.156250000000008
40
0.156250000000008
40
0.187500000000009
40
0.187500000000009
40
0.250000000000009
40
0.250000000000009
40
0.31250000000001
40
0.31250000000001
40
0.37500000000001
40
0.37500000000001
40
0.500000000000007
40
0.500000000000007
40
0.625000000000006
40
0.625000000000006
40
0.750000000000004
40
0.750000000000004
40
1
40
1
40
1
40
1
41
1
10
-0.394913799811349
20
-13.8446596982821
30
0
41
1
10
-0.391753842527209
20
-13.8448423969163
30
0
41
1
10
-0.388464315595655
20
-13.845095524037
30
0
41
1
10
-0.381541736392904
20
-13.8457899488977
30
0
41
1
10
-0.377877027729312
20
-13.846235641883
30
0
41
1
10
-0.370235109341792
20
-13.8473680380174
30
0
41
1
10
-0.366278137943965
20
-13.8480502152413
30
0
41
1
10
-0.358006392496009
20
-13.8497192387353
30
0
41
1
10
-0.353733594241419
20
-13.8507022641717
30
0
41
1
10
-0.345291253771734
20
-13.8529042812469
30
0
41
1
10
-0.341039973310615
20
-13.8541465128493
30
0
41
1
10
-0.333021571763936
20
-13.8567295936368
30
0
41
1
10
-0.329149016141315
20
-13.858101654615
30
0
41
1
10
-0.321960461862005
20
-13.8608465411072
30
0
41
1
10
-0.318622944145062
20
-13.8622234641578
30
0
41
1
10
-0.31232284130607
20
-13.8649804039333
30
0
41
1
10
-0.309355911672213
20
-13.866364075454
30
0
41
1
10
-0.301081039190649
20
-13.8704177140821
30
0
41
1
10
-0.296293809253342
20
-13.8730299294695
30
0
41
1
10
-0.287566520738608
20
-13.8781327420571
30
0
41
1
10
-0.283637913589757
20
-13.8806243248759
30
0
41
1
10
-0.27292403006939
20
-13.8878208927885
30
0
41
1
10
-0.267075773720677
20
-13.8923152006563
30
0
41
1
10
-0.256729802109788
20
-13.9009261566768
30
0
41
1
10
-0.252263586587162
20
-13.9050370743235
30
0
41
1
10
-0.244249097570247
20
-13.9129633802222
30
0
41
1
10
-0.240704867227152
20
-13.9167821274841
30
0
41
1
10
-0.231153161037952
20
-13.9277833881154
30
0
41
1
10
-0.226167999262032
20
-13.9345502713768
30
0
41
1
10
-0.217842040598015
20
-13.9472498215878
30
0
41
1
10
-0.214523379010984
20
-13.9531770452386
30
0
41
1
10
-0.209063760504875
20
-13.9643331642488
30
0
41
1
10
-0.206929064369007
20
-13.9695604951636
30
0
41
1
10
-0.201888899753527
20
-13.984321015747
30
0
41
1
10
-0.200325484931881
20
-13.9929389755075
30
0
41
1
10
-0.200000000000046
20
-14.0005308360297
30
0
0
SPLINE
5
166
100
AcDbEntity
8
SK1
62
256
6
ByLayer
370
18
48
1
60
0
100
AcDbSpline
70
4
71
3
72
38
73
34
40
0
40
0
40
0
40
0
40
0.25
40
0.25
40
0.375
40
0.375
40
0.5
40
0.5
40
0.624999999999999
40
0.624999999999999
40
0.687499999999999
40
0.687499999999999
40
0.749999999999999
40
0.749999999999999
40
0.812499999999999
40
0.812499999999999
40
0.84375
40
0.84375
40
0.875
40
0.875
40
0.90625
40
0.90625
40
0.921875
40
0.921875
40
0.9375
40
0.9375
40
0.953125
40
0.953125
40
0.96875
40
0.96875
40
0.984375
40
0.984375
40
1
40
1
40
1
40
1
41
1
10
-0.19999999999996
20
14.0005306290776
30
0
41
1
10
-0.200325526921574
20
13.992937784021
30
0
41
1
10
-0.201888714477036
20
13.9843134154886
30
0
41
1
10
-0.206943565198543
20
13.9695217949656
30
0
41
1
10
-0.209085750971298
20
13.964280444998
30
0
41
1
10
-0.214572317075408
20
13.9530845047233
30
0
41
1
10
-0.217912944663397
20
13.947127348993
30
0
41
1
10
-0.226297832831506
20
13.9343664914099
30
0
41
1
10
-0.231313142997862
20
13.9275805879124
30
0
41
1
10
-0.240874255815243
20
13.9165963734792
30
0
41
1
10
-0.244413939321532
20
13.9127918287046
30
0
41
1
10
-0.252421658911714
20
13.9048892296203
30
0
41
1
10
-0.256879537942325
20
13.9007947938235
30
0
41
1
10
-0.267181679795669
20
13.8922335922221
30
0
41
1
10
-0.272997114041147
20
13.887771829979
30
0
41
1
10
-0.283595780474911
20
13.8806523483052
30
0
41
1
10
-0.287445517218629
20
13.8782073044309
30
0
41
1
10
-0.296153419957108
20
13.8731079755537
30
0
41
1
10
-0.301015966388689
20
13.8704509077418
30
0
41
1
10
-0.312091372528158
20
13.865022403485
30
0
41
1
10
-0.318321797662975
20
13.8622381003803
30
0
41
1
10
-0.329080600695022
20
13.8581264595614
30
0
41
1
10
-0.332960961810812
20
13.8567502285021
30
0
41
1
10
-0.340975528995813
20
13.854165851519
30
0
41
1
10
-0.345220189226723
20
13.8529238754024
30
0
41
1
10
-0.353684635700603
20
13.8507136617023
30
0
41
1
10
-0.357912392007762
20
13.849739303977
30
0
41
1
10
-0.366240526544601
20
13.8480563938372
30
0
41
1
10
-0.370202860200664
20
13.8473733313911
30
0
41
1
10
-0.377829013893745
20
13.846241915681
30
0
41
1
10
-0.381505168769678
20
13.8457938151623
30
0
41
1
10
-0.388452375608722
20
13.8450961903932
30
0
41
1
10
-0.391749296202022
20
13.844842490927
30
0
41
1
10
-0.39491379981456
20
13.8446595289409
30
0
0
SPLINE
5
167
100
AcDbEntity
8
SK1
62
256
6
ByLayer
370
18
48
1
60
0
100
AcDbSpline
70
4
71
3
72
40
73
36
40
0
40
0
40
0
40
0
40
0.0156250000000001
40
0.0156250000000001
40
0.0312500000000003
40
0.0312500000000003
40
0.0468750000000004
40
0.0468750000000004
40
0.0625000000000006
40
0.0625000000000006
40
0.0781250000000007
40
0.0781250000000007
40
0.0937500000000009
40
0.0937500000000009
40
0.109375000000001
40
0.109375000000001
40
0.125000000000001
40
0.125000000000001
40
0.156250000000002
40
0.156250000000002
40
0.187500000000002
40
0.187500000000002
40
0.250000000000003
40
0.250000000000003
40
0.312500000000004
40
0.312500000000004
40
0.375000000000005
40
0.375000000000005
40
0.500000000000004
40
0.500000000000004
40
0.625000000000003
40
0.625000000000003
40
0.750000000000002
40
0.750000000000002
40
1
40
1
40
1
40
1
41
1
10
-0.394913799811263
20
5.00116108217654
30
0
41
1
10
-0.39175343882772
20
4.99861548354417
30
0
41
1
10
-0.388463488029373
20
4.99625601274579
30
0
41
1
10
-0.381540018186655
20
4.99203141004628
30
0
41
1
10
-0.377874829705547
20
4.99015247985739
30
0
41
1
10
-0.370231991198068
20
4.98716039898099
30
0
41
1
10
-0.366274570071283
20
4.98604804966439
30
0
41
1
10
-0.358001975899725
20
4.98483227377295
30
0
41
1
10
-0.353728848469075
20
4.98475618750666
30
0
41
1
10
-0.345285948994103
20
4.98580083402234
30
0
41
1
10
-0.34103446340481
20
4.9869408469134
30
0
41
1
10
-0.333015725026684
20
4.99021187411824
30
0
41
1
10
-0.329143040072324
20
4.99237354459822
30
0
41
1
10
-0.321954234540072
20
4.99732874567789
30
0
41
1
10
-0.318616604997231
20
5.00011766639525
30
0
41
1
10
-0.312316306979483
20
5.00615011165598
30
0
41
1
10
-0.30934926961055
20
5.00940629678661
30
0
41
1
10
-0.301074093098094
20
5.01945615581229
30
0
41
1
10
-0.296286725692653
20
5.02660153595323
30
0
41
1
10
-0.287559273211826
20
5.04140704567578
30
0
41
1
10
-0.2836305969536
20
5.04908544639636
30
0
41
1
10
-0.272916655032191
20
5.07221259840796
30
0
41
1
10
-0.267068575155207
20
5.0879254663663
30
0
41
1
10
-0.256723214245511
20
5.1196426801294
30
0
41
1
10
-0.252257427302879
20
5.13565463294324
30
0
41
1
10
-0.244243877237125
20
5.16786639775964
30
0
41
1
10
-0.240700146478531
20
5.18409077433588
30
0
41
1
10
-0.231149880121421
20
5.23258507573854
30
0
41
1
10
-0.226165642229006
20
5.26480643303958
30
0
41
1
10
-0.217841153282222
20
5.32906305985333
30
0
41
1
10
-0.214523044028113
20
5.36109790788328
30
0
41
1
10
-0.209064130076854
20
5.42499801712538
30
0
41
1
10
-0.206929588208112
20
5.45686315009974
30
0
41
1
10
-0.201889470916569
20
5.5522215486582
30
0
41
1
10
-0.200325540023925
20
5.61547854140437
30
0
41
1
10
-0.199999999999989
20
5.67845201642962
30
0
0
SPLINE
5
168
100
AcDbEntity
8
SK1
62
256
6
ByLayer
370
18
48
1
60
0
100
AcDbSpline
70
4
71
3
72
51
73
47
40
0
40
0
40
0
40
0
40
0.125
40
0.125
40
0.249999999999999
40
0.249999999999999
40
0.374999999999998
40
0.374999999999998
40
0.437499999999998
40
0.437499999999998
40
0.499999999999999
40
0.499999999999999
40
0.562499999999999
40
0.562499999999999
40
0.624999999999999
40
0.624999999999999
40
0.687499999999999
40
0.687499999999999
40
0.749999999999999
40
0.749999999999999
40
0.78125
40
0.78125
40
0.8125
40
0.8125
40
0.828124999999999
40
0.828124999999999
40
0.843749999999999
40
0.843749999999999
40
0.859374999999999
40
0.859374999999999
40
0.867187499999999
40
0.867187499999999
40
0.874999999999999
40
0.874999999999999
40
0.90625
40
0.90625
40
0.9140625
40
0.9140625
40
0.921875
40
0.9375
40
0.9375
40
0.953125
40
0.953125
40
0.96875
40
0.96875
40
1
40
1
40
1
40
1
41
1
10
-1.30710678118652
20
3.62853433720645
30
0
41
1
10
-1.29188624779783
20
3.70566670397201
30
0
41
1
10
-1.2756146087402
20
3.78218340304136
30
0
41
1
10
-1.24056171778477
20
3.9339536596444
30
0
41
1
10
-1.22178607754873
20
4.0092085502001
30
0
41
1
10
-1.18109081197505
20
4.1583703791232
30
0
41
1
10
-1.15918165202706
20
4.23227919141885
30
0
41
1
10
-1.12316712175576
20
4.34200882575533
30
0
41
1
10
-1.11062583028021
20
4.37841416747673
30
0
41
1
10
-1.08433177378572
20
4.4506493409462
30
0
41
1
10
-1.07057669597751
20
4.48649265752218
30
0
41
1
10
-1.0415711161929
20
4.55755616008759
30
0
41
1
10
-1.02632348400363
20
4.59277716864142
30
0
41
1
10
-0.993913112071056
20
4.66248133856587
30
0
41
1
10
-0.976740804435934
20
4.69698582221125
30
0
41
1
10
-0.940052913520759
20
4.76461628090829
30
0
41
1
10
-0.920529370906081
20
4.79779601403041
30
0
41
1
10
-0.878053724810229
20
4.86240606869328
30
0
41
1
10
-0.855145617589415
20
4.89385654551648
30
0
41
1
10
-0.816547093628202
20
4.93896729549496
30
0
41
1
10
-0.802914827069714
20
4.95369126459417
30
0
41
1
10
-0.774172797668399
20
4.98165817730296
30
0
41
1
10
-0.759028353676285
20
4.99496074537163
30
0
41
1
10
-0.734670547069499
20
5.01348585979886
30
0
41
1
10
-0.72627528941797
20
5.01942067172476
30
0
41
1
10
-0.708803295444625
20
5.03069978836885
30
0
41
1
10
-0.69969969309355
20
5.0360533513589
30
0
41
1
10
-0.681034016074307
20
5.04581904881579
30
0
41
1
10
-0.671435209911522
20
5.05025831011366
30
0
41
1
10
-0.656561241457723
20
5.05612553121159
30
0
41
1
10
-0.651523728611238
20
5.05794894419779
30
0
41
1
10
-0.641273399804703
20
5.06130432437081
30
0
41
1
10
-0.636038898961715
20
5.06284104440826
30
0
41
1
10
-0.609788395540505
20
5.06961980113229
30
0
41
1
10
-0.588380278389138
20
5.07223202598755
30
0
41
1
10
-0.561044214178395
20
5.0715296778481
30
0
41
1
10
-0.555539481232216
20
5.07118703454174
30
0
41
1
10
-0.544698986354916
20
5.07012184570777
30
0
41
1
10
-0.528606239136906
20
5.06795442924033
30
0
41
1
10
-0.512988129699494
20
5.06417699720825
30
0
41
1
10
-0.492542658095459
20
5.05785401853598
30
0
41
1
10
-0.482560235211082
20
5.05405619211425
30
0
41
1
10
-0.463438908679194
20
5.04557564745028
30
0
41
1
10
-0.454225812702362
20
5.04087055985525
30
0
41
1
10
-0.427444682539459
20
5.02560401094567
30
0
41
1
10
-0.410665386495026
20
5.01384862569722
30
0
41
1
10
-0.394913799811263
20
5.00116108217659
30
0
0
SPLINE
5
169
100
AcDbEntity
8
SK1
62
256
6
ByLayer
370
18
48
1
60
0
100
AcDbSpline
70
4
71
3
72
51
73
47
40
0
40
0
40
0
40
0
40
0.0312500000000001
40
0.0312500000000001
40
0.0468749999999999
40
0.0468749999999999
40
0.0624999999999996
40
0.0781249999999994
40
0.0781249999999994
40
0.0859374999999992
40
0.0859374999999992
40
0.0937499999999991
40
0.109374999999999
40
0.109374999999999
40
0.117187499999999
40
0.117187499999999
40
0.124999999999999
40
0.140624999999998
40
0.140624999999998
40
0.156249999999998
40
0.156249999999998
40
0.187499999999997
40
0.187499999999997
40
0.203124999999997
40
0.203124999999997
40
0.218749999999997
40
0.218749999999997
40
0.249999999999997
40
0.249999999999997
40
0.312499999999997
40
0.312499999999997
40
0.343749999999997
40
0.343749999999997
40
0.374999999999997
40
0.374999999999997
40
0.437499999999998
40
0.437499999999998
40
0.499999999999999
40
0.499999999999999
40
0.624999999999999
40
0.624999999999999
40
0.749999999999999
40
0.749999999999999
40
0.875
40
0.875
40
1
40
1
40
1
40
1
41
1
10
-0.394913799810524
20
-5.00116056255814
30
0
41
1
10
-0.410735023483511
20
-5.01390421017646
30
0
41
1
10
-0.427464692677461
20
-5.02563245237855
30
0
41
1
10
-0.454534416729558
20
-5.04103707702356
30
0
41
1
10
-0.463947967840681
20
-5.04582591451216
30
0
41
1
10
-0.48322891103075
20
-5.05432574420996
30
0
41
1
10
-0.50297983481218
20
-5.06177117057427
30
0
41
1
10
-0.523814898152153
20
-5.06678978581303
30
0
41
1
10
-0.539919309159188
20
-5.06948506381411
30
0
41
1
10
-0.54539254908741
20
-5.07020599311227
30
0
41
1
10
-0.556304392511294
20
-5.07124292633216
30
0
41
1
10
-0.572669010460402
20
-5.07220433725334
30
0
41
1
10
-0.589024240534258
20
-5.07139043996949
30
0
41
1
10
-0.605373228252546
20
-5.06939770112723
30
0
41
1
10
-0.610843200205011
20
-5.06853179751513
30
0
41
1
10
-0.621612371118488
20
-5.06644388397413
30
0
41
1
10
-0.637551053482468
20
-5.06277719842694
30
0
41
1
10
-0.652894042393342
20
-5.05762851177528
30
0
41
1
10
-0.672891603682132
20
-5.04961808259611
30
0
41
1
10
-0.682629254932408
20
-5.04504465543113
30
0
41
1
10
-0.710603681718226
20
-5.03020967742904
30
0
41
1
10
-0.727880800919962
20
-5.01875181169186
30
0
41
1
10
-0.752392350049973
20
-4.999948849948
30
0
41
1
10
-0.760349771776163
20
-4.99338317091983
30
0
41
1
10
-0.775696659387563
20
-4.9799241664696
30
0
41
1
10
-0.783093038222944
20
-4.97302905184745
30
0
41
1
10
-0.804596803075015
20
-4.95193103239396
30
0
41
1
10
-0.818026122235807
20
-4.93731968624948
30
0
41
1
10
-0.856343638951415
20
-4.89227865327601
30
0
41
1
10
-0.879296662789443
20
-4.86066233047498
30
0
41
1
10
-0.911330345780584
20
-4.81170689277053
30
0
41
1
10
-0.921612206817855
20
-4.79509560720325
30
0
41
1
10
-0.941360422011002
20
-4.76165452150423
30
0
41
1
10
-0.950840081220861
20
-4.74480636515824
30
0
41
1
10
-0.978301889811434
20
-4.69393335632202
30
0
41
1
10
-0.995317234370305
20
-4.65958274004282
30
0
41
1
10
-1.02746285247528
20
-4.59019333091888
30
0
41
1
10
-1.04258655138122
20
-4.55515277213792
30
0
41
1
10
-1.08574263925138
20
-4.44915525032008
30
0
41
1
10
-1.11159177403968
20
-4.37733091027962
30
0
41
1
10
-1.15931218721894
20
-4.23182333008765
30
0
41
1
10
-1.18115763731655
20
-4.15813319978358
30
0
41
1
10
-1.22181063294732
20
-4.00910669461106
30
0
41
1
10
-1.24060841320622
20
-3.93375870314145
30
0
41
1
10
-1.27564950878534
20
-3.7820205106818
30
0
41
1
10
-1.29190613640861
20
-3.70556358522939
30
0
41
1
10
-1.30710678118754
20
-3.62853202212813
30
0
0
SPLINE
5
16A
100
AcDbEntity
8
SK1
62
256
6
ByLayer
370
18
48
1
60
0
100
AcDbSpline
70
4
71
3
72
39
73
35
40
0
40
0
40
0
40
0
40
0.0233594698585064
40
0.0513972110610638
40
0.0794349522636214
40
0.107472693466179
40
0.163548175871294
40
0.219623658276409
40
0.247661399478966
40
0.275699140681524
40
0.331774623086639
40
0.359812364289196
40
0.387850105491754
40
0.415887846694311
40
0.443925587896869
40
0.471963329099426
40
0.485982199700705
40
0.500001070301984
40
0.514019940903263
40
0.528038811504541
40
0.556076552707099
40
0.584114293909656
40
0.612152035112214
40
0.640189776314771
40
0.668227517517329
40
0.724302999922444
40
0.752340741125001
40
0.780378482327559
40
0.836453964732674
40
0.892529447137789
40
0.920567188340346
40
0.948604929542904
40
0.976642670745461
40
1
40
1
40
1
40
1
41
1
10
-24
20
-12.631714180677
30
0
41
1
10
-24
20
-12.6344704882413
30
0
41
1
10
-24.0000000000001
20
-12.6094827236841
30
0
41
1
10
-24.0000000000001
20
-12.4743692733744
30
0
41
1
10
-24.0000000000001
20
-12.2301460729138
30
0
41
1
10
-24.0000000000001
20
-11.7782448377073
30
0
41
1
10
-24.0000000000001
20
-11.0029089912387
30
0
41
1
10
-24
20
-9.97333275207063
30
0
41
1
10
-24
20
-9.00198709358395
30
0
41
1
10
-24
20
-7.94098139760007
30
0
41
1
10
-24
20
-6.7681291151888
30
0
41
1
10
-24
20
-5.45799609225446
30
0
41
1
10
-24
20
-4.42753754516352
30
0
41
1
10
-24
20
-3.35000208235874
30
0
41
1
10
-24
20
-2.23771697460666
30
0
41
1
10
-24
20
-1.3051594341712
30
0
41
1
10
-24
20
-0.5511008955595
30
0
41
1
10
-24
20
2.454148387E-07
30
0
41
1
10
-24
20
0.551100854738962
30
0
41
1
10
-24
20
1.30515932004798
30
0
41
1
10
-24
20
2.23771741989404
30
0
41
1
10
-24
20
3.35000222974929
30
0
41
1
10
-24
20
4.42753733029463
30
0
41
1
10
-24
20
5.45799637564662
30
0
41
1
10
-24
20
6.76812921007337
30
0
41
1
10
-24
20
7.94098140173105
30
0
41
1
10
-24
20
9.00198713477042
30
0
41
1
10
-24
20
9.97333247862696
30
0
41
1
10
-24
20
11.0029092636264
30
0
41
1
10
-24
20
11.7782442414181
30
0
41
1
10
-24
20
12.2301461791881
30
0
41
1
10
-24
20
12.4743689830172
30
0
41
1
10
-24
20
12.6094786302103
30
0
41
1
10
-24
20
12.6344682940424
30
0
41
1
10
-24
20
12.6317148503035
30
0
0
SPLINE
5
16B
100
AcDbEntity
8
SK1
62
256
6
ByLayer
370
13
48
1
60
0
100
AcDbSpline
70
4
71
3
72
20
73
16
40
0
40
0
40
0
40
0
40
0.0019271163461154
40
0.0711953803427887
40
0.140463644339462
40
0.209731908336136
40
0.279000172332809
40
0.417536700326156
40
0.486804964322829
40
0.556073228319503
40
0.694609756312849
40
0.833146284306196
40
0.902414548302869
40
0.971682812299543
40
1
40
1
40
1
40
1
41
1
10
-1.49503997793931
20
-2.59572866980201
30
0
41
1
10
-1.49503997793931
20
-2.60753527399982
30
0
41
1
10
-1.49503997793931
20
-3.04345441166046
30
0
41
1
10
-1.49503997793931
20
-3.88412508952482
30
0
41
1
10
-1.49503997793931
20
-5.06527592408099
30
0
41
1
10
-1.49503997793931
20
-6.18114524290195
30
0
41
1
10
-1.49503997793931
20
-7.58102884110858
30
0
41
1
10
-1.49503997793934
20
-8.84271184628204
30
0
41
1
10
-1.49503997793934
20
-9.96541209516295
30
0
41
1
10
-1.49503997793934
20
-10.9917340076615
30
0
41
1
10
-1.49503997793934
20
-12.0867937065467
30
0
41
1
10
-1.49503997793934
20
-12.9130991355629
30
0
41
1
10
-1.49503997793934
20
-13.3930993868039
30
0
41
1
10
-1.49503997793931
20
-13.6033357133005
30
0
41
1
10
-1.49503997793934
20
-13.690776631288
30
0
41
1
10
-1.49503997793934
20
-13.7130156698465
30
0
0
SPLINE
5
16C
100
AcDbEntity
8
SK1
62
256
6
ByLayer
370
18
48
1
60
0
100
AcDbSpline
70
4
71
3
72
9
73
5
40
0
40
0
40
0
40
0
40
0.442601318442626
40
1
40
1
40
1
40
1
41
1
10
-1.49503997793934
20
-13.7130150942033
30
0
41
1
10
-1.49503997793934
20
-13.7451764875914
30
0
41
1
10
-1.49503997793934
20
-13.8030300947283
30
0
41
1
10
-1.49503997793934
20
-13.8252009350564
30
0
41
1
10
-1.49503997793937
20
-13.8252670942034
30
0
0
SPLINE
5
16D
100
AcDbEntity
8
SK1
62
256
6
ByLayer
370
18
48
1
60
0
100
AcDbSpline
70
4
71
3
72
9
73
5
40
0
40
0
40
0
40
0
40
0.558795692553882
40
1
40
1
40
1
40
1
41
1
10
-1.49503997793926
20
13.8252669419894
30
0
41
1
10
-1.49503997793926
20
13.8253406233975
30
0
41
1
10
-1.49503997793926
20
13.8032126873381
30
0
41
1
10
-1.49503997793926
20
13.745176560387
30
0
41
1
10
-1.49503997793928
20
13.7130155967388
30
0
0
SPLINE
5
16E
100
AcDbEntity
8
SK1
62
256
6
ByLayer
370
13
48
1
60
0
100
AcDbSpline
70
4
71
3
72
20
73
16
40
0
40
0
40
0
40
0
40
0.0283172975566092
40
0.0975855570149719
40
0.166853816473335
40
0.30539033539006
40
0.443926854306786
40
0.513195113765148
40
0.582463373223511
40
0.720999892140236
40
0.790268151598599
40
0.859536411056962
40
0.928804670515324
40
0.998072929973687
40
1
40
1
40
1
40
1
41
1
10
-1.49503997793928
20
13.7130155967382
30
0
41
1
10
-1.49503997793928
20
13.6907765201684
30
0
41
1
10
-1.49503997793926
20
13.603335671605
30
0
41
1
10
-1.49503997793926
20
13.3930994871677
30
0
41
1
10
-1.49503997793926
20
12.9130985214152
30
0
41
1
10
-1.49503997793926
20
12.0867940390283
30
0
41
1
10
-1.49503997793926
20
10.9917337096027
30
0
41
1
10
-1.49503997793926
20
9.96541221253275
30
0
41
1
10
-1.49503997793926
20
8.84271185764786
30
0
41
1
10
-1.49503997793926
20
7.58102898252227
30
0
41
1
10
-1.49503997793928
20
6.18114538947242
30
0
41
1
10
-1.49503997793928
20
5.0652758228772
30
0
41
1
10
-1.49503997793928
20
3.88412534084222
30
0
41
1
10
-1.49503997793928
20
3.04345481646686
30
0
41
1
10
-1.49503997793928
20
2.6075359189918
30
0
41
1
10
-1.49503997793928
20
2.59572959682799
30
0
0
SPLINE
5
16F
100
AcDbEntity
8
SK1
62
256
6
ByLayer
370
18
48
1
60
0
100
AcDbSpline
70
4
71
3
72
21
73
17
40
0
40
0
40
0
40
0
40
0.0619468518348264
40
0.124127248984915
40
0.186307646135004
40
0.248488043285093
40
0.372848837585271
40
0.497209631885449
40
0.559390029035538
40
0.621570426185627
40
0.745931220485805
40
0.808111617635894
40
0.870292014785983
40
0.932472411936072
40
0.994652809086161
40
1
40
1
40
1
40
1
41
1
10
-1.69999999999999
20
14.0158119584908
30
0
41
1
10
-1.69999999999999
20
14.0272338769693
30
0
41
1
10
-1.69999999999996
20
14.003834302718
30
0
41
1
10
-1.69999999999996
20
13.8477062499051
30
0
41
1
10
-1.69999999999996
20
13.5829959818305
30
0
41
1
10
-1.69999999999996
20
13.0984067777707
30
0
41
1
10
-1.69999999999996
20
12.2637795792515
30
0
41
1
10
-1.69999999999996
20
11.1580265629749
30
0
41
1
10
-1.69999999999996
20
10.1227281115305
30
0
41
1
10
-1.69999999999996
20
8.98995375595479
30
0
41
1
10
-1.69999999999996
20
7.71376588282689
30
0
41
1
10
-1.69999999999999
20
6.29922705440438
30
0
41
1
10
-1.69999999999999
20
5.16941096177055
30
0
41
1
10
-1.69999999999999
20
3.97134131573904
30
0
41
1
10
-1.69999999999999
20
3.09163207213677
30
0
41
1
10
-1.69999999999999
20
2.62111308533423
30
0
41
1
10
-1.69999999999999
20
2.58377808521789
30
0
0
SPLINE
5
170
100
AcDbEntity
8
SK1
62
256
6
ByLayer
370
18
48
1
60
0
100
AcDbSpline
70
4
71
3
72
21
73
17
40
0
40
0
40
0
40
0
40
0.0053472254636644
40
0.067527608160398
40
0.129707990857132
40
0.191888373553865
40
0.254068756250599
40
0.378429521644066
40
0.4406099043408
40
0.502790287037533
40
0.627151052431001
40
0.751511817824468
40
0.813692200521202
40
0.875872583217935
40
0.938052965914669
40
1
40
1
40
1
40
1
41
1
10
-1.70000000000002
20
-2.58377729734613
30
0
41
1
10
-1.70000000000002
20
-2.62111254506641
30
0
41
1
10
-1.70000000000002
20
-3.09163174208075
30
0
41
1
10
-1.70000000000002
20
-3.97134104745157
30
0
41
1
10
-1.70000000000002
20
-5.16941104441418
30
0
41
1
10
-1.70000000000002
20
-6.29922693017525
30
0
41
1
10
-1.70000000000002
20
-7.71376573381551
30
0
41
1
10
-1.70000000000005
20
-8.9899537434076
30
0
41
1
10
-1.70000000000005
20
-10.1227279817209
30
0
41
1
10
-1.70000000000005
20
-11.158026865053
30
0
41
1
10
-1.70000000000005
20
-12.2637792369573
30
0
41
1
10
-1.70000000000005
20
-13.0984073948343
30
0
41
1
10
-1.70000000000005
20
-13.5829958824317
30
0
41
1
10
-1.70000000000005
20
-13.8477064954836
30
0
41
1
10
-1.70000000000005
20
-14.0038349659789
30
0
41
1
10
-1.70000000000005
20
-14.0272339860567
30
0
41
1
10
-1.70000000000005
20
-14.015811927969
30
0
0
SPLINE
5
171
100
AcDbEntity
8
SK1
62
256
6
ByLayer
370
18
48
1
60
0
100
AcDbSpline
70
4
71
3
72
39
73
35
40
0
40
0
40
0
40
0
40
0.0277684772922551
40
0.0555468280166507
40
0.0833251787410464
40
0.111103529465442
40
0.166660230914233
40
0.222216932363025
40
0.24999528308742
40
0.277773633811816
40
0.333330335260607
40
0.361108685985003
40
0.388887036709399
40
0.416665387433794
40
0.44444373815819
40
0.472222088882585
40
0.486111264244783
40
0.500000439606981
40
0.513889614969179
40
0.527778790331377
40
0.555557141055772
40
0.583335491780168
40
0.611113842504564
40
0.63889219322896
40
0.666670543953355
40
0.722227245402146
40
0.750005596126542
40
0.777783946850938
40
0.833340648299729
40
0.88889734974852
40
0.916675700472916
40
0.944454051197312
40
0.972232401921707
40
1
40
1
40
1
40
1
41
1
10
-22.4999999999999
20
13.4936001641593
30
0
41
1
10
-22.4999999999999
20
13.5046602836695
30
0
41
1
10
-22.4999999999999
20
13.4821976515466
30
0
41
1
10
-22.4999999999999
20
13.3308793310682
30
0
41
1
10
-22.4999999999999
20
13.0738790940806
30
0
41
1
10
-22.4999999999999
20
12.6015910628857
30
0
41
1
10
-22.5
20
11.7892772585257
30
0
41
1
10
-22.5
20
10.7121915826387
30
0
41
1
10
-22.5
20
9.7009605531901
30
0
41
1
10
-22.5
20
8.59519482612023
30
0
41
1
10
-22.5
20
7.35789518762183
30
0
41
1
10
-22.5
20
5.98264738368832
30
0
41
1
10
-22.5
20
4.89022224945163
30
0
41
1
10
-22.5
20
3.73751327283395
30
0
41
1
10
-22.5
20
2.52988151772922
30
0
41
1
10
-22.5
20
1.48826017841208
30
0
41
1
10
-22.5
20
0.637225663005495
30
0
41
1
10
-22.5
20
1.013002873E-07
30
0
41
1
10
-22.5
20
-0.637225639727319
30
0
41
1
10
-22.5
20
-1.48826022368618
30
0
41
1
10
-22.5
20
-2.52988134516502
30
0
41
1
10
-22.5
20
-3.73751305004345
30
0
41
1
10
-22.5
20
-4.89022238185538
30
0
41
1
10
-22.5
20
-5.9826471995614
30
0
41
1
10
-22.5
20
-7.35789505897986
30
0
41
1
10
-22.5
20
-8.59519481674022
30
0
41
1
10
-22.5
20
-9.70096045673185
30
0
41
1
10
-22.5
20
-10.7121918739408
30
0
41
1
10
-22.5
20
-11.7892769425393
30
0
41
1
10
-22.5000000000001
20
-12.6015916721313
30
0
41
1
10
-22.5000000000001
20
-13.0738789920943
30
0
41
1
10
-22.5000000000001
20
-13.3308795934981
30
0
41
1
10
-22.5000000000001
20
-13.482196539809
30
0
41
1
10
-22.5000000000001
20
-13.5046596111725
30
0
41
1
10
-22.5000000000001
20
-13.4936012976506
30
0
0
SPLINE
5
172
100
AcDbEntity
8
SK1
62
256
6
ByLayer
370
18
48
1
60
0
100
AcDbSpline
70
4
71
3
72
50
73
46
40
0
40
0
40
0
40
0
40
0.124999999999984
40
0.124999999999984
40
0.249999999999968
40
0.249999999999968
40
0.31249999999996
40
0.31249999999996
40
0.374999999999952
40
0.374999999999952
40
0.406249999999948
40
0.406249999999948
40
0.421874999999946
40
0.421874999999946
40
0.437499999999944
40
0.437499999999944
40
0.453124999999941
40
0.453124999999941
40
0.460937499999941
40
0.460937499999941
40
0.464843749999941
40
0.464843749999941
40
0.468749999999941
40
0.468749999999941
40
0.476562499999943
40
0.476562499999943
40
0.484374999999946
40
0.484374999999946
40
0.499999999999948
40
0.499999999999948
40
0.51562499999995
40
0.51562499999995
40
0.531249999999952
40
0.531249999999952
40
0.562499999999955
40
0.562499999999955
40
0.624999999999962
40
0.624999999999962
40
0.687499999999969
40
0.687499999999969
40
0.749999999999976
40
0.749999999999976
40
0.874999999999988
40
0.874999999999988
40
1
40
1
40
1
40
1
41
1
10
-1.69999999999999
20
2.58377808521789
30
0
41
1
10
-1.69980283176193
20
2.53494813104058
30
0
41
1
10
-1.69914629015304
20
2.48605219520391
30
0
41
1
10
-1.6965250123217
20
2.38809848078017
30
0
41
1
10
-1.69458987013775
20
2.33904299616427
30
0
41
1
10
-1.68996451253321
20
2.26528111364473
30
0
41
1
10
-1.68813273270564
20
2.24066381962936
30
0
41
1
10
-1.6835123003894
20
2.19134004598717
30
0
41
1
10
-1.68075232756118
20
2.16659121971193
30
0
41
1
10
-1.67515949014839
20
2.12981712458023
30
0
41
1
10
-1.67305217630945
20
2.11760538297838
30
0
41
1
10
-1.66917976470285
20
2.09942277841125
30
0
41
1
10
-1.66776761506961
20
2.09338046474818
30
0
41
1
10
-1.66455510466849
20
2.0813878802806
30
0
41
1
10
-1.66277344227467
20
2.07547629075165
30
0
41
1
10
-1.6585367992972
20
2.06399527606524
30
0
41
1
10
-1.65615085025311
20
2.05848683766305
30
0
41
1
10
-1.65146277058665
20
2.05118187975825
30
0
41
1
10
-1.64972344115719
20
2.04895713823333
30
0
41
1
10
-1.64678471429062
20
2.04633307019134
30
0
41
1
10
-1.64576913847839
20
2.04559596629972
30
0
41
1
10
-1.64365346396514
20
2.0444445370054
30
0
41
1
10
-1.64253578152039
20
2.04402974687966
30
0
41
1
10
-1.63921911624004
20
2.04338149066749
30
0
41
1
10
-1.63699263810761
20
2.04373469956389
30
0
41
1
10
-1.6329019457323
20
2.04547928392895
30
0
41
1
10
-1.63098239203808
20
2.04685996014615
30
0
41
1
10
-1.62570082643285
20
2.05168607565221
30
0
41
1
10
-1.62266900676534
20
2.05586039978147
30
0
41
1
10
-1.61717970743425
20
2.06467763004105
30
0
41
1
10
-1.61471614069211
20
2.06937654210969
30
0
41
1
10
-1.61008417279066
20
2.0790771956942
30
0
41
1
10
-1.60792208521562
20
2.0840854996479
30
0
41
1
10
-1.60173135359585
20
2.09941136011767
30
0
41
1
10
-1.59800183776957
20
2.11000295822438
30
0
41
1
10
-1.58752132339228
20
2.14206819971534
30
0
41
1
10
-1.58141440210633
20
2.1639829941042
30
0
41
1
10
-1.56994933734995
20
2.20824327444524
30
0
41
1
10
-1.56462503300463
20
2.23061031941455
30
0
41
1
10
-1.55445799280432
20
2.27560423600821
30
0
41
1
10
-1.54962149943918
20
2.29823508774663
30
0
41
1
10
-1.53561964544301
20
2.36637992038092
30
0
41
1
10
-1.52696140207522
20
2.41209242042987
30
0
41
1
10
-1.51044407919377
20
2.5037485497009
30
0
41
1
10
-1.50259580380231
20
2.54970538090487
30
0
41
1
10
-1.49503997793928
20
2.59572959682799
30
0
0
SPLINE
5
173
100
AcDbEntity
8
SK1
62
256
6
ByLayer
370
18
48
1
60
0
100
AcDbSpline
70
4
71
3
72
28
73
24
40
0
40
0
40
0
40
0
40
0.125
40
0.125
40
0.25
40
0.25
40
0.375
40
0.375
40
0.4375
40
0.4375
40
0.46875
40
0.46875
40
0.5
40
0.5
40
0.625
40
0.625
40
0.75
40
0.75
40
0.875
40
0.875
40
0.9375
40
0.9375
40
1
40
1
40
1
40
1
41
1
10
-1.70000000000002
20
-2.58377729734613
30
0
41
1
10
-1.7330653294344
20
-2.37581216989975
30
0
41
1
10
-1.76383853333439
20
-2.16627904107367
30
0
41
1
10
-1.81907192909577
20
-1.74359145904057
30
0
41
1
10
-1.84353399204588
20
-1.53043779083347
30
0
41
1
10
-1.88427766240596
20
-1.09995043784016
30
0
41
1
10
-1.90057185673115
20
-0.882620801089502
30
0
41
1
10
-1.91719408999322
20
-0.552958450347262
30
0
41
1
10
-1.92143351430278
20
-0.442459814342214
30
0
41
1
10
-1.92571062209052
20
-0.275747908317783
30
0
41
1
10
-1.92678890529308
20
-0.219949147197752
30
0
41
1
10
-1.92821915648835
20
-0.108715900509111
30
0
41
1
10
-1.92857376506791
20
-0.0532112388235646
30
0
41
1
10
-1.9285260192795
20
0.2237512458141
30
0
41
1
10
-1.92269285742202
20
0.443534065874218
30
0
41
1
10
-1.90073152159664
20
0.879827175945792
30
0
41
1
10
-1.88456941336776
20
1.09633072422011
30
0
41
1
10
-1.84395869573467
20
1.52647783394636
30
0
41
1
10
-1.8194991935238
20
1.74011907259904
30
0
41
1
10
-1.7779104307611
20
2.05868937391003
30
0
41
1
10
-1.76321329032666
20
2.16467276723154
30
0
41
1
10
-1.73252928227532
20
2.37518275958956
30
0
41
1
10
-1.7165348045867
20
2.4797818566588
30
0
41
1
10
-1.69999999999999
20
2.58377808521789
30
0
0
SPLINE
5
174
100
AcDbEntity
8
SK1
62
256
6
ByLayer
370
18
48
1
60
0
100
AcDbSpline
70
4
71
3
72
50
73
46
40
0
40
0
40
0
40
0
40
0.12499999999999
40
0.12499999999999
40
0.249999999999981
40
0.249999999999981
40
0.312499999999977
40
0.312499999999977
40
0.374999999999973
40
0.374999999999973
40
0.437499999999968
40
0.437499999999968
40
0.468749999999966
40
0.468749999999966
40
0.484374999999965
40
0.484374999999965
40
0.499999999999964
40
0.499999999999964
40
0.507812499999963
40
0.507812499999963
40
0.515624999999963
40
0.515624999999963
40
0.523437499999962
40
0.523437499999962
40
0.531249999999962
40
0.531249999999962
40
0.539062499999961
40
0.539062499999961
40
0.546874999999961
40
0.546874999999961
40
0.562499999999962
40
0.562499999999962
40
0.578124999999964
40
0.578124999999964
40
0.593749999999965
40
0.593749999999965
40
0.624999999999968
40
0.624999999999968
40
0.687499999999973
40
0.687499999999973
40
0.749999999999979
40
0.749999999999979
40
0.874999999999989
40
0.874999999999989
40
1
40
1
40
1
40
1
41
1
10
-1.49503997793931
20
-2.59572866980201
30
0
41
1
10
-1.50265060758178
20
-2.54937072424821
30
0
41
1
10
-1.51055736408901
20
-2.5030840028657
30
0
41
1
10
-1.52720389146867
20
-2.41078220609728
30
0
41
1
10
-1.53593092606576
20
-2.36476035150477
30
0
41
1
10
-1.55006067855433
20
-2.29615277543081
30
0
41
1
10
-1.55494638829137
20
-2.27335583269641
30
0
41
1
10
-1.56523752837916
20
-2.22799607735607
30
0
41
1
10
-1.57063755711235
20
-2.20542457669759
30
0
41
1
10
-1.58228349561369
20
-2.16081267675321
30
0
41
1
10
-1.58850203306028
20
-2.13871110702169
30
0
41
1
10
-1.59920684184681
20
-2.10654042134561
30
0
41
1
10
-1.60299914819288
20
-2.09599696577877
30
0
41
1
10
-1.60936320219
20
-2.08073614174975
30
0
41
1
10
-1.61160259165956
20
-2.0757367393019
30
0
41
1
10
-1.61642392925381
20
-2.06612103362772
30
0
41
1
10
-1.61901669792692
20
-2.06146559975113
30
0
41
1
10
-1.62333314102943
20
-2.05512691093279
30
0
41
1
10
-1.62484301170014
20
-2.0531239146128
30
0
41
1
10
-1.62808309003236
20
-2.04945955976308
30
0
41
1
10
-1.62982987335099
20
-2.04777834300637
30
0
41
1
10
-1.63361913581858
20
-2.0450986814044
30
0
41
1
10
-1.63568436966972
20
-2.04410116240959
30
0
41
1
10
-1.63997873447315
20
-2.04341449775862
30
0
41
1
10
-1.64226262858725
20
-2.043768326699
30
0
41
1
10
-1.64651873271589
20
-2.04593477970201
30
0
41
1
10
-1.64851622596237
20
-2.04772090624601
30
0
41
1
10
-1.65203540861356
20
-2.05194214116116
30
0
41
1
10
-1.65360265881841
20
-2.05440095769973
30
0
41
1
10
-1.6578027104924
20
-2.06209889338851
30
0
41
1
10
-1.66005581238082
20
-2.06781172737621
30
0
41
1
10
-1.66396430018824
20
-2.079318483533
30
0
41
1
10
-1.66562961649734
20
-2.08519083778748
30
0
41
1
10
-1.66864594862511
20
-2.09706546109072
30
0
41
1
10
-1.66999109272729
20
-2.10307013790924
30
0
41
1
10
-1.67370679113654
20
-2.12121687034826
30
0
41
1
10
-1.67575012136615
20
-2.13342095957782
30
0
41
1
10
-1.6811538035131
20
-2.16993349213547
30
0
41
1
10
-1.68382251839574
20
-2.1943014978572
30
0
41
1
10
-1.68832031406808
20
-2.24305704289955
30
0
41
1
10
-1.69011547560279
20
-2.26744567235394
30
0
41
1
10
-1.69465688317246
20
-2.34062742639441
30
0
41
1
10
-1.69657077641125
20
-2.38945991149225
30
0
41
1
10
-1.69915633746157
20
-2.48678291130125
30
0
41
1
10
-1.69980436369318
20
-2.53532682713825
30
0
41
1
10
-1.70000000000002
20
-2.58377729734613
30
0
0
SPLINE
5
175
100
AcDbEntity
8
SK1
62
256
6
ByLayer
370
18
48
1
60
0
100
AcDbSpline
70
4
71
3
72
8
73
4
40
0
40
0
40
0
40
0
40
1
40
1
40
1
40
1
41
1
10
-1.30710678118658
20
-3.62853202212773
30
0
41
1
10
-1.3735694071087
20
-3.29172262772087
30
0
41
1
10
-1.43720046286558
20
-2.94804131885212
30
0
41
1
10
-1.49503997793931
20
-2.59572866974992
30
0
0
SPLINE
5
176
100
AcDbEntity
8
SK1
62
256
6
ByLayer
370
18
48
1
60
0
100
AcDbSpline
70
4
71
3
72
8
73
4
40
0
40
0
40
0
40
0
40
1
40
1
40
1
40
1
41
1
10
-1.49503997793928
20
2.59572959682802
30
0
41
1
10
-1.43720049720227
20
2.94804273884375
30
0
41
1
10
-1.37356947571646
20
3.29172452904805
30
0
41
1
10
-1.30710678118652
20
3.62853433720642
30
0
0
SPLINE
5
177
100
AcDbEntity
8
1
62
256
6
ByLayer
370
18
48
1
60
0
100
AcDbSpline
70
4
71
3
72
28
73
24
40
0
40
0
40
0
40
0
40
0.0281851352824826
40
0.0281851352824826
40
0.082174849989017
40
0.082174849989017
40
0.136164564695552
40
0.136164564695552
40
0.244143994108621
40
0.244143994108621
40
0.298133708815153
40
0.298133708815153
40
0.352123423521685
40
0.352123423521685
40
0.460102852934737
40
0.460102852934737
40
0.56808228234779
40
0.56808228234779
40
0.676061711760842
40
0.676061711760842
40
0.784041141173895
40
0.784041141173895
40
1
40
1
40
1
40
1
41
1
10
119.553882325968
20
-19.7708430820673
30
0
41
1
10
119.553416157083
20
-19.7713138885407
30
0
41
1
10
119.552995519122
20
-19.7717387277247
30
0
41
1
10
119.551904777518
20
-19.7728403855659
30
0
41
1
10
119.551358069514
20
-19.7733926014482
30
0
41
1
10
119.550642684802
20
-19.7741152032573
30
0
41
1
10
119.550471174801
20
-19.7742884504572
30
0
41
1
10
119.550501778366
20
-19.7742575373641
30
0
41
1
10
119.551246131199
20
-19.7735056170722
30
0
41
1
10
119.553449587003
20
-19.7712801191205
30
0
41
1
10
119.554366440456
20
-19.7703541331468
30
0
41
1
10
119.556507437831
20
-19.7681920072898
30
0
41
1
10
119.557735591993
20
-19.7669518171107
30
0
41
1
10
119.561863192775
20
-19.762784235199
30
0
41
1
10
119.565218581561
20
-19.7593968992322
30
0
41
1
10
119.572951716671
20
-19.7515926878478
30
0
41
1
10
119.57725230246
20
-19.747253690685
30
0
41
1
10
119.586584704884
20
-19.7378414692276
30
0
41
1
10
119.591617667416
20
-19.7327670857886
30
0
41
1
10
119.602342916788
20
-19.7219581556359
30
0
41
1
10
119.607954623723
20
-19.7163048356885
30
0
41
1
10
119.625296915117
20
-19.6988417531487
30
0
41
1
10
119.637586054382
20
-19.6864770846459
30
0
41
1
10
119.650480947162
20
-19.6735161477111
30
0
0
SPLINE
5
178
100
AcDbEntity
8
1
62
256
6
ByLayer
370
18
48
1
60
0
100
AcDbSpline
70
4
71
3
72
8
73
4
40
0
40
0
40
0
40
0
40
1
40
1
40
1
40
1
41
1
10
119.650480947162
20
-19.6735161477111
30
0
41
1
10
119.875830405165
20
-19.4470125107002
30
0
41
1
10
120.100607863251
20
-19.2197546698713
30
0
41
1
10
120.324759526419
20
-18.9916716944564
30
0
0
SPLINE
5
179
100
AcDbEntity
8
1
62
256
6
ByLayer
370
18
48
1
60
0
100
AcDbSpline
70
4
71
3
72
8
73
4
40
0
40
0
40
0
40
0
40
1
40
1
40
1
40
1
41
1
10
120.324759526419
20
-18.9768567932104
30
0
41
1
10
120.100458994954
20
-19.1950332762285
30
0
41
1
10
119.875685997486
20
-19.4125589107673
30
0
41
1
10
119.650480947162
20
-19.6294893682062
30
0
0
SPLINE
5
17A
100
AcDbEntity
8
1
62
256
6
ByLayer
370
18
48
1
60
0
100
AcDbSpline
70
4
71
3
72
36
73
32
40
0
40
0
40
0
40
0
40
0.0625000000000001
40
0.0625000000000001
40
0.125
40
0.125
40
0.1875
40
0.1875
40
0.25
40
0.25
40
0.3125
40
0.3125
40
0.375000000000001
40
0.375000000000001
40
0.437500000000001
40
0.437500000000001
40
0.500000000000001
40
0.500000000000001
40
0.562500000000001
40
0.562500000000001
40
0.625000000000001
40
0.625000000000001
40
0.687500000000001
40
0.687500000000001
40
0.750000000000001
40
0.750000000000001
40
0.812500000000001
40
0.812500000000001
40
0.875000000000001
40
0.875000000000001
40
1
40
1
40
1
40
1
41
1
10
119.650480947162
20
-19.6294893682062
30
0
41
1
10
119.643862084188
20
-19.6358650377149
30
0
41
1
10
119.637368158041
20
-19.6420854939397
30
0
41
1
10
119.624658212001
20
-19.6541795144033
30
0
41
1
10
119.618465781099
20
-19.6600302465741
30
0
41
1
10
119.606614451507
20
-19.6711317760505
30
0
41
1
10
119.60093036574
20
-19.6764066912081
30
0
41
1
10
119.590113554064
20
-19.6863246581525
30
0
41
1
10
119.584944456052
20
-19.6910000297344
30
0
41
1
10
119.575462300344
20
-19.6994157565422
30
0
41
1
10
119.571165979257
20
-19.7031426233278
30
0
41
1
10
119.563582231134
20
-19.7095025996335
30
0
41
1
10
119.560295493777
20
-19.7121314384154
30
0
41
1
10
119.555115656292
20
-19.7159495810426
30
0
41
1
10
119.55318093426
20
-19.717175173381
30
0
41
1
10
119.550745513604
20
-19.7181286395746
30
0
41
1
10
119.550291079597
20
-19.7178363837953
30
0
41
1
10
119.550812662286
20
-19.715818407148
30
0
41
1
10
119.551796471514
20
-19.714079342122
30
0
41
1
10
119.555138387984
20
-19.7092388666702
30
0
41
1
10
119.557446708715
20
-19.7062051495606
30
0
41
1
10
119.563158317433
20
-19.6990846204173
30
0
41
1
10
119.566592406128
20
-19.694962344844
30
0
41
1
10
119.57432482138
20
-19.6859171291036
30
0
41
1
10
119.578590882068
20
-19.6810299821914
30
0
41
1
10
119.587802061849
20
-19.6706380732874
30
0
41
1
10
119.592748132286
20
-19.6651324406485
30
0
41
1
10
119.60325464834
20
-19.6535639456446
30
0
41
1
10
119.608756349684
20
-19.647566084511
30
0
41
1
10
119.625757992912
20
-19.6291819152156
30
0
41
1
10
119.63781344554
20
-19.6163381505694
30
0
41
1
10
119.650480947162
20
-19.6030003410697
30
0
0
SPLINE
5
17B
100
AcDbEntity
8
1
62
256
6
ByLayer
370
18
48
1
60
0
100
AcDbSpline
70
4
71
3
72
8
73
4
40
0
40
0
40
0
40
0
40
1
40
1
40
1
40
1
41
1
10
119.650480947162
20
-19.6030003410697
30
0
41
1
10
119.876008003165
20
-19.3655393957389
30
0
41
1
10
120.100791090601
20
-19.1271433496656
30
0
41
1
10
120.324759526419
20
-18.8877233606916
30
0
0
SPLINE
5
17C
100
AcDbEntity
8
1
62
256
6
ByLayer
370
18
48
1
60
0
100
AcDbSpline
70
4
71
3
72
8
73
4
40
0
40
0
40
0
40
0
40
1
40
1
40
1
40
1
41
1
10
120.324759526419
20
-18.8429985339387
30
0
41
1
10
120.10033706691
20
-19.052529886022
30
0
41
1
10
119.875567648883
20
-19.261563858414
30
0
41
1
10
119.650480947162
20
-19.4701429912261
30
0
0
SPLINE
5
17D
100
AcDbEntity
8
1
62
256
6
ByLayer
370
18
48
1
60
0
100
AcDbSpline
70
4
71
3
72
38
73
34
40
0
40
0
40
0
40
0
40
0.0624999999999972
40
0.0624999999999972
40
0.124999999999994
40
0.124999999999994
40
0.187499999999992
40
0.187499999999992
40
0.249999999999989
40
0.249999999999989
40
0.312499999999986
40
0.312499999999986
40
0.374999999999983
40
0.374999999999983
40
0.43749999999998
40
0.43749999999998
40
0.499999999999978
40
0.499999999999978
40
0.531249999999975
40
0.531249999999975
40
0.562499999999972
40
0.562499999999972
40
0.624999999999974
40
0.624999999999974
40
0.687499999999975
40
0.687499999999975
40
0.749999999999977
40
0.749999999999977
40
0.812499999999979
40
0.812499999999979
40
0.87499999999998
40
0.87499999999998
40
1
40
1
40
1
40
1
41
1
10
119.650480947162
20
-19.4701429912261
30
0
41
1
10
119.643726881463
20
-19.4764017224417
30
0
41
1
10
119.637098160743
20
-19.4824675984266
30
0
41
1
10
119.624121587645
20
-19.4941653645862
30
0
41
1
10
119.617742143976
20
-19.4998242703928
30
0
41
1
10
119.605562970484
20
-19.5104136408792
30
0
41
1
10
119.599742695575
20
-19.5153637999644
30
0
41
1
10
119.588714807944
20
-19.5244776354349
30
0
41
1
10
119.583471678807
20
-19.5286687146873
30
0
41
1
10
119.573894168183
20
-19.5359672809038
30
0
41
1
10
119.569604727196
20
-19.5390430763008
30
0
41
1
10
119.562140118258
20
-19.5439116287623
30
0
41
1
10
119.558968752714
20
-19.5456925212594
30
0
41
1
10
119.55412676766
20
-19.5476893893332
30
0
41
1
10
119.552408786091
20
-19.5479394606957
30
0
41
1
10
119.550449968655
20
-19.5468649480099
30
0
41
1
10
119.550243871428
20
-19.545553201663
30
0
41
1
10
119.550991933076
20
-19.5425459103026
30
0
41
1
10
119.551417710024
20
-19.5413688368422
30
0
41
1
10
119.552612851189
20
-19.5386745168137
30
0
41
1
10
119.553385026571
20
-19.5371539574105
30
0
41
1
10
119.556141299637
20
-19.5322031740119
30
0
41
1
10
119.558572250333
20
-19.5283601137447
30
0
41
1
10
119.56445428438
20
-19.5197418754228
30
0
41
1
10
119.567937837454
20
-19.514925310164
30
0
41
1
10
119.575648799551
20
-19.5046892334918
30
0
41
1
10
119.579874304902
20
-19.4992680700747
30
0
41
1
10
119.588959245089
20
-19.4879075907867
30
0
41
1
10
119.593819464948
20
-19.4819676301915
30
0
41
1
10
119.604115964568
20
-19.4696181549189
30
0
41
1
10
119.609513235996
20
-19.4632561734396
30
0
41
1
10
119.6261921918
20
-19.4438785061736
30
0
41
1
10
119.638027080278
20
-19.430488190861
30
0
41
1
10
119.650480947162
20
-19.4166940319331
30
0
0
SPLINE
5
17E
100
AcDbEntity
8
1
62
256
6
ByLayer
370
18
48
1
60
0
100
AcDbSpline
70
4
71
3
72
8
73
4
40
0
40
0
40
0
40
0
40
1
40
1
40
1
40
1
41
1
10
119.650480947162
20
-19.4166940319331
30
0
41
1
10
119.876228917632
20
-19.1666509399753
30
0
41
1
10
120.101019214676
20
-18.9154654531769
30
0
41
1
10
120.324759526419
20
-18.6630274540337
30
0
0
SPLINE
5
17F
100
AcDbEntity
8
1
62
256
6
ByLayer
370
18
48
1
60
0
100
AcDbSpline
70
4
71
3
72
8
73
4
40
0
40
0
40
0
40
0
40
1
40
1
40
1
40
1
41
1
10
120.324759526419
20
-18.5875252185442
30
0
41
1
10
120.100236859786
20
-18.7895703804296
30
0
41
1
10
119.875470342809
20
-18.9912532251733
30
0
41
1
10
119.650480947162
20
-19.192604912858
30
0
0
SPLINE
5
180
100
AcDbEntity
8
1
62
256
6
ByLayer
370
18
48
1
60
0
100
AcDbSpline
70
4
71
3
72
39
73
35
40
0
40
0
40
0
40
0
40
0.0625000000000071
40
0.0625000000000071
40
0.125000000000014
40
0.125000000000014
40
0.187500000000021
40
0.187500000000021
40
0.250000000000028
40
0.250000000000028
40
0.312500000000035
40
0.312500000000035
40
0.343750000000037
40
0.343750000000037
40
0.375000000000038
40
0.40625000000004
40
0.40625000000004
40
0.437500000000042
40
0.437500000000042
40
0.500000000000037
40
0.500000000000037
40
0.562500000000032
40
0.562500000000032
40
0.625000000000027
40
0.625000000000027
40
0.687500000000022
40
0.687500000000022
40
0.750000000000017
40
0.750000000000017
40
0.812500000000012
40
0.812500000000012
40
0.875000000000007
40
0.875000000000007
40
1
40
1
40
1
40
1
41
1
10
119.650480947162
20
-19.192604912858
30
0
41
1
10
119.643561481925
20
-19.1987974091718
30
0
41
1
10
119.636760597053
20
-19.2047594560298
30
0
41
1
10
119.623428732479
20
-19.2161568732052
30
0
41
1
10
119.616868043973
20
-19.2216149223435
30
0
41
1
10
119.604372494835
20
-19.2316571174379
30
0
41
1
10
119.598405523108
20
-19.2362705084995
30
0
41
1
10
119.587120780066
20
-19.2445513660955
30
0
41
1
10
119.581757911793
20
-19.2482452222614
30
0
41
1
10
119.572161291116
20
-19.2542618829975
30
0
41
1
10
119.567898801765
20
-19.2566113207274
30
0
41
1
10
119.562409953692
20
-19.2590197111096
30
0
41
1
10
119.56074024976
20
-19.2596301418326
30
0
41
1
10
119.557792033824
20
-19.2604382600571
30
0
41
1
10
119.555212844325
20
-19.2608439260318
30
0
41
1
10
119.553367705005
20
-19.2604482498087
30
0
41
1
10
119.551893890274
20
-19.2596468478125
30
0
41
1
10
119.551341802858
20
-19.2590371274929
30
0
41
1
10
119.550274927363
20
-19.2566430276479
30
0
41
1
10
119.550326458122
20
-19.254302870604
30
0
41
1
10
119.551787967949
20
-19.248295979192
30
0
41
1
10
119.553220516284
20
-19.2445964956718
30
0
41
1
10
119.557185296634
20
-19.2362910592428
30
0
41
1
10
119.559719213954
20
-19.2316610587581
30
0
41
1
10
119.565737405588
20
-19.2215788782874
30
0
41
1
10
119.569244994022
20
-19.2160956853228
30
0
41
1
10
119.576918114054
20
-19.2046829541809
30
0
41
1
10
119.581098727558
20
-19.198725513526
30
0
41
1
10
119.590054837743
20
-19.1863774236139
30
0
41
1
10
119.594830979835
20
-19.1799863029418
30
0
41
1
10
119.604926584524
20
-19.1668094826118
30
0
41
1
10
119.61022432905
20
-19.1600533921711
30
0
41
1
10
119.626598565669
20
-19.1395788033853
30
0
41
1
10
119.638226288089
20
-19.1255569553044
30
0
41
1
10
119.650480947162
20
-19.1112111569998
30
0
0
SPLINE
5
181
100
AcDbEntity
8
1
62
256
6
ByLayer
370
18
48
1
60
0
100
AcDbSpline
70
4
71
3
72
8
73
4
40
0
40
0
40
0
40
0
40
1
40
1
40
1
40
1
41
1
10
119.650480947162
20
-19.1112111569998
30
0
41
1
10
119.876507770666
20
-18.8466150387266
30
0
41
1
10
120.101307459449
20
-18.5806365366893
30
0
41
1
10
120.324759526419
20
-18.3131399205602
30
0
0
SPLINE
5
182
100
AcDbEntity
8
1
62
256
6
ByLayer
370
18
48
1
60
0
100
AcDbSpline
70
4
71
3
72
8
73
4
40
0
40
0
40
0
40
0
40
1
40
1
40
1
40
1
41
1
10
120.324759526419
20
-18.20531773274
30
0
41
1
10
120.100154848045
20
-18.4009956122072
30
0
41
1
10
119.875390693943
20
-18.5964289589477
30
0
41
1
10
119.650480947162
20
-18.7916390605857
30
0
0
SPLINE
5
183
100
AcDbEntity
8
1
62
256
6
ByLayer
370
18
48
1
60
0
100
AcDbSpline
70
4
71
3
72
32
73
28
40
0
40
0
40
0
40
0
40
0.125000000000006
40
0.125000000000006
40
0.187500000000006
40
0.187500000000006
40
0.250000000000006
40
0.250000000000006
40
0.312500000000006
40
0.312500000000006
40
0.375000000000005
40
0.375000000000005
40
0.437500000000005
40
0.437500000000005
40
0.500000000000005
40
0.500000000000005
40
0.562500000000005
40
0.562500000000005
40
0.625000000000004
40
0.625000000000004
40
0.750000000000008
40
0.750000000000008
40
0.812500000000011
40
0.812500000000011
40
0.875000000000013
40
0.875000000000013
40
1
40
1
40
1
40
1
41
1
10
119.650480947162
20
-18.7916390605857
30
0
41
1
10
119.636218452344
20
-18.8040181731091
30
0
41
1
10
119.622240264368
20
-18.8154173152051
30
0
41
1
10
119.602992291188
20
-18.8296153042813
30
0
41
1
10
119.596826112669
20
-18.8338945401536
30
0
41
1
10
119.585150324815
20
-18.8413094412339
30
0
41
1
10
119.579802545074
20
-18.8443419283297
30
0
41
1
10
119.570193548697
20
-18.8489058516389
30
0
41
1
10
119.565917359672
20
-18.8504253367861
30
0
41
1
10
119.558961483899
20
-18.8516753986747
30
0
41
1
10
119.556219248358
20
-18.8514436933261
30
0
41
1
10
119.552246458667
20
-18.8492156646215
30
0
41
1
10
119.551085390741
20
-18.8472516771755
30
0
41
1
10
119.550241537347
20
-18.8418614194541
30
0
41
1
10
119.550569080283
20
-18.8383829727674
30
0
41
1
10
119.552511726574
20
-18.8303344171848
30
0
41
1
10
119.554109567751
20
-18.8257708187559
30
0
41
1
10
119.558360917358
20
-18.8157342041932
30
0
41
1
10
119.56103952816
20
-18.810218902919
30
0
41
1
10
119.570274220005
20
-18.7928579231848
30
0
41
1
10
119.578003306719
20
-18.780174996774
30
0
41
1
10
119.591401058081
20
-18.7598818429376
30
0
41
1
10
119.59613953536
20
-18.7529552766062
30
0
41
1
10
119.605993559771
20
-18.7389641660191
30
0
41
1
10
119.611125160039
20
-18.7318756087931
30
0
41
1
10
119.627074672477
20
-18.7103590621007
30
0
41
1
10
119.638441494712
20
-18.6956828090528
30
0
41
1
10
119.650480947162
20
-18.6807059996448
30
0
0
SPLINE
5
184
100
AcDbEntity
8
1
62
256
6
ByLayer
370
18
48
1
60
0
100
AcDbSpline
70
4
71
3
72
8
73
4
40
0
40
0
40
0
40
0
40
1
40
1
40
1
40
1
41
1
10
119.650480947162
20
-18.6807059996448
30
0
41
1
10
119.876866272618
20
-18.3990877212202
30
0
41
1
10
120.101678442285
20
-18.1158055554852
30
0
41
1
10
120.324759526419
20
-17.8306924641197
30
0
0
SPLINE
5
185
100
AcDbEntity
8
1
62
256
6
ByLayer
370
18
48
1
60
0
100
AcDbSpline
70
4
71
3
72
8
73
4
40
0
40
0
40
0
40
0
40
1
40
1
40
1
40
1
41
1
10
120.324759526419
20
-17.6881625317616
30
0
41
1
10
120.100089025132
20
-17.8786205059029
30
0
41
1
10
119.875326782245
20
-18.068934021326
30
0
41
1
10
119.650480947162
20
-18.2591159102953
30
0
0
SPLINE
5
186
100
AcDbEntity
8
1
62
256
6
ByLayer
370
18
48
1
60
0
100
AcDbSpline
70
4
71
3
72
41
73
37
40
0
40
0
40
0
40
0
40
0.0625000000000145
40
0.0625000000000145
40
0.125000000000029
40
0.125000000000029
40
0.156250000000032
40
0.156250000000032
40
0.187500000000034
40
0.187500000000034
40
0.250000000000032
40
0.250000000000032
40
0.28125000000003
40
0.28125000000003
40
0.312500000000028
40
0.343750000000025
40
0.343750000000025
40
0.375000000000023
40
0.375000000000023
40
0.437500000000019
40
0.437500000000019
40
0.468750000000014
40
0.468750000000014
40
0.500000000000009
40
0.500000000000009
40
0.562500000000004
40
0.562500000000004
40
0.625
40
0.625
40
0.687499999999995
40
0.687499999999995
40
0.74999999999999
40
0.74999999999999
40
0.874999999999995
40
0.874999999999995
40
1
40
1
40
1
40
1
41
1
10
119.650480947162
20
-18.2591159102954
30
0
41
1
10
119.64312067197
20
-18.2653414694161
30
0
41
1
10
119.635804695087
20
-18.2712773588527
30
0
41
1
10
119.621558337367
20
-18.2822363602352
30
0
41
1
10
119.614658110685
20
-18.2872398905801
30
0
41
1
10
119.604698216193
20
-18.2939087063818
30
0
41
1
10
119.601443651369
20
-18.2959915195199
30
0
41
1
10
119.595080260982
20
-18.2998442241156
30
0
41
1
10
119.591968194618
20
-18.3016142220471
30
0
41
1
10
119.583076629913
20
-18.3062945367751
30
0
41
1
10
119.577668862641
20
-18.308624674621
30
0
41
1
10
119.570442806861
20
-18.31076958636
30
0
41
1
10
119.568202442333
20
-18.3112498316744
30
0
41
1
10
119.564140466581
20
-18.3117249114432
30
0
41
1
10
119.560469603166
20
-18.311723286663
30
0
41
1
10
119.557572696077
20
-18.3107769709445
30
0
41
1
10
119.555065784551
20
-18.3093539638445
30
0
41
1
10
119.554012412702
20
-18.308401030055
30
0
41
1
10
119.551498718449
20
-18.3049318251671
30
0
41
1
10
119.550641696581
20
-18.3017928744917
30
0
41
1
10
119.550431296051
20
-18.2959971988535
30
0
41
1
10
119.550543891767
20
-18.2938771195676
30
0
41
1
10
119.551097439142
20
-18.2893835606955
30
0
41
1
10
119.55153724686
20
-18.287000833685
30
0
41
1
10
119.553295887259
20
-18.2794861044508
30
0
41
1
10
119.555051097323
20
-18.2739898973761
30
0
41
1
10
119.559557801758
20
-18.2621650826897
30
0
41
1
10
119.562301249488
20
-18.2558684256215
30
0
41
1
10
119.568507240897
20
-18.2428591198078
30
0
41
1
10
119.571983861287
20
-18.2361109336974
30
0
41
1
10
119.579584891849
20
-18.222192571787
30
0
41
1
10
119.583728003621
20
-18.214992261939
30
0
41
1
10
119.59691541842
20
-18.1930284474526
30
0
41
1
10
119.606613261902
20
-18.1780492255828
30
0
41
1
10
119.627467863824
20
-18.1475539976576
30
0
41
1
10
119.638630045339
20
-18.1320359563956
30
0
41
1
10
119.650480947162
20
-18.1162678662823
30
0
0
SPLINE
5
187
100
AcDbEntity
8
1
62
256
6
ByLayer
370
18
48
1
60
0
100
AcDbSpline
70
4
71
3
72
8
73
4
40
0
40
0
40
0
40
0
40
1
40
1
40
1
40
1
41
1
10
119.650480947162
20
-18.1162678662823
30
0
41
1
10
119.877337890168
20
-17.8144257977417
30
0
41
1
10
120.102167049584
20
-17.5105841760998
30
0
41
1
10
120.324759526419
20
-17.2045370106265
30
0
0
SPLINE
5
188
100
AcDbEntity
8
1
62
256
6
ByLayer
370
18
48
1
60
0
100
AcDbSpline
70
4
71
3
72
8
73
4
40
0
40
0
40
0
40
0
40
1
40
1
40
1
40
1
41
1
10
120.324759526419
20
-17.023765557303
30
0
41
1
10
120.100039125586
20
-17.210268727878
30
0
41
1
10
119.875278354979
20
-17.3967070563413
30
0
41
1
10
119.650480947162
20
-17.5830864488539
30
0
0
SPLINE
5
189
100
AcDbEntity
8
1
62
256
6
ByLayer
370
18
48
1
60
0
100
AcDbSpline
70
4
71
3
72
39
73
35
40
0
40
0
40
0
40
0
40
0.0624999999999863
40
0.0624999999999863
40
0.124999999999973
40
0.124999999999973
40
0.187499999999959
40
0.187499999999959
40
0.218749999999954
40
0.218749999999954
40
0.24999999999995
40
0.24999999999995
40
0.31249999999994
40
0.31249999999994
40
0.343749999999935
40
0.343749999999935
40
0.374999999999931
40
0.406249999999926
40
0.406249999999926
40
0.437499999999921
40
0.437499999999921
40
0.49999999999993
40
0.49999999999993
40
0.562499999999939
40
0.562499999999939
40
0.624999999999947
40
0.624999999999947
40
0.687499999999956
40
0.687499999999956
40
0.749999999999965
40
0.749999999999965
40
0.874999999999982
40
0.874999999999982
40
1
40
1
40
1
40
1
41
1
10
119.650480947162
20
-17.5830864488539
30
0
41
1
10
119.642848465984
20
-17.5894145343024
30
0
41
1
10
119.635230044314
20
-17.5953906617505
30
0
41
1
10
119.620434193986
20
-17.606177959913
30
0
41
1
10
119.613255140464
20
-17.6109974845253
30
0
41
1
10
119.599425158374
20
-17.6192459915892
30
0
41
1
10
119.592745263725
20
-17.6226722784101
30
0
41
1
10
119.583692680945
20
-17.6262998168294
30
0
41
1
10
119.580816760607
20
-17.6272697003249
30
0
41
1
10
119.575367399923
20
-17.6286973789876
30
0
41
1
10
119.572783455345
20
-17.6291527982108
30
0
41
1
10
119.565725370173
20
-17.6296830301395
30
0
41
1
10
119.561864611698
20
-17.6289563432168
30
0
41
1
10
119.557292459269
20
-17.6263023228396
30
0
41
1
10
119.555968736541
20
-17.6251453113991
30
0
41
1
10
119.553784251941
20
-17.6223872509877
30
0
41
1
10
119.552040779151
20
-17.6191809187848
30
0
41
1
10
119.551098579189
20
-17.6151589316101
30
0
41
1
10
119.550528264205
20
-17.6107578663776
30
0
41
1
10
119.550430700683
20
-17.6083568813506
30
0
41
1
10
119.550654051541
20
-17.6007652352957
30
0
41
1
10
119.551475794025
20
-17.5951597496359
30
0
41
1
10
119.554198267888
20
-17.5830737854479
30
0
41
1
10
119.556114381686
20
-17.5765557654387
30
0
41
1
10
119.560823333971
20
-17.5629298211246
30
0
41
1
10
119.563597798464
20
-17.5558628914162
30
0
41
1
10
119.569844713144
20
-17.5413066108047
30
0
41
1
10
119.573318283136
20
-17.533816591007
30
0
41
1
10
119.580882685559
20
-17.5184630726739
30
0
41
1
10
119.584984596991
20
-17.5105829559682
30
0
41
1
10
119.597909096523
20
-17.4868430027669
30
0
41
1
10
119.60740422431
20
-17.4707518266127
30
0
41
1
10
119.627855969026
20
-17.4381338925012
30
0
41
1
10
119.638816630045
20
-17.4216059035297
30
0
41
1
10
119.650480947162
20
-17.4048713342162
30
0
0
SPLINE
5
18A
100
AcDbEntity
8
1
62
256
6
ByLayer
370
18
48
1
60
0
100
AcDbSpline
70
4
71
3
72
8
73
4
40
0
40
0
40
0
40
0
40
1
40
1
40
1
40
1
41
1
10
119.650480947162
20
-17.4048713342162
30
0
41
1
10
119.87797677687
20
-17.0784874839777
30
0
41
1
10
120.10282976625
20
-16.7496954266912
30
0
41
1
10
120.324759526419
20
-16.4182396666029
30
0
0
SPLINE
5
18B
100
AcDbEntity
8
1
62
256
6
ByLayer
370
18
48
1
60
0
100
AcDbSpline
70
4
71
3
72
8
73
4
40
0
40
0
40
0
40
0
40
1
40
1
40
1
40
1
41
1
10
120.324759526419
20
-16.1940141333153
30
0
41
1
10
120.100007511727
20
-16.3780816494071
30
0
41
1
10
119.875247737629
20
-16.5621365334035
30
0
41
1
10
119.650480947162
20
-16.7461799915724
30
0
0
SPLINE
5
18C
100
AcDbEntity
8
1
62
256
6
ByLayer
370
18
48
1
60
0
100
AcDbSpline
70
4
71
3
72
39
73
35
40
0
40
0
40
0
40
0
40
0.0625000000000075
40
0.0625000000000075
40
0.125000000000015
40
0.125000000000015
40
0.156250000000019
40
0.156250000000019
40
0.187500000000022
40
0.187500000000022
40
0.218750000000026
40
0.218750000000026
40
0.250000000000029
40
0.281250000000033
40
0.281250000000033
40
0.312500000000036
40
0.312500000000036
40
0.375000000000044
40
0.375000000000044
40
0.406250000000047
40
0.406250000000047
40
0.437500000000051
40
0.437500000000051
40
0.50000000000005
40
0.50000000000005
40
0.562500000000049
40
0.562500000000049
40
0.625000000000048
40
0.625000000000048
40
0.750000000000032
40
0.750000000000032
40
0.875000000000016
40
0.875000000000016
40
1
40
1
40
1
40
1
41
1
10
119.650480947162
20
-16.7461799915724
30
0
41
1
10
119.642517355018
20
-16.7527007370724
30
0
41
1
10
119.63453440989
20
-16.7587815916511
30
0
41
1
10
119.619042460543
20
-16.7694623151676
30
0
41
1
10
119.611511726718
20
-16.7740895951825
30
0
41
1
10
119.600621370502
20
-16.7796806806259
30
0
41
1
10
119.597061556648
20
-16.7813124621377
30
0
41
1
10
119.590290341915
20
-16.783985679447
30
0
41
1
10
119.587053841966
20
-16.7850409190094
30
0
41
1
10
119.58089623758
20
-16.7865551188077
30
0
41
1
10
119.577954952722
20
-16.7870145467245
30
0
41
1
10
119.572512587958
20
-16.7872842763294
30
0
41
1
10
119.567547431314
20
-16.7869134556383
30
0
41
1
10
119.56348717482
20
-16.7853258627776
30
0
41
1
10
119.559865561372
20
-16.7831473720268
30
0
41
1
10
119.558264729513
20
-16.7817488018326
30
0
41
1
10
119.554196953588
20
-16.7767917693811
30
0
41
1
10
119.552440567205
20
-16.7725079257534
30
0
41
1
10
119.550959029724
20
-16.7648963564561
30
0
41
1
10
119.550660070545
20
-16.762146106726
30
0
41
1
10
119.550422720308
20
-16.7563820754736
30
0
41
1
10
119.550481076441
20
-16.7533611718066
30
0
41
1
10
119.551119474505
20
-16.7439343578548
30
0
41
1
10
119.552159177103
20
-16.7371671874768
30
0
41
1
10
119.555239798449
20
-16.7228437690715
30
0
41
1
10
119.557290439547
20
-16.7152746972408
30
0
41
1
10
119.562146245542
20
-16.6997853492493
30
0
41
1
10
119.564959968858
20
-16.6918233983911
30
0
41
1
10
119.574383518436
20
-16.6673835167665
30
0
41
1
10
119.582020418222
20
-16.6502626912245
30
0
41
1
10
119.598905986321
20
-16.6158494363723
30
0
41
1
10
119.608200334979
20
-16.5984352934844
30
0
41
1
10
119.628249215424
20
-16.5632547901685
30
0
41
1
10
119.639006636006
20
-16.5454877152692
30
0
41
1
10
119.650480947162
20
-16.5275506630096
30
0
0
SPLINE
5
18D
100
AcDbEntity
8
1
62
256
6
ByLayer
370
18
48
1
60
0
100
AcDbSpline
70
4
71
3
72
8
73
4
40
0
40
0
40
0
40
0
40
1
40
1
40
1
40
1
41
1
10
119.650480947162
20
-16.5275506630096
30
0
41
1
10
119.878876276632
20
-16.1705149416589
30
0
41
1
10
120.103764009202
20
-15.8105598495165
30
0
41
1
10
120.324759526419
20
-15.447365268874
30
0
0
SPLINE
5
18E
100
AcDbEntity
8
1
62
256
6
ByLayer
370
18
48
1
60
0
100
AcDbSpline
70
4
71
3
72
8
73
4
40
0
40
0
40
0
40
0
40
1
40
1
40
1
40
1
41
1
10
120.324759526419
20
-15.1718025873663
30
0
41
1
10
120.10000187134
20
-15.3554472734962
30
0
41
1
10
119.875242279349
20
-15.5390887989489
30
0
41
1
10
119.650480947162
20
-15.7227274845177
30
0
0
SPLINE
5
18F
100
AcDbEntity
8
1
62
256
6
ByLayer
370
18
48
1
60
0
100
AcDbSpline
70
4
71
3
72
38
73
34
40
0
40
0
40
0
40
0
40
0.0624999999999787
40
0.0624999999999787
40
0.0937499999999709
40
0.0937499999999709
40
0.124999999999963
40
0.124999999999963
40
0.18749999999995
40
0.18749999999995
40
0.249999999999936
40
0.249999999999936
40
0.281249999999931
40
0.281249999999931
40
0.312499999999926
40
0.312499999999926
40
0.374999999999924
40
0.374999999999924
40
0.437499999999923
40
0.437499999999923
40
0.499999999999921
40
0.499999999999921
40
0.562499999999919
40
0.562499999999919
40
0.624999999999918
40
0.624999999999918
40
0.68749999999993
40
0.68749999999993
40
0.749999999999943
40
0.749999999999943
40
0.874999999999971
40
0.874999999999971
40
1
40
1
40
1
40
1
41
1
10
119.650480947162
20
-15.7227274845178
30
0
41
1
10
119.642084189611
20
-15.7295879596031
30
0
41
1
10
119.633635577278
20
-15.735873077835
30
0
41
1
10
119.621331349082
20
-15.7438542779435
30
0
41
1
10
119.617278610407
20
-15.7462841546207
30
0
41
1
10
119.609284196945
20
-15.7506167225571
30
0
41
1
10
119.605312533919
20
-15.752530964113
30
0
41
1
10
119.59384949108
20
-15.7572404234743
30
0
41
1
10
119.586793021272
20
-15.7590261770076
30
0
41
1
10
119.574217814694
20
-15.7594741859472
30
0
41
1
10
119.568995280752
20
-15.7581391109124
30
0
41
1
10
119.562595860953
20
-15.7540283498173
30
0
41
1
10
119.560701051961
20
-15.7522911875501
30
0
41
1
10
119.557471003325
20
-15.7482678595021
30
0
41
1
10
119.556116901746
20
-15.7459736675131
30
0
41
1
10
119.552741344183
20
-15.7383459141712
30
0
41
1
10
119.551412871276
20
-15.7322137165059
30
0
41
1
10
119.550260898918
20
-15.7189622551593
30
0
41
1
10
119.550404629694
20
-15.711785114546
30
0
41
1
10
119.551786707427
20
-15.6965886813018
30
0
41
1
10
119.55302900844
20
-15.6885664010892
30
0
41
1
10
119.556428844899
20
-15.6718153503691
30
0
41
1
10
119.558575785074
20
-15.6631531994735
30
0
41
1
10
119.563557184201
20
-15.6455384394757
30
0
41
1
10
119.566399025425
20
-15.636554523032
30
0
41
1
10
119.5726862554
20
-15.6182825742098
30
0
41
1
10
119.576143791446
20
-15.6089656304775
30
0
41
1
10
119.58354639268
20
-15.5902008455661
30
0
41
1
10
119.587481021919
20
-15.5807754721042
30
0
41
1
10
119.599905559109
20
-15.5523851374542
30
0
41
1
10
119.609009839549
20
-15.5333070438354
30
0
41
1
10
119.628661740995
20
-15.4948880043349
30
0
41
1
10
119.639211392285
20
-15.475546675747
30
0
41
1
10
119.650480947162
20
-15.4560769820831
30
0
0
SPLINE
5
190
100
AcDbEntity
8
1
62
256
6
ByLayer
370
18
48
1
60
0
100
AcDbSpline
70
4
71
3
72
8
73
4
40
0
40
0
40
0
40
0
40
1
40
1
40
1
40
1
41
1
10
119.650480947162
20
-15.4560769820831
30
0
41
1
10
119.880211532645
20
-15.0591860512809
30
0
41
1
10
120.105152654041
20
-14.6587123242208
30
0
41
1
10
120.324759526419
20
-14.2542482702531
30
0
0
SPLINE
5
191
100
AcDbEntity
8
1
62
256
6
ByLayer
370
18
48
1
60
0
100
AcDbSpline
70
4
71
3
72
8
73
4
40
0
40
0
40
0
40
0
40
1
40
1
40
1
40
1
41
1
10
120.324759526419
20
-13.9147796874407
30
0
41
1
10
120.10004293855
20
-14.100991874529
30
0
41
1
10
119.87528177088
20
-14.2871322907616
30
0
41
1
10
119.650480947162
20
-14.4732088630918
30
0
0
SPLINE
5
192
100
AcDbEntity
8
1
62
256
6
ByLayer
370
18
48
1
60
0
100
AcDbSpline
70
4
71
3
72
34
73
30
40
0
40
0
40
0
40
0
40
0.0625000000000058
40
0.0625000000000058
40
0.093750000000009
40
0.093750000000009
40
0.125000000000012
40
0.125000000000012
40
0.187500000000017
40
0.187500000000017
40
0.250000000000022
40
0.250000000000022
40
0.281250000000024
40
0.281250000000024
40
0.312500000000027
40
0.312500000000027
40
0.375000000000024
40
0.375000000000024
40
0.437500000000022
40
0.437500000000022
40
0.50000000000002
40
0.50000000000002
40
0.625000000000015
40
0.625000000000015
40
0.75000000000001
40
0.75000000000001
40
0.875000000000005
40
0.875000000000005
40
1
40
1
40
1
40
1
41
1
10
119.650480947162
20
-14.4732088630928
30
0
41
1
10
119.641610746045
20
-14.4805510809388
30
0
41
1
10
119.632717594853
20
-14.4870974260143
30
0
41
1
10
119.619328414583
20
-14.4952053949901
30
0
41
1
10
119.614948765932
20
-14.4975617119477
30
0
41
1
10
119.606376490095
20
-14.501496145909
30
0
41
1
10
119.602156895126
20
-14.5030818509571
30
0
41
1
10
119.590005767028
20
-14.5064329261967
30
0
41
1
10
119.582819857639
20
-14.5067574004904
30
0
41
1
10
119.570335823892
20
-14.5034485559459
30
0
41
1
10
119.565449926247
20
-14.4999293623088
30
0
41
1
10
119.559738856258
20
-14.4925438009572
30
0
41
1
10
119.558096977763
20
-14.489701018321
30
0
41
1
10
119.555363676397
20
-14.4835186121861
30
0
41
1
10
119.554261456695
20
-14.4801742613045
30
0
41
1
10
119.551618606382
20
-14.4695040698857
30
0
41
1
10
119.55074024509
20
-14.4614886218097
30
0
41
1
10
119.550322100162
20
-14.4446421416502
30
0
41
1
10
119.550767880495
20
-14.4357693456117
30
0
41
1
10
119.552650600945
20
-14.4173396015769
30
0
41
1
10
119.554097560382
20
-14.4077483041175
30
0
41
1
10
119.559624326733
20
-14.37836229807
30
0
41
1
10
119.564840271178
20
-14.3580458003161
30
0
41
1
10
119.57746663017
20
-14.3164151731895
30
0
41
1
10
119.584781622077
20
-14.2954445124746
30
0
41
1
10
119.600983403359
20
-14.2532582502723
30
0
41
1
10
119.609876729726
20
-14.232041695302
30
0
41
1
10
119.629096511696
20
-14.1893876202441
30
0
41
1
10
119.639424130324
20
-14.1679499081222
30
0
41
1
10
119.650480947162
20
-14.14640238484
30
0
0
SPLINE
5
193
100
AcDbEntity
8
1
62
256
6
ByLayer
370
18
48
1
60
0
100
AcDbSpline
70
4
71
3
72
8
73
4
40
0
40
0
40
0
40
0
40
1
40
1
40
1
40
1
41
1
10
119.650480947162
20
-14.14640238484
30
0
41
1
10
119.882352997816
20
-13.6945301612792
30
0
41
1
10
120.107382666912
20
-13.2381665161975
30
0
41
1
10
120.324759526419
20
-12.7767794748916
30
0
0
SPLINE
5
194
100
AcDbEntity
8
1
62
256
6
ByLayer
370
18
48
1
60
0
100
AcDbSpline
70
4
71
3
72
8
73
4
40
0
40
0
40
0
40
0
40
1
40
1
40
1
40
1
41
1
10
120.324759526419
20
-12.3514611989842
30
0
41
1
10
120.100191536751
20
-12.5453578173511
30
0
41
1
10
119.875423713527
20
-12.7389451074587
30
0
41
1
10
119.650480947162
20
-12.9322615979166
30
0
0
SPLINE
5
195
100
AcDbEntity
8
1
62
256
6
ByLayer
370
18
48
1
60
0
100
AcDbSpline
70
4
71
3
72
39
73
35
40
0
40
0
40
0
40
0
40
0.0312500000000008
40
0.0312500000000008
40
0.0625000000000016
40
0.0625000000000016
40
0.0937500000000022
40
0.0937500000000022
40
0.125000000000003
40
0.125000000000003
40
0.156250000000004
40
0.156250000000004
40
0.187500000000005
40
0.187500000000005
40
0.218750000000005
40
0.218750000000005
40
0.250000000000006
40
0.250000000000006
40
0.281250000000007
40
0.281250000000007
40
0.312500000000007
40
0.312500000000007
40
0.375000000000009
40
0.375000000000009
40
0.500000000000006
40
0.500000000000006
40
0.562500000000008
40
0.562500000000008
40
0.62500000000001
40
0.62500000000001
40
0.750000000000006
40
0.750000000000006
40
0.875000000000003
40
1
40
1
40
1
40
1
41
1
10
119.650480947162
20
-12.9322615979184
30
0
41
1
10
119.645659559596
20
-12.9364051129039
30
0
41
1
10
119.640801078904
20
-12.940275272534
30
0
41
1
10
119.630992180374
20
-12.9473366560155
30
0
41
1
10
119.626006027204
20
-12.9505447091674
30
0
41
1
10
119.616213206618
20
-12.9559198413897
30
0
41
1
10
119.611384546088
20
-12.958109021007
30
0
41
1
10
119.601890289183
20
-12.9612844521537
30
0
41
1
10
119.597355810905
20
-12.9622204837457
30
0
41
1
10
119.588820720175
20
-12.9627189554143
30
0
41
1
10
119.584759371
20
-12.9622658825158
30
0
41
1
10
119.577453125654
20
-12.9600256025943
30
0
41
1
10
119.574191909539
20
-12.9582620751239
30
0
41
1
10
119.568356163976
20
-12.9536047091902
30
0
41
1
10
119.565807208947
20
-12.950715917301
30
0
41
1
10
119.561457307646
20
-12.9442163221454
30
0
41
1
10
119.559626662752
20
-12.9405816268445
30
0
41
1
10
119.556523269337
20
-12.9326866584447
30
0
41
1
10
119.555247510152
20
-12.9284035299876
30
0
41
1
10
119.55319751331
20
-12.9194434140334
30
0
41
1
10
119.552418485904
20
-12.9147636089496
30
0
41
1
10
119.550682498191
20
-12.9002343493953
30
0
41
1
10
119.550325735067
20
-12.8898556133689
30
0
41
1
10
119.550966789172
20
-12.8579922826177
30
0
41
1
10
119.553590221519
20
-12.8355866876125
30
0
41
1
10
119.559524476594
20
-12.8009026027309
30
0
41
1
10
119.561860927053
20
-12.7891138061894
30
0
41
1
10
119.567088729835
20
-12.7654205868511
30
0
41
1
10
119.569973709317
20
-12.7535355328588
30
0
41
1
10
119.579321527427
20
-12.7177809868882
30
0
41
1
10
119.58646953122
20
-12.6938130910542
30
0
41
1
10
119.602267862415
20
-12.6456594779342
30
0
41
1
10
119.619577003328
20
-12.5972869331211
30
0
41
1
10
119.639694160572
20
-12.5485106461852
30
0
41
1
10
119.650480947162
20
-12.5240203286139
30
0
0
SPLINE
5
196
100
AcDbEntity
8
1
62
256
6
ByLayer
370
18
48
1
60
0
100
AcDbSpline
70
4
71
3
72
8
73
4
40
0
40
0
40
0
40
0
40
1
40
1
40
1
40
1
41
1
10
119.650480947162
20
-12.5240203286139
30
0
41
1
10
119.886241901321
20
-11.9887487173427
30
0
41
1
10
120.111437539985
20
-11.4476285217351
30
0
41
1
10
120.324759526419
20
-10.8999354929289
30
0
0
SPLINE
5
197
100
AcDbEntity
8
1
62
256
6
ByLayer
370
18
48
1
60
0
100
AcDbSpline
70
4
71
3
72
8
73
4
40
0
40
0
40
0
40
0
40
1
40
1
40
1
40
1
41
1
10
120.324759526419
20
-10.3438916153453
30
0
41
1
10
120.100672937923
20
-10.5561625919076
30
0
41
1
10
119.875878259423
20
-10.7674293885329
30
0
41
1
10
119.650480947162
20
-10.9778415583036
30
0
0
SPLINE
5
198
100
AcDbEntity
8
1
62
256
6
ByLayer
370
18
48
1
60
0
100
AcDbSpline
70
4
71
3
72
39
73
35
40
0
40
0
40
0
40
0
40
0.0312499999999964
40
0.0312499999999964
40
0.0624999999999929
40
0.0624999999999929
40
0.0781249999999915
40
0.0781249999999915
40
0.0937499999999901
40
0.0937499999999901
40
0.124999999999986
40
0.124999999999986
40
0.156249999999982
40
0.156249999999982
40
0.187499999999979
40
0.187499999999979
40
0.218749999999975
40
0.218749999999975
40
0.249999999999971
40
0.249999999999971
40
0.281249999999967
40
0.281249999999967
40
0.312499999999963
40
0.312499999999963
40
0.374999999999963
40
0.374999999999963
40
0.499999999999971
40
0.499999999999971
40
0.624999999999978
40
0.624999999999978
40
0.749999999999985
40
0.749999999999985
40
0.874999999999993
40
1
40
1
40
1
40
1
41
1
10
119.650480947162
20
-10.9778415583054
30
0
41
1
10
119.645070573186
20
-10.9828922331168
30
0
41
1
10
119.639513106979
20
-10.9875792288378
30
0
41
1
10
119.628225225349
20
-10.9957597995142
30
0
41
1
10
119.622572736454
20
-10.9992033141724
30
0
41
1
10
119.614077225303
20
-11.0030918810389
30
0
41
1
10
119.611222335286
20
-11.0041768835957
30
0
41
1
10
119.605677702528
20
-11.0057967808804
30
0
41
1
10
119.602973531995
20
-11.0063414516266
30
0
41
1
10
119.595073068045
20
-11.0071490225224
30
0
41
1
10
119.590031566255
20
-11.0065324890339
30
0
41
1
10
119.581193349521
20
-11.0032210025215
30
0
41
1
10
119.577280359417
20
-11.0005431411252
30
0
41
1
10
119.570434037439
20
-10.9936129589076
30
0
41
1
10
119.567567506173
20
-10.989455460236
30
0
41
1
10
119.562642849808
20
-10.980131183634
30
0
41
1
10
119.560603852079
20
-10.9749764931916
30
0
41
1
10
119.557229405652
20
-10.9641977522342
30
0
41
1
10
119.555875895449
20
-10.958533659729
30
0
41
1
10
119.553672457203
20
-10.9467890170162
30
0
41
1
10
119.552823959493
20
-10.9407073042588
30
0
41
1
10
119.551532822405
20
-10.9282066799283
30
0
41
1
10
119.551090778585
20
-10.9217691865275
30
0
41
1
10
119.550280304693
20
-10.9022578233622
30
0
41
1
10
119.550409275107
20
-10.8889336262744
30
0
41
1
10
119.552194406003
20
-10.8482913762717
30
0
41
1
10
119.555225580056
20
-10.8203143302213
30
0
41
1
10
119.56364088965
20
-10.7632072654735
30
0
41
1
10
119.568989094997
20
-10.7344845311731
30
0
41
1
10
119.581324248186
20
-10.6768917217868
30
0
41
1
10
119.588324868774
20
-10.6479991733818
30
0
41
1
10
119.603732419277
20
-10.590048407195
30
0
41
1
10
119.620551977068
20
-10.531931418668
30
0
41
1
10
119.640038964386
20
-10.4735017998075
30
0
41
1
10
119.650480947162
20
-10.4442074830627
30
0
0
SPLINE
5
199
100
AcDbEntity
8
1
62
256
6
ByLayer
370
18
48
1
60
0
100
AcDbSpline
70
4
71
3
72
8
73
4
40
0
40
0
40
0
40
0
40
1
40
1
40
1
40
1
41
1
10
119.650480947162
20
-10.4442074830627
30
0
41
1
10
119.895186418447
20
-9.75770188931182
30
0
41
1
10
120.120774732857
20
-9.06295440434405
30
0
41
1
10
120.324759526419
20
-8.3588930935864
30
0
0
SPLINE
5
19A
100
AcDbEntity
8
1
62
256
6
ByLayer
370
18
48
1
60
0
100
AcDbSpline
70
4
71
3
72
8
73
4
40
0
40
0
40
0
40
0
40
1
40
1
40
1
40
1
41
1
10
120.324759526419
20
-7.5454352922815
30
0
41
1
10
120.102856207575
20
-7.80812939306699
30
0
41
1
10
119.87789393872
20
-8.06728947825346
30
0
41
1
10
119.650480947162
20
-8.32361823496768
30
0
0
SPLINE
5
19B
100
AcDbEntity
8
1
62
256
6
ByLayer
370
18
48
1
60
0
100
AcDbSpline
70
4
71
3
72
38
73
34
40
0
40
0
40
0
40
0
40
0.0312499999999982
40
0.0312499999999982
40
0.0468749999999971
40
0.0468749999999971
40
0.0624999999999961
40
0.0624999999999961
40
0.0781249999999951
40
0.0781249999999951
40
0.0937499999999941
40
0.0937499999999941
40
0.109374999999993
40
0.109374999999993
40
0.124999999999992
40
0.124999999999992
40
0.156249999999994
40
0.156249999999994
40
0.187499999999996
40
0.187499999999996
40
0.249999999999996
40
0.249999999999996
40
0.312499999999996
40
0.312499999999996
40
0.374999999999996
40
0.374999999999996
40
0.499999999999997
40
0.499999999999997
40
0.624999999999998
40
0.624999999999998
40
0.749999999999999
40
0.749999999999999
40
1
40
1
40
1
40
1
41
1
10
119.650480947164
20
-8.32361823497101
30
0
41
1
10
119.643984522043
20
-8.33094068635245
30
0
41
1
10
119.637087099727
20
-8.33768124412256
30
0
41
1
10
119.626354747428
20
-8.34568070105706
30
0
41
1
10
119.622672786078
20
-8.34801975192013
30
0
41
1
10
119.615227174174
20
-8.35169640698163
30
0
41
1
10
119.611531397854
20
-8.35300455163232
30
0
41
1
10
119.604203715131
20
-8.35436607527029
30
0
41
1
10
119.600638398743
20
-8.35438934467993
30
0
41
1
10
119.593959541195
20
-8.35314067665271
30
0
41
1
10
119.590782123263
20
-8.3518479866934
30
0
41
1
10
119.58507026222
20
-8.34828207327038
30
0
41
1
10
119.582488099225
20
-8.34601133649446
30
0
41
1
10
119.577753050436
20
-8.34070331419812
30
0
41
1
10
119.575612489275
20
-8.33767053930768
30
0
41
1
10
119.569849274635
20
-8.32792028671298
30
0
41
1
10
119.566789889395
20
-8.32043543782231
30
0
41
1
10
119.561775920044
20
-8.30477720344925
30
0
41
1
10
119.559797491318
20
-8.29654262529161
30
0
41
1
10
119.554893629213
20
-8.27104194241034
30
0
41
1
10
119.552983754743
20
-8.25288418124515
30
0
41
1
10
119.550722421526
20
-8.21638791679678
30
0
41
1
10
119.550369579247
20
-8.19789985844901
30
0
41
1
10
119.550648562
20
-8.16061226405159
30
0
41
1
10
119.551290415845
20
-8.14180977373312
30
0
41
1
10
119.5543116466
20
-8.08504763501318
30
0
41
1
10
119.557768451239
20
-8.04673870110784
30
0
41
1
10
119.566574464434
20
-7.96947917110049
30
0
41
1
10
119.571943356467
20
-7.93052277137716
30
0
41
1
10
119.584191791777
20
-7.8520814043078
30
0
41
1
10
119.591049423945
20
-7.81277108989642
30
0
41
1
10
119.613451439318
20
-7.69485960614298
30
0
41
1
10
119.630794068013
20
-7.61615616242807
30
0
41
1
10
119.650480947162
20
-7.53736390968285
30
0
0
SPLINE
5
19C
100
AcDbEntity
8
1
62
256
6
ByLayer
370
18
48
1
60
0
100
AcDbSpline
70
4
71
3
72
8
73
4
40
0
40
0
40
0
40
0
40
1
40
1
40
1
40
1
41
1
10
119.650480947162
20
-7.53736390968288
30
0
41
1
10
119.936650314553
20
-6.3920361533967
30
0
41
1
10
120.164101740032
20
-5.23155518188798
30
0
41
1
10
120.324759526419
20
-4.05383691704589
30
0
0
SPLINE
5
19D
100
AcDbEntity
8
1
62
256
6
ByLayer
370
18
48
1
60
0
100
AcDbSpline
70
4
71
3
72
10
73
6
40
0
40
0
40
0
40
0
40
0.5
40
0.5
40
1
40
1
40
1
40
1
41
1
10
120.324759526415
20
-1.53983562436753
30
0
41
1
10
120.253343637489
20
-1.91394777515674
30
0
41
1
10
120.158489259991
20
-2.27822115563438
30
0
41
1
10
119.9309865447
20
-2.9909031523847
30
0
41
1
10
119.798334418938
20
-3.33931017858268
30
0
41
1
10
119.650480947162
20
-3.68133613838137
30
0
0
SPLINE
5
19E
100
AcDbEntity
8
1
62
256
6
ByLayer
370
18
48
1
60
0
100
AcDbSpline
70
4
71
3
72
57
73
53
40
0
40
0
40
0
40
0
40
0.125
40
0.125
40
0.25
40
0.375
40
0.375
40
0.499999999999999
40
0.499999999999999
40
0.624999999999999
40
0.624999999999999
40
0.687499999999999
40
0.687499999999999
40
0.749999999999999
40
0.749999999999999
40
0.812499999999998
40
0.812499999999998
40
0.874999999999998
40
0.874999999999998
40
0.906249999999998
40
0.906249999999998
40
0.921874999999999
40
0.921874999999999
40
0.937499999999999
40
0.937499999999999
40
0.945312499999999
40
0.945312499999999
40
0.953124999999998
40
0.953124999999998
40
0.960937499999998
40
0.960937499999998
40
0.964843749999998
40
0.964843749999998
40
0.968749999999997
40
0.968749999999997
40
0.972656249999997
40
0.972656249999997
40
0.976562499999997
40
0.976562499999997
40
0.978515624999997
40
0.978515624999997
40
0.980468749999998
40
0.980468749999998
40
0.982421874999999
40
0.982421874999999
40
0.984375
40
0.984375
40
0.98828125
40
0.98828125
40
0.9921875
40
0.9921875
40
1
40
1
40
1
40
1
41
1
10
119.650480947162
20
-0.205522419001483
30
0
41
1
10
119.649474914009
20
-0.357427176920709
30
0
41
1
10
119.647352403027
20
-0.509318066438084
30
0
41
1
10
119.641079448038
20
-0.813071042313112
30
0
41
1
10
119.632780463968
20
-1.11679520646632
30
0
41
1
10
119.621220285853
20
-1.42045756542217
30
0
41
1
10
119.608599227804
20
-1.72408596214558
30
0
41
1
10
119.601754923346
20
-1.87588319884077
30
0
41
1
10
119.587790157286
20
-2.17943940737229
30
0
41
1
10
119.580656945611
20
-2.33119845239094
30
0
41
1
10
119.570656270951
20
-2.55880325319748
30
0
41
1
10
119.567443146172
20
-2.63466586964702
30
0
41
1
10
119.561508805656
20
-2.78637838337679
30
0
41
1
10
119.558783648494
20
-2.86225232686118
30
0
41
1
10
119.554227791731
20
-3.01360192235151
30
0
41
1
10
119.552384521753
20
-3.08911791731501
30
0
41
1
10
119.550304819929
20
-3.23969455938976
30
0
41
1
10
119.550017507499
20
-3.31476474005171
30
0
41
1
10
119.552116127572
20
-3.42678061902925
30
0
41
1
10
119.553241725102
20
-3.46402017693461
30
0
41
1
10
119.556066196098
20
-3.51963782520832
30
0
41
1
10
119.557199844787
20
-3.53813623287291
30
0
41
1
10
119.560032561575
20
-3.5750175061788
30
0
41
1
10
119.561724621638
20
-3.59340168463663
30
0
41
1
10
119.564962866511
20
-3.62083957542137
30
0
41
1
10
119.566160648091
20
-3.62996216256695
30
0
41
1
10
119.568892543204
20
-3.64814192597933
30
0
41
1
10
119.570429233634
20
-3.65722701901276
30
0
41
1
10
119.574003223349
20
-3.67517038949771
30
0
41
1
10
119.576022559128
20
-3.68398056808866
30
0
41
1
10
119.579665375541
20
-3.69677304463329
30
0
41
1
10
119.580983473112
20
-3.70096570128959
30
0
41
1
10
119.583925806698
20
-3.70914096325581
30
0
41
1
10
119.585555704597
20
-3.71313687493435
30
0
41
1
10
119.589214864265
20
-3.72059319090101
30
0
41
1
10
119.59124291104
20
-3.72408197853605
30
0
41
1
10
119.596024190781
20
-3.73018722526044
30
0
41
1
10
119.598791925149
20
-3.73279255037625
30
0
41
1
10
119.603585192062
20
-3.73502813093515
30
0
41
1
10
119.605238544653
20
-3.73546904733775
30
0
41
1
10
119.608667422954
20
-3.73568290628708
30
0
41
1
10
119.61045752744
20
-3.7354403300269
30
0
41
1
10
119.613936585578
20
-3.73433323985307
30
0
41
1
10
119.615671884936
20
-3.73346228202732
30
0
41
1
10
119.61899339339
20
-3.7312884449789
30
0
41
1
10
119.620581409002
20
-3.72999412036526
30
0
41
1
10
119.625186557665
20
-3.72565845068073
30
0
41
1
10
119.628021131566
20
-3.7221900981298
30
0
41
1
10
119.633249794904
20
-3.71485248827503
30
0
41
1
10
119.635679061346
20
-3.71093331943899
30
0
41
1
10
119.642616772461
20
-3.69870333450129
30
0
41
1
10
119.646685962344
20
-3.69011498752897
30
0
41
1
10
119.650480947162
20
-3.68133613838137
30
0
0
SPLINE
5
19F
100
AcDbEntity
8
1
62
256
6
ByLayer
370
18
48
1
60
0
100
AcDbSpline
70
4
71
3
72
8
73
4
40
0
40
0
40
0
40
0
40
1
40
1
40
1
40
1
41
1
10
119.650480947162
20
-0.205522419001483
30
0
41
1
10
119.651388368233
20
-0.0685074730007784
30
0
41
1
10
119.651388368233
20
0.0685074729998973
30
0
41
1
10
119.650480947162
20
0.205522419000573
30
0
0
SPLINE
5
1A0
100
AcDbEntity
8
1
62
256
6
ByLayer
370
18
48
1
60
0
100
AcDbSpline
70
4
71
3
72
59
73
55
40
0
40
0
40
0
40
0
40
0.125000000000002
40
0.125000000000002
40
0.250000000000003
40
0.375000000000005
40
0.375000000000005
40
0.500000000000007
40
0.500000000000007
40
0.625000000000008
40
0.625000000000008
40
0.687500000000009
40
0.687500000000009
40
0.75000000000001
40
0.75000000000001
40
0.812500000000011
40
0.812500000000011
40
0.843750000000011
40
0.843750000000011
40
0.875000000000011
40
0.875000000000011
40
0.906250000000012
40
0.906250000000012
40
0.921875000000011
40
0.921875000000011
40
0.937500000000011
40
0.937500000000011
40
0.945312500000011
40
0.945312500000011
40
0.95312500000001
40
0.95312500000001
40
0.96093750000001
40
0.96093750000001
40
0.964843750000009
40
0.964843750000009
40
0.968750000000009
40
0.968750000000009
40
0.972656250000009
40
0.972656250000009
40
0.976562500000008
40
0.976562500000008
40
0.978515625000008
40
0.978515625000008
40
0.980468750000008
40
0.980468750000008
40
0.982421875000008
40
0.982421875000008
40
0.984375000000007
40
0.984375000000007
40
0.988281250000005
40
0.988281250000005
40
0.992187500000003
40
0.992187500000003
40
1
40
1
40
1
40
1
41
1
10
119.650480947162
20
0.205522419000573
30
0
41
1
10
119.649474529164
20
0.35748528611802
30
0
41
1
10
119.647350571744
20
0.509462034318233
30
0
41
1
10
119.641070593963
20
0.813444393380138
30
0
41
1
10
119.632760419544
20
1.11745562328184
30
0
41
1
10
119.621178756172
20
1.42152886412063
30
0
41
1
10
119.608531759673
20
1.72563622957668
30
0
41
1
10
119.601672191192
20
1.87770695466074
30
0
41
1
10
119.587676377915
20
2.18188692008798
30
0
41
1
10
119.580530180473
20
2.33394573764684
30
0
41
1
10
119.570536139854
20
2.56160809848379
30
0
41
1
10
119.567328862802
20
2.63743907733294
30
0
41
1
10
119.561413484972
20
2.78896908574737
30
0
41
1
10
119.558701689912
20
2.86466839812928
30
0
41
1
10
119.554167978853
20
3.01590533592292
30
0
41
1
10
119.552334555853
20
3.09144384070092
30
0
41
1
10
119.550799054594
20
3.2045885463248
30
0
41
1
10
119.550492739193
20
3.24227603690966
30
0
41
1
10
119.550469812771
20
3.31758254278625
30
0
41
1
10
119.550750183483
20
3.35523886655224
30
0
41
1
10
119.552208755407
20
3.43023262171383
30
0
41
1
10
119.553373181025
20
3.4675729768552
30
0
41
1
10
119.556275212278
20
3.52319890720432
30
0
41
1
10
119.557437968645
20
3.54167593430748
30
0
41
1
10
119.560336644401
20
3.57844571083516
30
0
41
1
10
119.562065629678
20
3.59674052996024
30
0
41
1
10
119.565365531574
20
3.62396204542264
30
0
41
1
10
119.566584913132
20
3.63299859792579
30
0
41
1
10
119.569361551694
20
3.65096757430749
30
0
41
1
10
119.570921073671
20
3.6599191615224
30
0
41
1
10
119.574516938715
20
3.67745376451691
30
0
41
1
10
119.576547962152
20
3.68605996342896
30
0
41
1
10
119.58021552862
20
3.69854381258784
30
0
41
1
10
119.581543102687
20
3.70263313961863
30
0
41
1
10
119.584510409302
20
3.71059873923699
30
0
41
1
10
119.586161611328
20
3.71450396438166
30
0
41
1
10
119.589888240219
20
3.72177776739451
30
0
41
1
10
119.591955510826
20
3.72516274851114
30
0
41
1
10
119.59684579735
20
3.73100162030212
30
0
41
1
10
119.599637337106
20
3.73338371760659
30
0
41
1
10
119.604411839463
20
3.73527061609786
30
0
41
1
10
119.606061767277
20
3.73560195864619
30
0
41
1
10
119.609492008733
20
3.73560099260382
30
0
41
1
10
119.611227428267
20
3.73526227848578
30
0
41
1
10
119.61463552521
20
3.73400699467004
30
0
41
1
10
119.616332222931
20
3.73307964611388
30
0
41
1
10
119.61955483406
20
3.73084823538747
30
0
41
1
10
119.621102908113
20
3.72953833110907
30
0
41
1
10
119.62560527577
20
3.72517335725485
30
0
41
1
10
119.628363216431
20
3.72174764484305
30
0
41
1
10
119.633516183583
20
3.71443632136879
30
0
41
1
10
119.635914818984
20
3.71053626148327
30
0
41
1
10
119.642693644436
20
3.69852839288254
30
0
41
1
10
119.646722359183
20
3.69003079157807
30
0
41
1
10
119.650480947162
20
3.68133613838205
30
0
0
SPLINE
5
1A1
100
AcDbEntity
8
1
62
256
6
ByLayer
370
18
48
1
60
0
100
AcDbSpline
70
4
71
3
72
10
73
6
40
0
40
0
40
0
40
0
40
0.5
40
0.5
40
1
40
1
40
1
40
1
41
1
10
119.650480947161
20
3.68133613838182
30
0
41
1
10
119.798334418938
20
3.33931017858248
30
0
41
1
10
119.9309865447
20
2.99090315238385
30
0
41
1
10
120.158489259991
20
2.27822115563211
30
0
41
1
10
120.253343637489
20
1.91394777515373
30
0
41
1
10
120.324759526415
20
1.53983562436375
30
0
0
SPLINE
5
1A2
100
AcDbEntity
8
1
62
256
6
ByLayer
370
18
48
1
60
0
100
AcDbSpline
70
4
71
3
72
8
73
4
40
0
40
0
40
0
40
0
40
1
40
1
40
1
40
1
41
1
10
120.324759526419
20
4.053836917045
30
0
41
1
10
120.164101740032
20
5.2315551818871
30
0
41
1
10
119.936650314553
20
6.39203615339582
30
0
41
1
10
119.650480947162
20
7.537363909682
30
0
0
SPLINE
5
1A3
100
AcDbEntity
8
1
62
256
6
ByLayer
370
18
48
1
60
0
100
AcDbSpline
70
4
71
3
72
42
73
38
40
0
40
0
40
0
40
0
40
0.250000000000005
40
0.250000000000005
40
0.375000000000007
40
0.375000000000007
40
0.500000000000009
40
0.500000000000009
40
0.625000000000012
40
0.625000000000012
40
0.687500000000013
40
0.687500000000013
40
0.750000000000014
40
0.750000000000014
40
0.781250000000012
40
0.781250000000012
40
0.81250000000001
40
0.81250000000001
40
0.843750000000008
40
0.843750000000008
40
0.859375000000007
40
0.859375000000007
40
0.875000000000006
40
0.875000000000006
40
0.890625000000006
40
0.890625000000006
40
0.906250000000005
40
0.906250000000005
40
0.921875000000004
40
0.921875000000004
40
0.937500000000003
40
0.937500000000003
40
0.953125000000002
40
0.953125000000002
40
0.968750000000001
40
0.968750000000001
40
1
40
1
40
1
40
1
41
1
10
119.650480947161
20
7.53736390968197
30
0
41
1
10
119.63076897837
20
7.61625657801196
30
0
41
1
10
119.61346059995
20
7.69484838754909
30
0
41
1
10
119.591140780514
20
7.81227186098101
30
0
41
1
10
119.584320719394
20
7.85133461566389
30
0
41
1
10
119.572124668301
20
7.92928471022216
30
0
41
1
10
119.566742521326
20
7.96817257525109
30
0
41
1
10
119.557864378318
20
8.04573416545654
30
0
41
1
10
119.55434285781
20
8.08444008797372
30
0
41
1
10
119.551271377319
20
8.14217806187276
30
0
41
1
10
119.550630005146
20
8.16123086440538
30
0
41
1
10
119.550377159459
20
8.19882638523814
30
0
41
1
10
119.550757044975
20
8.21737314192094
30
0
41
1
10
119.552486535079
20
8.24462984001525
30
0
41
1
10
119.553258656099
20
8.25362040287632
30
0
41
1
10
119.555324288495
20
8.27135071684847
30
0
41
1
10
119.556619146011
20
8.28011323257593
30
0
41
1
10
119.559941779673
20
8.29718730275047
30
0
41
1
10
119.56194845637
20
8.30541747543873
30
0
41
1
10
119.565733288872
20
8.31707909554254
30
0
41
1
10
119.567125496084
20
8.3208510908139
30
0
41
1
10
119.570248978874
20
8.32809687353571
30
0
41
1
10
119.571992418155
20
8.33159059857019
30
0
41
1
10
119.575857623531
20
8.33803499233503
30
0
41
1
10
119.577978928924
20
8.34099480065268
30
0
41
1
10
119.582717557109
20
8.3462264145769
30
0
41
1
10
119.58536880188
20
8.34851669927127
30
0
41
1
10
119.591140283969
20
8.35201750539309
30
0
41
1
10
119.594278886941
20
8.35324654097968
30
0
41
1
10
119.601038610781
20
8.35441280864757
30
0
41
1
10
119.604547324229
20
8.35433579846531
30
0
41
1
10
119.611812347963
20
8.35291576298306
30
0
41
1
10
119.615579957294
20
8.35154989267028
30
0
41
1
10
119.622949675614
20
8.3478528590451
30
0
41
1
10
119.626634528599
20
8.34549323736778
30
0
41
1
10
119.637401170667
20
8.33740232559077
30
0
41
1
10
119.644079218297
20
8.33083394937898
30
0
41
1
10
119.650480947162
20
8.32361823496677
30
0
0
SPLINE
5
1A4
100
AcDbEntity
8
1
62
256
6
ByLayer
370
18
48
1
60
0
100
AcDbSpline
70
4
71
3
72
8
73
4
40
0
40
0
40
0
40
0
40
1
40
1
40
1
40
1
41
1
10
119.650480947162
20
8.32361823496677
30
0
41
1
10
119.877893938717
20
8.06728947825582
30
0
41
1
10
120.102856207569
20
7.80812939307268
30
0
41
1
10
120.324759526411
20
7.54543529229059
30
0
0
SPLINE
5
1A5
100
AcDbEntity
8
1
62
256
6
ByLayer
370
18
48
1
60
0
100
AcDbSpline
70
4
71
3
72
8
73
4
40
0
40
0
40
0
40
0
40
1
40
1
40
1
40
1
41
1
10
120.324759526419
20
8.35889309358552
30
0
41
1
10
120.120774732857
20
9.06295440434317
30
0
41
1
10
119.895186418447
20
9.75770188931091
30
0
41
1
10
119.650480947162
20
10.4442074830618
30
0
0
SPLINE
5
1A6
100
AcDbEntity
8
1
62
256
6
ByLayer
370
18
48
1
60
0
100
AcDbSpline
70
4
71
3
72
40
73
36
40
0
40
0
40
0
40
0
40
0.124999999999999
40
0.124999999999999
40
0.249999999999999
40
0.249999999999999
40
0.374999999999998
40
0.374999999999998
40
0.499999999999998
40
0.499999999999998
40
0.5625
40
0.5625
40
0.625000000000003
40
0.625000000000003
40
0.687500000000006
40
0.687500000000006
40
0.750000000000008
40
0.750000000000008
40
0.781250000000005
40
0.781250000000005
40
0.812500000000002
40
0.812500000000002
40
0.843749999999999
40
0.843749999999999
40
0.874999999999996
40
0.874999999999996
40
0.906249999999992
40
0.906249999999992
40
0.921874999999991
40
0.921874999999991
40
0.937499999999989
40
0.937499999999989
40
0.968749999999995
40
0.968749999999995
40
1
40
1
40
1
40
1
41
1
10
119.650480947162
20
10.4442074830618
30
0
41
1
10
119.640025010736
20
10.4735409458823
30
0
41
1
10
119.630210989746
20
10.5029673076441
30
0
41
1
10
119.611958545041
20
10.5616002322841
30
0
41
1
10
119.603523410692
20
10.5907865528446
30
0
41
1
10
119.588102337404
20
10.6488854928161
30
0
41
1
10
119.581113785878
20
10.6777985452115
30
0
41
1
10
119.568829176801
20
10.7353093306318
30
0
41
1
10
119.56352332279
20
10.7639086554238
30
0
41
1
10
119.557268698592
20
10.8064991466692
30
0
41
1
10
119.555468305322
20
10.820682296395
30
0
41
1
10
119.55261922337
20
10.8486113407321
30
0
41
1
10
119.551563972929
20
10.862380128427
30
0
41
1
10
119.550399909879
20
10.8894214732838
30
0
41
1
10
119.550285829804
20
10.9026966836888
30
0
41
1
10
119.55138586223
20
10.9285585052094
30
0
41
1
10
119.552608640832
20
10.9412331302686
30
0
41
1
10
119.555948456209
20
10.9588608230579
30
0
41
1
10
119.557314290988
20
10.9645185412797
30
0
41
1
10
119.560709973981
20
10.9752629426486
30
0
41
1
10
119.562757184409
20
10.9803881681509
30
0
41
1
10
119.567691285185
20
10.9896473096835
30
0
41
1
10
119.570555797839
20
10.9937603959165
30
0
41
1
10
119.577358112121
20
11.0005969404047
30
0
41
1
10
119.581328265331
20
11.0032995526683
30
0
41
1
10
119.590209516905
20
11.0065701580044
30
0
41
1
10
119.595238130169
20
11.0071547338824
30
0
41
1
10
119.603144568995
20
11.0063121242093
30
0
41
1
10
119.605853809948
20
11.0057558877138
30
0
41
1
10
119.611415566325
20
11.0041091466673
30
0
41
1
10
119.614249175209
20
11.0030206655198
30
0
41
1
10
119.622685087213
20
10.9991362853474
30
0
41
1
10
119.628307688267
20
10.9957046891452
30
0
41
1
10
119.639550729521
20
10.9875472607247
30
0
41
1
10
119.645089621271
20
10.9828744514096
30
0
41
1
10
119.650480947162
20
10.9778415583045
30
0
0
SPLINE
5
1A7
100
AcDbEntity
8
1
62
256
6
ByLayer
370
18
48
1
60
0
100
AcDbSpline
70
4
71
3
72
8
73
4
40
0
40
0
40
0
40
0
40
1
40
1
40
1
40
1
41
1
10
119.650480947162
20
10.9778415583027
30
0
41
1
10
119.875878259424
20
10.767429388532
30
0
41
1
10
120.100672937924
20
10.5561625919067
30
0
41
1
10
120.324759526419
20
10.3438916153444
30
0
0
SPLINE
5
1A8
100
AcDbEntity
8
1
62
256
6
ByLayer
370
18
48
1
60
0
100
AcDbSpline
70
4
71
3
72
8
73
4
40
0
40
0
40
0
40
0
40
1
40
1
40
1
40
1
41
1
10
120.324759526419
20
10.899935492928
30
0
41
1
10
120.111437539985
20
11.4476285217342
30
0
41
1
10
119.886241901321
20
11.9887487173418
30
0
41
1
10
119.650480947162
20
12.5240203286131
30
0
0
SPLINE
5
1A9
100
AcDbEntity
8
1
62
256
6
ByLayer
370
18
48
1
60
0
100
AcDbSpline
70
4
71
3
72
40
73
36
40
0
40
0
40
0
40
0
40
0.124999999999998
40
0.124999999999998
40
0.249999999999996
40
0.249999999999996
40
0.374999999999994
40
0.374999999999994
40
0.499999999999992
40
0.499999999999992
40
0.562499999999993
40
0.562499999999993
40
0.624999999999994
40
0.624999999999994
40
0.687499999999995
40
0.687499999999995
40
0.718749999999995
40
0.718749999999995
40
0.749999999999996
40
0.749999999999996
40
0.781249999999996
40
0.781249999999996
40
0.812499999999997
40
0.812499999999997
40
0.843749999999997
40
0.843749999999997
40
0.874999999999998
40
0.874999999999998
40
0.906249999999998
40
0.906249999999998
40
0.937499999999999
40
0.937499999999999
40
0.968749999999999
40
0.968749999999999
40
1
40
1
40
1
40
1
41
1
10
119.650480947162
20
12.5240203286131
30
0
41
1
10
119.639690471916
20
12.5485190209089
30
0
41
1
10
119.629613916005
20
12.5729486554884
30
0
41
1
10
119.610849297583
20
12.6216689381415
30
0
41
1
10
119.602160592807
20
12.6459596622952
30
0
41
1
10
119.586289625029
20
12.6943887125295
30
0
41
1
10
119.579096154492
20
12.7185525224912
30
0
41
1
10
119.566584682111
20
12.7665924147561
30
0
41
1
10
119.561339273704
20
12.7901565661239
30
0
41
1
10
119.555481361028
20
12.8246060554296
30
0
41
1
10
119.553867302615
20
12.8359382479913
30
0
41
1
10
119.551487852271
20
12.8582271487091
30
0
41
1
10
119.550718615151
20
12.8692396521949
30
0
41
1
10
119.550336211257
20
12.8904892822464
30
0
41
1
10
119.550714779598
20
12.900678751483
30
0
41
1
10
119.552465551096
20
12.9150655650476
30
0
41
1
10
119.553248182532
20
12.9197101977653
30
0
41
1
10
119.555309097648
20
12.9286248501679
30
0
41
1
10
119.556593904736
20
12.9329010995042
30
0
41
1
10
119.559717301251
20
12.9407756166949
30
0
41
1
10
119.561559358519
20
12.9444002494739
30
0
41
1
10
119.565937706079
20
12.9508777423324
30
0
41
1
10
119.568504767017
20
12.9537519025178
30
0
41
1
10
119.574349248947
20
12.9583575070414
30
0
41
1
10
119.577621102576
20
12.96010347271
30
0
41
1
10
119.584977180313
20
12.9623048822333
30
0
41
1
10
119.589008029016
20
12.9627276846833
30
0
41
1
10
119.597554413791
20
12.9621883066386
30
0
41
1
10
119.602165047507
20
12.961210311399
30
0
41
1
10
119.61156352127
20
12.9580305278132
30
0
41
1
10
119.616343834585
20
12.9558532438607
30
0
41
1
10
119.626039774226
20
12.9505209964748
30
0
41
1
10
119.630992916634
20
12.9473363627046
30
0
41
1
10
119.640809613647
20
12.940268891459
30
0
41
1
10
119.64566607499
20
12.9363995135532
30
0
41
1
10
119.650480947162
20
12.9322615979167
30
0
0
SPLINE
5
1AA
100
AcDbEntity
8
1
62
256
6
ByLayer
370
18
48
1
60
0
100
AcDbSpline
70
4
71
3
72
8
73
4
40
0
40
0
40
0
40
0
40
1
40
1
40
1
40
1
41
1
10
119.650480947162
20
12.9322615979157
30
0
41
1
10
119.875423713527
20
12.7389451074578
30
0
41
1
10
120.100191536751
20
12.5453578173501
30
0
41
1
10
120.324759526419
20
12.3514611989833
30
0
0
SPLINE
5
1AB
100
AcDbEntity
8
1
62
256
6
ByLayer
370
18
48
1
60
0
100
AcDbSpline
70
4
71
3
72
8
73
4
40
0
40
0
40
0
40
0
40
1
40
1
40
1
40
1
41
1
10
120.324759526419
20
12.7767794748907
30
0
41
1
10
120.107382666912
20
13.2381665161966
30
0
41
1
10
119.882352997816
20
13.6945301612783
30
0
41
1
10
119.650480947162
20
14.1464023848391
30
0
0
SPLINE
5
1AC
100
AcDbEntity
8
1
62
256
6
ByLayer
370
18
48
1
60
0
100
AcDbSpline
70
4
71
3
72
40
73
36
40
0
40
0
40
0
40
0
40
0.125000000000014
40
0.125000000000014
40
0.250000000000027
40
0.250000000000027
40
0.375000000000041
40
0.375000000000041
40
0.437500000000042
40
0.437500000000042
40
0.500000000000043
40
0.500000000000043
40
0.562500000000044
40
0.562500000000044
40
0.625000000000045
40
0.625000000000045
40
0.687500000000046
40
0.687500000000046
40
0.718750000000041
40
0.718750000000041
40
0.750000000000035
40
0.750000000000035
40
0.78125000000003
40
0.78125000000003
40
0.812500000000025
40
0.812500000000025
40
0.843750000000019
40
0.843750000000019
40
0.875000000000014
40
0.875000000000014
40
0.937500000000004
40
0.937500000000004
40
0.968750000000002
40
0.968750000000002
40
1
40
1
40
1
40
1
41
1
10
119.650480947162
20
14.1464023848391
30
0
41
1
10
119.639414958228
20
14.1679677827014
30
0
41
1
10
119.629040809079
20
14.1894982781838
30
0
41
1
10
119.609683150239
20
14.2324844320551
30
0
41
1
10
119.600665700982
20
14.2540304822575
30
0
41
1
10
119.584409180772
20
14.2964716606379
30
0
41
1
10
119.577153956557
20
14.3173783954797
30
0
41
1
10
119.56784509696
20
14.3481740824705
30
0
41
1
10
119.565006721944
20
14.3583444727705
30
0
41
1
10
119.55994833633
20
14.3784644888768
30
0
41
1
10
119.557723039423
20
14.3884367390239
30
0
41
1
10
119.554054354315
20
14.4080137813795
30
0
41
1
10
119.552625671844
20
14.4175304795211
30
0
41
1
10
119.550759790623
20
14.4359026326868
30
0
41
1
10
119.550318779816
20
14.4447605718957
30
0
41
1
10
119.550749497916
20
14.4616056545874
30
0
41
1
10
119.551636822927
20
14.4696104377064
30
0
41
1
10
119.554281873644
20
14.4802400051824
30
0
41
1
10
119.555383473851
20
14.4835703154137
30
0
41
1
10
119.55811068237
20
14.4897250071959
30
0
41
1
10
119.559751087798
20
14.4925672484103
30
0
41
1
10
119.5635955558
20
14.4975235357777
30
0
41
1
10
119.565792502249
20
14.4996397405523
30
0
41
1
10
119.570810054821
20
14.5030524418843
30
0
41
1
10
119.573662929114
20
14.5043510856061
30
0
41
1
10
119.579852338377
20
14.5059489374526
30
0
41
1
10
119.583198210382
20
14.5062662734111
30
0
41
1
10
119.59039654148
20
14.5059318013033
30
0
41
1
10
119.594295692839
20
14.5052651393161
30
0
41
1
10
119.606418497699
20
14.5018746224372
30
0
41
1
10
119.61493133613
20
14.4978669254717
30
0
41
1
10
119.628201605806
20
14.4898327177074
30
0
41
1
10
119.632697891774
20
14.4868155998191
30
0
41
1
10
119.641605111238
20
14.4803478822288
30
0
41
1
10
119.646047713553
20
14.4768784266665
30
0
41
1
10
119.650480947162
20
14.4732088630915
30
0
0
SPLINE
5
1AD
100
AcDbEntity
8
1
62
256
6
ByLayer
370
18
48
1
60
0
100
AcDbSpline
70
4
71
3
72
8
73
4
40
0
40
0
40
0
40
0
40
1
40
1
40
1
40
1
41
1
10
119.650480947162
20
14.4732088630909
30
0
41
1
10
119.87528177088
20
14.2871322907607
30
0
41
1
10
120.10004293855
20
14.1009918745282
30
0
41
1
10
120.324759526419
20
13.9147796874398
30
0
0
SPLINE
5
1AE
100
AcDbEntity
8
1
62
256
6
ByLayer
370
18
48
1
60
0
100
AcDbSpline
70
4
71
3
72
8
73
4
40
0
40
0
40
0
40
0
40
1
40
1
40
1
40
1
41
1
10
120.324759526419
20
14.2542482702522
30
0
41
1
10
120.105152654042
20
14.6587123242199
30
0
41
1
10
119.880211532645
20
15.05918605128
30
0
41
1
10
119.650480947162
20
15.4560769820822
30
0
0
SPLINE
5
1AF
100
AcDbEntity
8
1
62
256
6
ByLayer
370
18
48
1
60
0
100
AcDbSpline
70
4
71
3
72
39
73
35
40
0
40
0
40
0
40
0
40
0.125000000000001
40
0.125000000000001
40
0.250000000000002
40
0.250000000000002
40
0.375000000000003
40
0.375000000000003
40
0.437499999999997
40
0.437499999999997
40
0.49999999999999
40
0.49999999999999
40
0.562499999999984
40
0.562499999999984
40
0.59374999999998
40
0.59374999999998
40
0.624999999999977
40
0.624999999999977
40
0.687499999999981
40
0.687499999999981
40
0.718749999999983
40
0.718749999999983
40
0.749999999999985
40
0.749999999999985
40
0.781249999999987
40
0.781249999999987
40
0.812499999999989
40
0.843749999999991
40
0.843749999999991
40
0.874999999999992
40
0.874999999999992
40
0.937499999999996
40
0.937499999999996
40
1
40
1
40
1
40
1
41
1
10
119.650480947162
20
15.4560769820822
30
0
41
1
10
119.639193035731
20
15.475578389198
30
0
41
1
10
119.628590160519
20
15.4950150972997
30
0
41
1
10
119.608789608101
20
15.5337506274617
30
0
41
1
10
119.59955440175
20
15.5531394770016
30
0
41
1
10
119.582996045851
20
15.5910738569022
30
0
41
1
10
119.575636447461
20
15.6096683647393
30
0
41
1
10
119.566297083473
20
15.6368716168548
30
0
41
1
10
119.563469944102
20
15.6458235796136
30
0
41
1
10
119.558498129876
20
15.6634519327063
30
0
41
1
10
119.556355985995
20
15.6721338879733
30
0
41
1
10
119.552992495483
20
15.6887880728003
30
0
41
1
10
119.551755667217
20
15.696805493067
30
0
41
1
10
119.550731607718
20
15.7082552465148
30
0
41
1
10
119.550529643809
20
15.7119751829307
30
0
41
1
10
119.550447718715
20
15.7191922642155
30
0
41
1
10
119.550569803588
20
15.7227031448458
30
0
41
1
10
119.551489172924
20
15.7326767960528
30
0
41
1
10
119.552823866437
20
15.7386266380576
30
0
41
1
10
119.556235634613
20
15.7461914297903
30
0
41
1
10
119.557622786118
20
15.7484972729624
30
0
41
1
10
119.560888621489
20
15.7524800239251
30
0
41
1
10
119.562763444322
20
15.7541622265613
30
0
41
1
10
119.567039967856
20
15.7568546457302
30
0
41
1
10
119.569461523802
20
15.7578691446222
30
0
41
1
10
119.574799687778
20
15.7591280609587
30
0
41
1
10
119.580567979247
20
15.7596147878303
30
0
41
1
10
119.587174135165
20
15.7586005535331
30
0
41
1
10
119.594197904459
20
15.756839614894
30
0
41
1
10
119.597925489672
20
15.7555764856675
30
0
41
1
10
119.609307892352
20
15.7508672481528
30
0
41
1
10
119.617324482498
20
15.7464633141775
30
0
41
1
10
119.63384879861
20
15.7357246214993
30
0
41
1
10
119.642150093395
20
15.7295341136673
30
0
41
1
10
119.650480947162
20
15.7227274845172
30
0
0
SPLINE
5
1B0
100
AcDbEntity
8
1
62
256
6
ByLayer
370
18
48
1
60
0
100
AcDbSpline
70
4
71
3
72
8
73
4
40
0
40
0
40
0
40
0
40
1
40
1
40
1
40
1
41
1
10
119.650480947162
20
15.7227274845169
30
0
41
1
10
119.875242279349
20
15.539088798948
30
0
41
1
10
120.10000187134
20
15.3554472734953
30
0
41
1
10
120.324759526419
20
15.1718025873654
30
0
0
SPLINE
5
1B1
100
AcDbEntity
8
1
62
256
6
ByLayer
370
18
48
1
60
0
100
AcDbSpline
70
4
71
3
72
8
73
4
40
0
40
0
40
0
40
0
40
1
40
1
40
1
40
1
41
1
10
120.324759526419
20
15.4473652688731
30
0
41
1
10
120.103764009202
20
15.8105598495156
30
0
41
1
10
119.878876276632
20
16.170514941658
30
0
41
1
10
119.650480947162
20
16.5275506630088
30
0
0
SPLINE
5
1B2
100
AcDbEntity
8
1
62
256
6
ByLayer
370
18
48
1
60
0
100
AcDbSpline
70
4
71
3
72
41
73
37
40
0
40
0
40
0
40
0
40
0.124999999999984
40
0.124999999999984
40
0.187499999999978
40
0.187499999999978
40
0.249999999999971
40
0.249999999999971
40
0.374999999999963
40
0.374999999999963
40
0.437499999999962
40
0.437499999999962
40
0.499999999999961
40
0.499999999999961
40
0.56249999999996
40
0.56249999999996
40
0.624999999999959
40
0.624999999999959
40
0.656249999999958
40
0.656249999999958
40
0.687499999999958
40
0.687499999999958
40
0.718749999999957
40
0.718749999999957
40
0.749999999999957
40
0.749999999999957
40
0.812499999999963
40
0.812499999999963
40
0.843749999999967
40
0.843749999999967
40
0.874999999999972
40
0.906249999999977
40
0.906249999999977
40
0.937499999999981
40
0.937499999999981
40
1
40
1
40
1
40
1
41
1
10
119.650480947162
20
16.5275506630088
30
0
41
1
10
119.638981804677
20
16.5455265324867
30
0
41
1
10
119.62814548197
20
16.563420615134
30
0
41
1
10
119.612939206481
20
16.5901281849022
30
0
41
1
10
119.608042788563
20
16.5990169496368
30
0
41
1
10
119.598721928768
20
16.6165648982942
30
0
41
1
10
119.594284643271
20
16.625245763457
30
0
41
1
10
119.581686936374
20
16.6509896479139
30
0
41
1
10
119.574223281786
20
16.6677610781081
30
0
41
1
10
119.564837577099
20
16.6921604462437
30
0
41
1
10
119.562006278076
20
16.7001981661699
30
0
41
1
10
119.557184605239
20
16.7156477088202
30
0
41
1
10
119.555179368067
20
16.7230904973059
30
0
41
1
10
119.552137250522
20
16.7373043165408
30
0
41
1
10
119.551097322754
20
16.7440774273185
30
0
41
1
10
119.550263647968
20
16.7567617390187
30
0
41
1
10
119.550482593648
20
16.7625191878589
30
0
41
1
10
119.551971457481
20
16.7700613230132
30
0
41
1
10
119.552662227263
20
16.7723934928272
30
0
41
1
10
119.554488589318
20
16.7766425722046
30
0
41
1
10
119.555629696968
20
16.778558267137
30
0
41
1
10
119.558347744801
20
16.7818281742806
30
0
41
1
10
119.559929168047
20
16.7831969176475
30
0
41
1
10
119.563569638857
20
16.7853637195279
30
0
41
1
10
119.565645521329
20
16.7861647789781
30
0
41
1
10
119.572537810431
20
16.7876065271332
30
0
41
1
10
119.57792665398
20
16.7872966647602
30
0
41
1
10
119.587151619285
20
16.7850110816933
30
0
41
1
10
119.590446302725
20
16.7839313072071
30
0
41
1
10
119.597241521147
20
16.7812338486897
30
0
41
1
10
119.604247829043
20
16.7780072079679
30
0
41
1
10
119.61163322165
20
16.773832248832
30
0
41
1
10
119.619193271317
20
16.7692211157918
30
0
41
1
10
119.623071327699
20
16.7666886267633
30
0
41
1
10
119.634714931172
20
16.758648953219
30
0
41
1
10
119.642563586242
20
16.7526628820388
30
0
41
1
10
119.650480947162
20
16.7461799915717
30
0
0
SPLINE
5
1B3
100
AcDbEntity
8
1
62
256
6
ByLayer
370
18
48
1
60
0
100
AcDbSpline
70
4
71
3
72
8
73
4
40
0
40
0
40
0
40
0
40
1
40
1
40
1
40
1
41
1
10
119.650480947162
20
16.7461799915715
30
0
41
1
10
119.875247737629
20
16.5621365334025
30
0
41
1
10
120.100007511727
20
16.3780816494062
30
0
41
1
10
120.324759526419
20
16.1940141333144
30
0
0
SPLINE
5
1B4
100
AcDbEntity
8
1
62
256
6
ByLayer
370
18
48
1
60
0
100
AcDbSpline
70
4
71
3
72
8
73
4
40
0
40
0
40
0
40
0
40
1
40
1
40
1
40
1
41
1
10
120.324759526419
20
16.4182396666021
30
0
41
1
10
120.10282976625
20
16.7496954266902
30
0
41
1
10
119.87797677687
20
17.0784874839768
30
0
41
1
10
119.650480947162
20
17.4048713342153
30
0
0
SPLINE
5
1B5
100
AcDbEntity
8
1
62
256
6
ByLayer
370
18
48
1
60
0
100
AcDbSpline
70
4
71
3
72
34
73
30
40
0
40
0
40
0
40
0
40
0.124999999999988
40
0.124999999999988
40
0.249999999999977
40
0.249999999999977
40
0.312499999999974
40
0.312499999999974
40
0.37499999999997
40
0.37499999999997
40
0.499999999999977
40
0.499999999999977
40
0.562499999999982
40
0.562499999999982
40
0.624999999999987
40
0.624999999999987
40
0.687499999999992
40
0.687499999999992
40
0.718749999999996
40
0.718749999999996
40
0.75
40
0.75
40
0.8125
40
0.8125
40
0.875
40
0.875
40
0.9375
40
0.9375
40
1
40
1
40
1
40
1
41
1
10
119.650480947162
20
17.4048713342154
30
0
41
1
10
119.638779782576
20
17.4216587678782
30
0
41
1
10
119.627693116502
20
17.4383758860402
30
0
41
1
10
119.607002473869
20
17.4714107933077
30
0
41
1
10
119.597504579954
20
17.4875524832553
30
0
41
1
10
119.584701626499
20
17.5111204626931
30
0
41
1
10
119.580676613219
20
17.5188681596806
30
0
41
1
10
119.57317678391
20
17.5341175966375
30
0
41
1
10
119.569687169971
20
17.5416532144364
30
0
41
1
10
119.560306547286
20
17.5635746306857
30
0
41
1
10
119.555515793997
20
17.5771559030125
30
0
41
1
10
119.551444442405
20
17.5953340811036
30
0
41
1
10
119.550629414815
20
17.6010158296475
30
0
41
1
10
119.550369704541
20
17.6110410235753
30
0
41
1
10
119.550906911697
20
17.6154408318438
30
0
41
1
10
119.553649785601
20
17.6227119306332
30
0
41
1
10
119.555833495619
20
17.6254796389086
30
0
41
1
10
119.560418657478
20
17.6281044544237
30
0
41
1
10
119.562180578905
20
17.6287302685927
30
0
41
1
10
119.56612484049
20
17.6294299988256
30
0
41
1
10
119.568286199411
20
17.6295043011143
30
0
41
1
10
119.575316333567
20
17.6289333978023
30
0
41
1
10
119.580743615077
20
17.627492847492
30
0
41
1
10
119.592956646791
20
17.6225760263923
30
0
41
1
10
119.599500450861
20
17.6192044399136
30
0
41
1
10
119.613308831925
20
17.6109620758319
30
0
41
1
10
119.620630234375
20
17.6060417517655
30
0
41
1
10
119.635395579302
20
17.5952630873193
30
0
41
1
10
119.642891402848
20
17.5893789353743
30
0
41
1
10
119.650480947162
20
17.5830864488532
30
0
0
SPLINE
5
1B6
100
AcDbEntity
8
1
62
256
6
ByLayer
370
18
48
1
60
0
100
AcDbSpline
70
4
71
3
72
8
73
4
40
0
40
0
40
0
40
0
40
1
40
1
40
1
40
1
41
1
10
119.650480947162
20
17.583086448853
30
0
41
1
10
119.87527835498
20
17.3967070563404
30
0
41
1
10
120.100039125586
20
17.2102687278772
30
0
41
1
10
120.324759526419
20
17.0237655573021
30
0
0
SPLINE
5
1B7
100
AcDbEntity
8
1
62
256
6
ByLayer
370
18
48
1
60
0
100
AcDbSpline
70
4
71
3
72
8
73
4
40
0
40
0
40
0
40
0
40
1
40
1
40
1
40
1
41
1
10
120.324759526419
20
17.2045370106256
30
0
41
1
10
120.102167049584
20
17.5105841760989
30
0
41
1
10
119.877337890168
20
17.8144257977408
30
0
41
1
10
119.650480947162
20
18.1162678662814
30
0
0
SPLINE
5
1B8
100
AcDbEntity
8
1
62
256
6
ByLayer
370
18
48
1
60
0
100
AcDbSpline
70
4
71
3
72
41
73
37
40
0
40
0
40
0
40
0
40
0.062499999999996
40
0.062499999999996
40
0.124999999999992
40
0.124999999999992
40
0.249999999999985
40
0.249999999999985
40
0.312499999999982
40
0.312499999999982
40
0.374999999999978
40
0.374999999999978
40
0.437499999999975
40
0.468749999999973
40
0.468749999999973
40
0.499999999999971
40
0.499999999999971
40
0.562499999999973
40
0.562499999999973
40
0.624999999999974
40
0.624999999999974
40
0.687499999999976
40
0.687499999999976
40
0.749999999999978
40
0.749999999999978
40
0.781249999999979
40
0.781249999999979
40
0.81249999999998
40
0.81249999999998
40
0.874999999999988
40
0.874999999999988
40
0.906249999999991
40
0.906249999999991
40
0.937499999999994
40
0.937499999999994
40
1
40
1
40
1
40
1
41
1
10
119.650480947162
20
18.1162678662814
30
0
41
1
10
119.644530707472
20
18.1241848937815
30
0
41
1
10
119.638734660478
20
18.1320661881958
30
0
41
1
10
119.627462614209
20
18.1477537676441
30
0
41
1
10
119.621983627572
20
18.1555655854393
30
0
41
1
10
119.606226071217
20
18.1786319055692
30
0
41
1
10
119.59655639816
20
18.1936038516689
30
0
41
1
10
119.58352564473
20
18.2153410699514
30
0
41
1
10
119.579429881242
20
18.2224656317335
30
0
41
1
10
119.571814377828
20
18.2364325284521
30
0
41
1
10
119.568318980523
20
18.2432345542668
30
0
41
1
10
119.562151731737
20
18.2562021368564
30
0
41
1
10
119.558116055743
20
18.2654991328194
30
0
41
1
10
119.555124307769
20
18.2740375850838
30
0
41
1
10
119.553390593519
20
18.2795405045765
30
0
41
1
10
119.552653442229
20
18.2822028365408
30
0
41
1
10
119.550910298472
20
18.2897406107659
30
0
41
1
10
119.550352356246
20
18.2942147484463
30
0
41
1
10
119.550659068286
20
18.3018677379398
30
0
41
1
10
119.551551382701
20
18.3050594781877
30
0
41
1
10
119.554942046485
20
18.3096266601917
30
0
41
1
10
119.55744201508
20
18.3110502936696
30
0
41
1
10
119.564147905172
20
18.3119608702214
30
0
41
1
10
119.568227742826
20
18.3114399048524
30
0
41
1
10
119.575359496822
20
18.309303485422
30
0
41
1
10
119.577906330663
20
18.3083642815712
30
0
41
1
10
119.583336023074
20
18.3060366334103
30
0
41
1
10
119.58621229645
20
18.3046487760987
30
0
41
1
10
119.595094710497
20
18.2999585110492
30
0
41
1
10
119.601422754011
20
18.2961049586609
30
0
41
1
10
119.611436330014
20
18.2893955044812
30
0
41
1
10
119.614876803774
20
18.2869917365589
30
0
41
1
10
119.62181975771
20
18.2819650556369
30
0
41
1
10
119.625327553302
20
18.2793394829971
30
0
41
1
10
119.635948792471
20
18.2711611225125
30
0
41
1
10
119.643159471795
20
18.2653086512664
30
0
41
1
10
119.650480947162
20
18.2591159102945
30
0
0
SPLINE
5
1B9
100
AcDbEntity
8
1
62
256
6
ByLayer
370
18
48
1
60
0
100
AcDbSpline
70
4
71
3
72
8
73
4
40
0
40
0
40
0
40
0
40
1
40
1
40
1
40
1
41
1
10
119.650480947162
20
18.2591159102944
30
0
41
1
10
119.875326782245
20
18.0689340213251
30
0
41
1
10
120.100089025132
20
17.878620505902
30
0
41
1
10
120.324759526419
20
17.6881625317607
30
0
0
SPLINE
5
1BA
100
AcDbEntity
8
1
62
256
6
ByLayer
370
18
48
1
60
0
100
AcDbSpline
70
4
71
3
72
8
73
4
40
0
40
0
40
0
40
0
40
1
40
1
40
1
40
1
41
1
10
120.324759526419
20
17.8306924641188
30
0
41
1
10
120.101678442286
20
18.1158055554844
30
0
41
1
10
119.876866272618
20
18.3990877212193
30
0
41
1
10
119.650480947162
20
18.6807059996439
30
0
0
SPLINE
5
1BB
100
AcDbEntity
8
1
62
256
6
ByLayer
370
18
48
1
60
0
100
AcDbSpline
70
4
71
3
72
38
73
34
40
0
40
0
40
0
40
0
40
0.0624999999999948
40
0.0624999999999948
40
0.12499999999999
40
0.12499999999999
40
0.249999999999995
40
0.249999999999995
40
0.312499999999999
40
0.312499999999999
40
0.375000000000003
40
0.375000000000003
40
0.437500000000007
40
0.437500000000007
40
0.500000000000012
40
0.500000000000012
40
0.562500000000016
40
0.562500000000016
40
0.62500000000002
40
0.62500000000002
40
0.687500000000024
40
0.687500000000024
40
0.750000000000028
40
0.750000000000028
40
0.781250000000027
40
0.781250000000027
40
0.812500000000027
40
0.812500000000027
40
0.875000000000018
40
0.875000000000018
40
0.937500000000009
40
0.937500000000009
40
1
40
1
40
1
40
1
41
1
10
119.650480947162
20
18.6807059996439
30
0
41
1
10
119.644435066045
20
18.6882269404485
30
0
41
1
10
119.638541009106
20
18.6956954835841
30
0
41
1
10
119.627070710279
20
18.710521954104
30
0
41
1
10
119.621478397149
20
18.717901933833
30
0
41
1
10
119.605382543492
20
18.7396367381099
30
0
41
1
10
119.59552307329
20
18.7536213176677
30
0
41
1
10
119.582291758194
20
18.7736882743321
30
0
41
1
10
119.578143409899
20
18.7802241905297
30
0
41
1
10
119.570463431254
20
18.7929350505266
30
0
41
1
10
119.566983467968
20
18.7990266725003
30
0
41
1
10
119.560894095359
20
18.8105111646509
30
0
41
1
10
119.558273629461
20
18.8159211153956
30
0
41
1
10
119.554041861199
20
18.8259505318491
30
0
41
1
10
119.552432376485
20
18.8305864249232
30
0
41
1
10
119.550538980103
20
18.8385889334802
30
0
41
1
10
119.550233118891
20
18.8420039082258
30
0
41
1
10
119.551141496283
20
18.8474028832888
30
0
41
1
10
119.552342069685
20
18.8493113044683
30
0
41
1
10
119.556322566542
20
18.8514574493091
30
0
41
1
10
119.559156903261
20
18.8516693992411
30
0
41
1
10
119.566155193741
20
18.8503516061788
30
0
41
1
10
119.570327284129
20
18.8488516643687
30
0
41
1
10
119.57754044284
20
18.8454114743375
30
0
41
1
10
119.580121827421
20
18.844055104398
30
0
41
1
10
119.585487525657
20
18.8410134790061
30
0
41
1
10
119.588275661537
20
18.8393280740418
30
0
41
1
10
119.596927885113
20
18.8338227337171
30
0
41
1
10
119.603078037699
20
18.8295564416249
30
0
41
1
10
119.616050433374
20
18.8199786606834
30
0
41
1
10
119.622764082909
20
18.8147458022598
30
0
41
1
10
119.636420273296
20
18.8036638171367
30
0
41
1
10
119.64338911966
20
18.7977944023934
30
0
41
1
10
119.650480947162
20
18.7916390605849
30
0
0
SPLINE
5
1BC
100
AcDbEntity
8
1
62
256
6
ByLayer
370
18
48
1
60
0
100
AcDbSpline
70
4
71
3
72
8
73
4
40
0
40
0
40
0
40
0
40
1
40
1
40
1
40
1
41
1
10
119.650480947162
20
18.7916390605848
30
0
41
1
10
119.875390693943
20
18.5964289589468
30
0
41
1
10
120.100154848045
20
18.4009956122063
30
0
41
1
10
120.324759526419
20
18.2053177327391
30
0
0
SPLINE
5
1BD
100
AcDbEntity
8
1
62
256
6
ByLayer
370
18
48
1
60
0
100
AcDbSpline
70
4
71
3
72
8
73
4
40
0
40
0
40
0
40
0
40
1
40
1
40
1
40
1
41
1
10
120.324759526419
20
18.3131399205593
30
0
41
1
10
120.101307459449
20
18.5806365366884
30
0
41
1
10
119.876507770667
20
18.8466150387257
30
0
41
1
10
119.650480947162
20
19.111211156999
30
0
0
SPLINE
5
1BE
100
AcDbEntity
8
1
62
256
6
ByLayer
370
18
48
1
60
0
100
AcDbSpline
70
4
71
3
72
37
73
33
40
0
40
0
40
0
40
0
40
0.125000000000018
40
0.125000000000018
40
0.250000000000036
40
0.250000000000036
40
0.312500000000036
40
0.312500000000036
40
0.375000000000036
40
0.375000000000036
40
0.437500000000037
40
0.437500000000037
40
0.468750000000032
40
0.468750000000032
40
0.500000000000028
40
0.531250000000024
40
0.531250000000024
40
0.562500000000019
40
0.562500000000019
40
0.62500000000001
40
0.62500000000001
40
0.656250000000008
40
0.656250000000008
40
0.687500000000007
40
0.687500000000007
40
0.750000000000003
40
0.750000000000003
40
0.812499999999999
40
0.812499999999999
40
0.874999999999996
40
0.874999999999996
40
1
40
1
40
1
40
1
41
1
10
119.650480947162
20
19.111211156999
30
0
41
1
10
119.638202144537
20
19.1255852187197
30
0
41
1
10
119.626485867576
20
19.1397144945017
30
0
41
1
10
119.604552320067
20
19.1671510631425
30
0
41
1
10
119.594502099815
20
19.1802445976575
30
0
41
1
10
119.581082092083
20
19.1987490698128
30
0
41
1
10
119.57688735265
20
19.2047260678896
30
0
41
1
10
119.569160111633
20
19.2162246159388
30
0
41
1
10
119.565703840037
20
19.2216334116338
30
0
41
1
10
119.559712993625
20
19.2316731893738
30
0
41
1
10
119.557175330865
20
19.2363077732506
30
0
41
1
10
119.554189582967
20
19.2425686008369
30
0
41
1
10
119.55333114082
20
19.2445439196838
30
0
41
1
10
119.551945089713
20
19.2481706791229
30
0
41
1
10
119.55088030604
20
19.2514915212531
30
0
41
1
10
119.550493173189
20
19.2541672783628
30
0
41
1
10
119.550469840073
20
19.2564968771611
30
0
41
1
10
119.55064329357
20
19.2574911476064
30
0
41
1
10
119.551729677775
20
19.2598627622586
30
0
41
1
10
119.553197894126
20
19.2606567256913
30
0
41
1
10
119.556546564706
20
19.2606368151029
30
0
41
1
10
119.557864176504
20
19.2604245190901
30
0
41
1
10
119.560849626481
20
19.2595937482393
30
0
41
1
10
119.562509311231
20
19.2589798099642
30
0
41
1
10
119.567961306001
20
19.2565762330216
30
0
41
1
10
119.572230449554
20
19.2542238153656
30
0
41
1
10
119.581924074944
20
19.2481356233889
30
0
41
1
10
119.587203153222
20
19.2444931606368
30
0
41
1
10
119.598484907468
20
19.236209982294
30
0
41
1
10
119.604518790299
20
19.2315432716225
30
0
41
1
10
119.623400016941
20
19.2163577993819
30
0
41
1
10
119.636681697516
20
19.2049543935821
30
0
41
1
10
119.650480947162
20
19.1926049128571
30
0
0
SPLINE
5
1BF
100
AcDbEntity
8
1
62
256
6
ByLayer
370
18
48
1
60
0
100
AcDbSpline
70
4
71
3
72
8
73
4
40
0
40
0
40
0
40
0
40
1
40
1
40
1
40
1
41
1
10
119.650480947162
20
19.1926049128571
30
0
41
1
10
119.875470342809
20
18.9912532251725
30
0
41
1
10
120.100236859786
20
18.7895703804287
30
0
41
1
10
120.324759526419
20
18.5875252185433
30
0
0
SPLINE
5
1C0
100
AcDbEntity
8
1
62
256
6
ByLayer
370
18
48
1
60
0
100
AcDbSpline
70
4
71
3
72
8
73
4
40
0
40
0
40
0
40
0
40
1
40
1
40
1
40
1
41
1
10
120.324759526419
20
18.6630274540328
30
0
41
1
10
120.101019214676
20
18.9154654531761
30
0
41
1
10
119.876228917632
20
19.1666509399744
30
0
41
1
10
119.650480947162
20
19.4166940319322
30
0
0
SPLINE
5
1C1
100
AcDbEntity
8
1
62
256
6
ByLayer
370
18
48
1
60
0
100
AcDbSpline
70
4
71
3
72
37
73
33
40
0
40
0
40
0
40
0
40
0.0625000000000017
40
0.0625000000000017
40
0.125000000000003
40
0.125000000000003
40
0.249999999999993
40
0.249999999999993
40
0.312499999999988
40
0.312499999999988
40
0.374999999999983
40
0.406249999999984
40
0.406249999999984
40
0.437499999999985
40
0.437499999999985
40
0.499999999999985
40
0.499999999999985
40
0.531249999999987
40
0.531249999999987
40
0.56249999999999
40
0.56249999999999
40
0.624999999999991
40
0.624999999999991
40
0.687499999999993
40
0.687499999999993
40
0.749999999999994
40
0.749999999999994
40
0.812499999999996
40
0.812499999999996
40
0.874999999999998
40
0.874999999999998
40
1
40
1
40
1
40
1
41
1
10
119.650480947162
20
19.4166940319322
30
0
41
1
10
119.644233516261
20
19.4236138148031
30
0
41
1
10
119.638128791671
20
19.4304472421315
30
0
41
1
10
119.626224587922
20
19.4439282469411
30
0
41
1
10
119.620408632679
20
19.4505953398451
30
0
41
1
10
119.603696944729
20
19.4700187730244
30
0
41
1
10
119.593459438986
20
19.4822776869187
30
0
41
1
10
119.579801977808
20
19.4993597909765
30
0
41
1
10
119.575513158026
20
19.5048653228664
30
0
41
1
10
119.56782727776
20
19.5150761747945
30
0
41
1
10
119.562698992221
20
19.5221718288955
30
0
41
1
10
119.55866279162
20
19.5283005792952
30
0
41
1
10
119.556240243351
20
19.5321488241227
30
0
41
1
10
119.555161120897
20
19.5339584350354
30
0
41
1
10
119.552417952635
20
19.5389021635931
30
0
41
1
10
119.551221826353
20
19.541588419528
30
0
41
1
10
119.550485616375
20
19.5445985953604
30
0
41
1
10
119.55041909126
20
19.5454340249253
30
0
41
1
10
119.550661814729
20
19.5467128369881
30
0
41
1
10
119.550968230582
20
19.5471605417459
30
0
41
1
10
119.552439131489
20
19.547932459343
30
0
41
1
10
119.554154903999
20
19.5476875862858
30
0
41
1
10
119.559095757758
20
19.5456300292885
30
0
41
1
10
119.562230525272
20
19.5438567909984
30
0
41
1
10
119.569682176899
20
19.5389883407309
30
0
41
1
10
119.574051131848
20
19.5358516153746
30
0
41
1
10
119.583612877603
20
19.5285570395085
30
0
41
1
10
119.58879748384
20
19.5244110022471
30
0
41
1
10
119.599860114334
20
19.515265036947
30
0
41
1
10
119.605784818522
20
19.5102235776686
30
0
41
1
10
119.624098620595
20
19.4942917137729
30
0
41
1
10
119.637015243457
20
19.4826211375575
30
0
41
1
10
119.650480947162
20
19.4701429912252
30
0
0
SPLINE
5
1C2
100
AcDbEntity
8
1
62
256
6
ByLayer
370
18
48
1
60
0
100
AcDbSpline
70
4
71
3
72
8
73
4
40
0
40
0
40
0
40
0
40
1
40
1
40
1
40
1
41
1
10
119.650480947162
20
19.4701429912252
30
0
41
1
10
119.875567648883
20
19.2615638584132
30
0
41
1
10
120.10033706691
20
19.0525298860211
30
0
41
1
10
120.324759526419
20
18.8429985339378
30
0
0
SPLINE
5
1C3
100
AcDbEntity
8
1
62
256
6
ByLayer
370
18
48
1
60
0
100
AcDbSpline
70
4
71
3
72
8
73
4
40
0
40
0
40
0
40
0
40
1
40
1
40
1
40
1
41
1
10
120.324759526419
20
18.8877233606908
30
0
41
1
10
120.100791090601
20
19.1271433496647
30
0
41
1
10
119.876008003165
20
19.3655393957381
30
0
41
1
10
119.650480947162
20
19.6030003410688
30
0
0
SPLINE
5
1C4
100
AcDbEntity
8
1
62
256
6
ByLayer
370
18
48
1
60
0
100
AcDbSpline
70
4
71
3
72
37
73
33
40
0
40
0
40
0
40
0
40
0.125000000000021
40
0.125000000000021
40
0.187500000000025
40
0.187500000000025
40
0.250000000000029
40
0.250000000000029
40
0.312500000000033
40
0.343750000000035
40
0.343750000000035
40
0.375000000000037
40
0.375000000000037
40
0.437500000000032
40
0.437500000000032
40
0.46875000000003
40
0.46875000000003
40
0.500000000000027
40
0.500000000000027
40
0.562500000000022
40
0.562500000000022
40
0.625000000000017
40
0.625000000000017
40
0.687500000000012
40
0.687500000000012
40
0.750000000000007
40
0.750000000000007
40
0.812500000000002
40
0.812500000000002
40
0.874999999999998
40
0.874999999999998
40
1
40
1
40
1
40
1
41
1
10
119.650480947162
20
19.6030003410688
30
0
41
1
10
119.637713524711
20
19.6164433587641
30
0
41
1
10
119.625555134205
20
19.6293990848533
30
0
41
1
10
119.608569850311
20
19.6477688699768
30
0
41
1
10
119.603108564082
20
19.6537238617303
30
0
41
1
10
119.592645038061
20
19.6652469120381
30
0
41
1
10
119.587628553198
20
19.6708318448447
30
0
41
1
10
119.578394061832
20
19.6812540907377
30
0
41
1
10
119.572016535815
20
19.6885648297588
30
0
41
1
10
119.566579562048
20
19.6950058114143
30
0
41
1
10
119.563185659207
20
19.6990862291313
30
0
41
1
10
119.561600856608
20
19.7010238889251
30
0
41
1
10
119.557303071354
20
19.7063893319176
30
0
41
1
10
119.555014755975
20
19.7094065301889
30
0
41
1
10
119.552553203198
20
19.7129894842045
30
0
41
1
10
119.551893247071
20
19.7140301161122
30
0
41
1
10
119.550941407315
20
19.7157401602282
30
0
41
1
10
119.550646743412
20
19.7164124694587
30
0
41
1
10
119.550307456757
20
19.7178803359904
30
0
41
1
10
119.550804218981
20
19.7181301453521
30
0
41
1
10
119.553323180194
20
19.7170929258184
30
0
41
1
10
119.555303382755
20
19.7158212919824
30
0
41
1
10
119.560517793468
20
19.7119566589437
30
0
41
1
10
119.563756830219
20
19.7093608741005
30
0
41
1
10
119.571431586465
20
19.7029148992644
30
0
41
1
10
119.575773222109
20
19.6991432590716
30
0
41
1
10
119.585223568068
20
19.6907486294533
30
0
41
1
10
119.59034747327
20
19.68611253461
30
0
41
1
10
119.601310018783
20
19.6760560925484
30
0
41
1
10
119.607046357809
20
19.6707294245965
30
0
41
1
10
119.624771194316
20
19.6541190568007
30
0
41
1
10
119.637325338165
20
19.6421616074536
30
0
41
1
10
119.650480947162
20
19.6294893682053
30
0
0
SPLINE
5
1C5
100
AcDbEntity
8
1
62
256
6
ByLayer
370
18
48
1
60
0
100
AcDbSpline
70
4
71
3
72
8
73
4
40
0
40
0
40
0
40
0
40
1
40
1
40
1
40
1
41
1
10
119.650480947162
20
19.6294893682053
30
0
41
1
10
119.875685997487
20
19.4125589107664
30
0
41
1
10
120.100458994954
20
19.1950332762277
30
0
41
1
10
120.324759526419
20
18.9768567932095
30
0
0
SPLINE
5
1C6
100
AcDbEntity
8
1
62
256
6
ByLayer
370
18
48
1
60
0
100
AcDbSpline
70
4
71
3
72
8
73
4
40
0
40
0
40
0
40
0
40
1
40
1
40
1
40
1
41
1
10
120.324759526419
20
18.9916716944555
30
0
41
1
10
120.100607863251
20
19.2197546698704
30
0
41
1
10
119.875830405165
20
19.4470125106992
30
0
41
1
10
119.650480947162
20
19.6735161477102
30
0
0
SPLINE
5
1C7
100
AcDbEntity
8
1
62
256
6
ByLayer
370
18
48
1
60
0
100
AcDbSpline
70
2053
71
3
72
40
73
36
40
0
40
0
40
0
40
0
40
0.0625000000000053
40
0.0625000000000053
40
0.125000000000011
40
0.125000000000011
40
0.250000000000021
40
0.250000000000021
40
0.312500000000027
40
0.312500000000027
40
0.34375000000003
40
0.34375000000003
40
0.375000000000033
40
0.375000000000033
40
0.437500000000038
40
0.437500000000038
40
0.468750000000039
40
0.468750000000039
40
0.50000000000004
40
0.50000000000004
40
0.562500000000043
40
0.562500000000043
40
0.593750000000042
40
0.593750000000042
40
0.625000000000042
40
0.625000000000042
40
0.687500000000035
40
0.687500000000035
40
0.750000000000028
40
0.750000000000028
40
0.81250000000002
40
0.81250000000002
40
0.875000000000013
40
0.875000000000013
40
1
40
1
40
1
40
1
41
1
10
119.650480947162
20
19.6735161477102
30
0
41
1
10
119.643995528497
20
19.6800347829361
30
0
41
1
10
119.637641930968
20
19.686424098302
30
0
41
1
10
119.625223781212
20
19.6989177330079
30
0
41
1
10
119.619159362558
20
19.7050219490501
30
0
41
1
10
119.601760540395
20
19.7225422830354
30
0
41
1
10
119.591092877904
20
19.733294624638
30
0
41
1
10
119.576962978984
20
19.7475455477893
30
0
41
1
10
119.572665768936
20
19.751881219919
30
0
41
1
10
119.566937041454
20
19.7576626687883
30
0
41
1
10
119.565146159727
20
19.7594703034829
30
0
41
1
10
119.561821741835
20
19.7628262012981
30
0
41
1
10
119.560285385348
20
19.7643773132458
30
0
41
1
10
119.556170769704
20
19.7685318245771
30
0
41
1
10
119.554054662599
20
19.770668984246
30
0
41
1
10
119.551904777519
20
19.7728403855651
30
0
41
1
10
119.551358069514
20
19.7733926014473
30
0
41
1
10
119.550642684802
20
19.7741152032564
30
0
41
1
10
119.550471174801
20
19.7742884504563
30
0
41
1
10
119.550501778366
20
19.7742575373632
30
0
41
1
10
119.551246131199
20
19.7735056170713
30
0
41
1
10
119.553449587003
20
19.7712801191195
30
0
41
1
10
119.554366440456
20
19.7703541331459
30
0
41
1
10
119.556507437831
20
19.7681920072889
30
0
41
1
10
119.557735591993
20
19.7669518171098
30
0
41
1
10
119.561863192775
20
19.7627842351981
30
0
41
1
10
119.565218581561
20
19.7593968992313
30
0
41
1
10
119.572951716672
20
19.7515926878469
30
0
41
1
10
119.577252302461
20
19.7472536906841
30
0
41
1
10
119.586584704884
20
19.7378414692267
30
0
41
1
10
119.591617667416
20
19.7327670857877
30
0
41
1
10
119.602342916789
20
19.721958155635
30
0
41
1
10
119.607954623723
20
19.7163048356876
30
0
41
1
10
119.625296915117
20
19.6988417531478
30
0
41
1
10
119.637586054382
20
19.686477084645
30
0
41
1
10
119.650480947162
20
19.6735161477102
30
0
0
SPLINE
5
1C8
100
AcDbEntity
8
SK1
62
256
6
ByLayer
370
18
48
1
60
0
100
AcDbSpline
70
4
71
2
72
6
73
3
40
0
40
0
40
0
40
1
40
1
40
1
41
1
10
-0.394913799811235
20
13.740447551665
30
0
41
1
10
-0.944976888873839
20
13.7267321696587
30
0
41
1
10
-1.49503997793926
20
13.7130167789402
30
0
0
SPLINE
5
1C9
100
AcDbEntity
8
SK1
62
256
6
ByLayer
370
18
48
1
60
0
100
AcDbSpline
70
4
71
2
72
6
73
3
40
0
40
0
40
0
40
1
40
1
40
1
41
1
10
-1.49503997793934
20
-13.7130170190491
30
0
41
1
10
-0.944976888873953
20
-13.7267324097107
30
0
41
1
10
-0.394913799811349
20
-13.7404477916605
30
0
0
SPLINE
5
1CA
100
AcDbEntity
8
SK1
62
256
6
ByLayer
370
18
48
1
60
0
100
AcDbSpline
70
4
71
2
72
6
73
3
40
0
40
0
40
0
40
1
40
1
40
1
41
1
10
-22.4999999999999
20
13.4973518251593
30
0
41
1
10
-23.249999936895
20
13.0645339427608
30
0
41
1
10
-24
20
12.6317156240217
30
0
0
SPLINE
5
1CB
100
AcDbEntity
8
SK1
62
256
6
ByLayer
370
18
48
1
60
0
100
AcDbSpline
70
4
71
2
72
6
73
3
40
0
40
0
40
0
40
1
40
1
40
1
41
1
10
-24.0000000000001
20
-12.6317156907498
30
0
41
1
10
-23.2499999368977
20
-13.064534007069
30
0
41
1
10
-22.5000000000001
20
-13.4973518870615
30
0
0
SPLINE
5
1CC
100
AcDbEntity
8
SK1
62
256
6
ByLayer
370
18
48
1
60
0
100
AcDbSpline
70
4
71
3
72
13
73
9
40
0
40
0
40
0
40
0
40
0.239406584356299
40
0.368294064402706
40
0.499927815195484
40
0.631573554280449
40
0.760494103733143
40
1
40
1
40
1
40
1
41
1
10
-1.70000000000005
20
-14.020094440518
30
0
41
1
10
-1.69909121849838
20
-13.9940472396764
30
0
41
1
10
-1.69103207617428
20
-13.956689925787
30
0
41
1
10
-1.66563490778347
20
-13.9104917120148
30
0
41
1
10
-1.63886244003069
20
-13.8792240145368
30
0
41
1
10
-1.60627567892249
20
-13.8540680395026
30
0
41
1
10
-1.55883864918067
20
-13.8310346548635
30
0
41
1
10
-1.52110926509488
20
-13.8248650525742
30
0
41
1
10
-1.49503997793934
20
-13.8252671707288
30
0
0
SPLINE
5
1CD
100
AcDbEntity
8
SK1
62
256
6
ByLayer
370
18
48
1
60
0
100
AcDbSpline
70
4
71
3
72
13
73
9
40
0
40
0
40
0
40
0
40
0.239505895683999
40
0.368426444928801
40
0.500072183930365
40
0.631705934787574
40
0.760593415031941
40
1
40
1
40
1
40
1
41
1
10
-1.49503997793926
20
13.825267079015
30
0
41
1
10
-1.52110926510639
20
13.8248649608707
30
0
41
1
10
-1.55883864920244
20
13.8310345631992
30
0
41
1
10
-1.60627567894025
20
13.8540679479737
30
0
41
1
10
-1.63886244004749
20
13.8792239231524
30
0
41
1
10
-1.66563490779615
20
13.9104916208042
30
0
41
1
10
-1.69103207618366
20
13.9566898348376
30
0
41
1
10
-1.69909121850785
20
13.9940471489176
30
0
41
1
10
-1.69999999999996
20
14.0200943498874
30
0
0
SPLINE
5
1CE
100
AcDbEntity
8
SK1
62
256
6
ByLayer
370
18
48
1
60
0
100
AcDbSpline
70
4
71
2
72
6
73
3
40
0
40
0
40
0
40
1
40
1
40
1
41
1
10
-1.69999999999996
20
14.0158106259661
30
0
41
1
10
-12.0999999986038
20
13.7547061446863
30
0
41
1
10
-22.4999999999999
20
13.4936007996939
30
0
0
SPLINE
5
1CF
100
AcDbEntity
8
SK1
62
256
6
ByLayer
370
18
48
1
60
0
100
AcDbSpline
70
4
71
2
72
6
73
3
40
0
40
0
40
0
40
1
40
1
40
1
41
1
10
-22.5000000000001
20
-13.4936010331934
30
0
41
1
10
-12.0999999986036
20
-13.7547063780669
30
0
41
1
10
-1.70000000000005
20
-14.0158108591592
30
0
0
LINE
5
9D
100
AcDbEntity
8
80
62
256
6
ByLayer
370
18
48
1
60
0
100
AcDbLine
10
0
20
0
30
0
11
-5
21
0
31
0
39
0
210
0
220
0
230
1
0
LINE
5
9E
100
AcDbEntity
8
SK4
62
256
6
ByLayer
370
18
48
0.05
60
0
100
AcDbLine
10
4
20
0
30
0
11
134
21
0
31
0
39
0
210
0
220
0
230
1
0
LINE
5
A0
100
AcDbEntity
8
81
62
256
6
ByLayer
370
18
48
1
60
0
100
AcDbLine
10
120
20
0
30
0
11
125
21
0
31
0
39
0
210
0
220
0
230
1
0
LINE
5
A1
100
AcDbEntity
8
4
62
256
6
ByLayer
370
18
48
0.05
60
0
100
AcDbLine
10
0
20
0
30
0
11
120
21
0
31
0
39
0
210
0
220
0
230
1
0
LINE
5
A3
100
AcDbEntity
8
1
62
256
6
ByLayer
370
18
48
1
60
0
100
AcDbLine
10
124.8
20
12.899495
30
0
11
124.8
21
6.899495
31
0
39
0
210
0
220
0
230
1
0
LINE
5
A4
100
AcDbEntity
8
1
62
256
6
ByLayer
370
13
48
1
60
0
100
AcDbLine
10
120.324503
20
7.453995
30
0
11
124.8
21
7.453995
31
0
39
0
210
0
220
0
230
1
0
LINE
5
A5
100
AcDbEntity
8
1
62
256
6
ByLayer
370
13
48
1
60
0
100
AcDbLine
10
120.324503
20
12.344995
30
0
11
124.8
21
12.344995
31
0
39
0
210
0
220
0
230
1
0
LINE
5
A6
100
AcDbEntity
8
1
62
256
6
ByLayer
370
18
48
1
60
0
100
AcDbLine
10
124.8
20
-6.899495
30
0
11
124.8
21
-12.899495
31
0
39
0
210
0
220
0
230
1
0
LINE
5
A7
100
AcDbEntity
8
1
62
256
6
ByLayer
370
13
48
1
60
0
100
AcDbLine
10
120.324503
20
-12.344995
30
0
11
124.8
21
-12.344995
31
0
39
0
210
0
220
0
230
1
0
LINE
5
A8
100
AcDbEntity
8
1
62
256
6
ByLayer
370
13
48
1
60
0
100
AcDbLine
10
120.324503
20
-7.453995
30
0
11
124.8
21
-7.453995
31
0
39
0
210
0
220
0
230
1
0
LINE
5
A9
100
AcDbEntity
8
1
62
256
6
ByLayer
370
13
48
1
60
0
100
AcDbLine
10
9.076795
20
-5.85989
30
0
11
9.076795
21
-19.122283
31
0
39
0
210
0
220
0
230
1
0
LINE
5
AA
100
AcDbEntity
8
1
62
256
6
ByLayer
370
13
48
1
60
0
100
AcDbLine
10
9.336603
20
-6.16973
30
0
11
9.336603
21
-19.024574
31
0
39
0
210
0
220
0
230
1
0
LINE
5
AB
100
AcDbEntity
8
1
62
256
6
ByLayer
370
13
48
1
60
0
100
AcDbLine
10
6.663397
20
19.024574
30
0
11
6.663397
21
6.16973
31
0
39
0
210
0
220
0
230
1
0
LINE
5
AC
100
AcDbEntity
8
1
62
256
6
ByLayer
370
13
48
1
60
0
100
AcDbLine
10
6.923205
20
19.122283
30
0
11
6.923205
21
5.85989
31
0
39
0
210
0
220
0
230
1
0
LINE
5
AD
100
AcDbEntity
8
1
62
256
6
ByLayer
370
13
48
1
60
0
100
AcDbLine
10
9.076795
20
19.122283
30
0
11
9.076795
21
5.85989
31
0
39
0
210
0
220
0
230
1
0
LINE
5
AE
100
AcDbEntity
8
1
62
256
6
ByLayer
370
13
48
1
60
0
100
AcDbLine
10
9.336603
20
19.024574
30
0
11
9.336603
21
6.16973
31
0
39
0
210
0
220
0
230
1
0
LINE
5
AF
100
AcDbEntity
8
1
62
256
6
ByLayer
370
13
48
1
60
0
100
AcDbLine
10
6.663397
20
-6.16973
30
0
11
6.663397
21
-19.024574
31
0
39
0
210
0
220
0
230
1
0
LINE
5
B0
100
AcDbEntity
8
1
62
256
6
ByLayer
370
13
48
1
60
0
100
AcDbLine
10
6.923205
20
-5.85989
30
0
11
6.923205
21
-19.122283
31
0
39
0
210
0
220
0
230
1
0
LINE
5
B1
100
AcDbEntity
8
1
62
256
6
ByLayer
370
18
48
1
60
0
100
AcDbLine
10
118
20
19.8
30
0
11
118
21
-19.8
31
0
39
0
210
0
220
0
230
1
0
LINE
5
B2
100
AcDbEntity
8
1
62
256
6
ByLayer
370
18
48
1
60
0
100
AcDbLine
10
0
20
-19.7
30
0
11
0
21
19.7
31
0
39
0
210
0
220
0
230
1
0
LINE
5
B3
100
AcDbEntity
8
1
62
256
6
ByLayer
370
13
48
1
60
0
100
AcDbLine
10
117.8
20
20
30
0
11
117.8
21
-20
31
0
39
0
210
0
220
0
230
1
0
LINE
5
B4
100
AcDbEntity
8
1
62
256
6
ByLayer
370
18
48
1
60
0
100
AcDbLine
10
0.3
20
-20
30
0
11
0.3
21
20
31
0
39
0
210
0
220
0
230
1
0
LINE
5
B5
100
AcDbEntity
8
1
62
256
6
ByLayer
370
18
48
1
60
0
100
AcDbLine
10
9.076795
20
5.85989
30
0
11
6.923205
21
5.85989
31
0
39
0
210
0
220
0
230
1
0
LINE
5
B6
100
AcDbEntity
8
1
62
256
6
ByLayer
370
18
48
1
60
0
100
AcDbLine
10
6.923205
20
19.122283
30
0
11
9.076795
21
19.122283
31
0
39
0
210
0
220
0
230
1
0
LINE
5
B7
100
AcDbEntity
8
1
62
256
6
ByLayer
370
18
48
1
60
0
100
AcDbLine
10
6.923205
20
-5.85989
30
0
11
9.076795
21
-5.85989
31
0
39
0
210
0
220
0
230
1
0
LINE
5
B8
100
AcDbEntity
8
1
62
256
6
ByLayer
370
18
48
1
60
0
100
AcDbLine
10
9.076795
20
-19.122283
30
0
11
6.923205
21
-19.122283
31
0
39
0
210
0
220
0
230
1
0
LINE
5
B9
100
AcDbEntity
8
SK1
62
256
6
ByLayer
370
18
48
1
60
0
100
AcDbLine
10
-0.2
20
-5.678452
30
0
11
-0.2
21
-14.083485
31
0
39
0
210
0
220
0
230
1
0
LINE
5
BB
100
AcDbEntity
8
SK1
62
256
6
ByLayer
370
18
48
1
60
0
100
AcDbLine
10
-0.2
20
14.083485
30
0
11
-0.2
21
5.678452
31
0
39
0
210
0
220
0
230
1
0
LINE
5
BC
100
AcDbEntity
8
SK1
62
256
6
ByLayer
370
13
48
1
60
0
100
AcDbLine
10
-1.307107
20
3.628534
30
0
11
-1.307107
21
-3.628532
31
0
39
0
210
0
220
0
230
1
0
LINE
5
BD
100
AcDbEntity
8
1
62
256
6
ByLayer
370
13
48
1
60
0
100
AcDbLine
10
124.8
20
12.899495
30
0
11
124.8
21
6.899495
31
0
39
0
210
0
220
0
230
1
0
LINE
5
BE
100
AcDbEntity
8
1
62
256
6
ByLayer
370
18
48
1
60
0
100
AcDbLine
10
125
20
14.899495
30
0
11
125
21
4.899495
31
0
39
0
210
0
220
0
230
1
0
LINE
5
BF
100
AcDbEntity
8
1
62
256
6
ByLayer
370
13
48
1
60
0
100
AcDbLine
10
130.4
20
14.899495
30
0
11
130.4
21
4.899495
31
0
39
0
210
0
220
0
230
1
0
LINE
5
C0
100
AcDbEntity
8
1
62
256
6
ByLayer
370
18
48
1
60
0
100
AcDbLine
10
131
20
14.299495
30
0
11
131
21
5.499495
31
0
39
0
210
0
220
0
230
1
0
LINE
5
C1
100
AcDbEntity
8
1
62
256
6
ByLayer
370
18
48
1
60
0
100
AcDbLine
10
120.32476
20
-18.976857
30
0
11
120.32476
21
-18.887542
31
0
39
0
210
0
220
0
230
1
0
LINE
5
C2
100
AcDbEntity
8
1
62
256
6
ByLayer
370
18
48
1
60
0
100
AcDbLine
10
120.32476
20
18.887542
30
0
11
120.32476
21
18.976857
31
0
39
0
210
0
220
0
230
1
0
LINE
5
C3
100
AcDbEntity
8
1
62
256
6
ByLayer
370
13
48
1
60
0
100
AcDbLine
10
119.650481
20
-19.629489
30
0
11
119.650481
21
-19.602807
31
0
39
0
210
0
220
0
230
1
0
LINE
5
C4
100
AcDbEntity
8
1
62
256
6
ByLayer
370
13
48
1
60
0
100
AcDbLine
10
119.650481
20
19.602807
30
0
11
119.650481
21
19.629489
31
0
39
0
210
0
220
0
230
1
0
LINE
5
C5
100
AcDbEntity
8
1
62
256
6
ByLayer
370
18
48
1
60
0
100
AcDbLine
10
120.32476
20
-18.842999
30
0
11
120.32476
21
-18.662842
31
0
39
0
210
0
220
0
230
1
0
LINE
5
C6
100
AcDbEntity
8
1
62
256
6
ByLayer
370
18
48
1
60
0
100
AcDbLine
10
120.32476
20
18.662842
30
0
11
120.32476
21
18.842999
31
0
39
0
210
0
220
0
230
1
0
LINE
5
C7
100
AcDbEntity
8
1
62
256
6
ByLayer
370
13
48
1
60
0
100
AcDbLine
10
119.650481
20
19.416627
30
0
11
119.650481
21
19.470143
31
0
39
0
210
0
220
0
230
1
0
LINE
5
C8
100
AcDbEntity
8
1
62
256
6
ByLayer
370
13
48
1
60
0
100
AcDbLine
10
119.650481
20
-19.470143
30
0
11
119.650481
21
-19.416627
31
0
39
0
210
0
220
0
230
1
0
LINE
5
C9
100
AcDbEntity
8
1
62
256
6
ByLayer
370
18
48
1
60
0
100
AcDbLine
10
120.32476
20
18.31313
30
0
11
120.32476
21
18.587525
31
0
39
0
210
0
220
0
230
1
0
LINE
5
CA
100
AcDbEntity
8
1
62
256
6
ByLayer
370
18
48
1
60
0
100
AcDbLine
10
120.32476
20
-18.587525
30
0
11
120.32476
21
-18.31313
31
0
39
0
210
0
220
0
230
1
0
LINE
5
CB
100
AcDbEntity
8
1
62
256
6
ByLayer
370
13
48
1
60
0
100
AcDbLine
10
119.650481
20
-19.192605
30
0
11
119.650481
21
-19.111162
31
0
39
0
210
0
220
0
230
1
0
LINE
5
CC
100
AcDbEntity
8
1
62
256
6
ByLayer
370
13
48
1
60
0
100
AcDbLine
10
119.650481
20
19.111162
30
0
11
119.650481
21
19.192605
31
0
39
0
210
0
220
0
230
1
0
LINE
5
CD
100
AcDbEntity
8
1
62
256
6
ByLayer
370
18
48
1
60
0
100
AcDbLine
10
120.32476
20
-18.205318
30
0
11
120.32476
21
-17.830489
31
0
39
0
210
0
220
0
230
1
0
LINE
5
CE
100
AcDbEntity
8
1
62
256
6
ByLayer
370
18
48
1
60
0
100
AcDbLine
10
120.32476
20
17.830489
30
0
11
120.32476
21
18.205318
31
0
39
0
210
0
220
0
230
1
0
LINE
5
CF
100
AcDbEntity
8
1
62
256
6
ByLayer
370
13
48
1
60
0
100
AcDbLine
10
119.650481
20
-18.791639
30
0
11
119.650481
21
-18.680651
31
0
39
0
210
0
220
0
230
1
0
LINE
5
D0
100
AcDbEntity
8
1
62
256
6
ByLayer
370
13
48
1
60
0
100
AcDbLine
10
119.650481
20
18.680651
30
0
11
119.650481
21
18.791639
31
0
39
0
210
0
220
0
230
1
0
LINE
5
D1
100
AcDbEntity
8
1
62
256
6
ByLayer
370
18
48
1
60
0
100
AcDbLine
10
120.32476
20
17.204449
30
0
11
120.32476
21
17.688163
31
0
39
0
210
0
220
0
230
1
0
LINE
5
D2
100
AcDbEntity
8
1
62
256
6
ByLayer
370
18
48
1
60
0
100
AcDbLine
10
120.32476
20
-17.688163
30
0
11
120.32476
21
-17.204449
31
0
39
0
210
0
220
0
230
1
0
LINE
5
D3
100
AcDbEntity
8
1
62
256
6
ByLayer
370
13
48
1
60
0
100
AcDbLine
10
119.650481
20
-18.259116
30
0
11
119.650481
21
-18.116188
31
0
39
0
210
0
220
0
230
1
0
LINE
5
D4
100
AcDbEntity
8
1
62
256
6
ByLayer
370
13
48
1
60
0
100
AcDbLine
10
119.650481
20
18.116188
30
0
11
119.650481
21
18.259116
31
0
39
0
210
0
220
0
230
1
0
LINE
5
D5
100
AcDbEntity
8
1
62
256
6
ByLayer
370
18
48
1
60
0
100
AcDbLine
10
120.32476
20
-17.023766
30
0
11
120.32476
21
-16.418191
31
0
39
0
210
0
220
0
230
1
0
LINE
5
D6
100
AcDbEntity
8
1
62
256
6
ByLayer
370
18
48
1
60
0
100
AcDbLine
10
120.32476
20
16.418191
30
0
11
120.32476
21
17.023766
31
0
39
0
210
0
220
0
230
1
0
LINE
5
D7
100
AcDbEntity
8
1
62
256
6
ByLayer
370
13
48
1
60
0
100
AcDbLine
10
119.650481
20
-17.583086
30
0
11
119.650481
21
-17.404844
31
0
39
0
210
0
220
0
230
1
0
LINE
5
D8
100
AcDbEntity
8
1
62
256
6
ByLayer
370
13
48
1
60
0
100
AcDbLine
10
119.650481
20
17.404844
30
0
11
119.650481
21
17.583086
31
0
39
0
210
0
220
0
230
1
0
LINE
5
D9
100
AcDbEntity
8
1
62
256
6
ByLayer
370
18
48
1
60
0
100
AcDbLine
10
120.32476
20
15.447336
30
0
11
120.32476
21
16.194014
31
0
39
0
210
0
220
0
230
1
0
LINE
5
DA
100
AcDbEntity
8
1
62
256
6
ByLayer
370
18
48
1
60
0
100
AcDbLine
10
120.32476
20
-16.194014
30
0
11
120.32476
21
-15.447336
31
0
39
0
210
0
220
0
230
1
0
LINE
5
DB
100
AcDbEntity
8
1
62
256
6
ByLayer
370
13
48
1
60
0
100
AcDbLine
10
119.650481
20
-16.74618
30
0
11
119.650481
21
-16.527523
31
0
39
0
210
0
220
0
230
1
0
LINE
5
DC
100
AcDbEntity
8
1
62
256
6
ByLayer
370
13
48
1
60
0
100
AcDbLine
10
119.650481
20
16.527523
30
0
11
119.650481
21
16.74618
31
0
39
0
210
0
220
0
230
1
0
LINE
5
DD
100
AcDbEntity
8
1
62
256
6
ByLayer
370
18
48
1
60
0
100
AcDbLine
10
120.32476
20
-15.171803
30
0
11
120.32476
21
-14.254246
31
0
39
0
210
0
220
0
230
1
0
LINE
5
DE
100
AcDbEntity
8
1
62
256
6
ByLayer
370
18
48
1
60
0
100
AcDbLine
10
120.32476
20
14.254246
30
0
11
120.32476
21
15.171803
31
0
39
0
210
0
220
0
230
1
0
LINE
5
DF
100
AcDbEntity
8
1
62
256
6
ByLayer
370
13
48
1
60
0
100
AcDbLine
10
119.650481
20
-15.722727
30
0
11
119.650481
21
-15.456027
31
0
39
0
210
0
220
0
230
1
0
LINE
5
E0
100
AcDbEntity
8
1
62
256
6
ByLayer
370
13
48
1
60
0
100
AcDbLine
10
119.650481
20
15.456027
30
0
11
119.650481
21
15.722727
31
0
39
0
210
0
220
0
230
1
0
LINE
5
E1
100
AcDbEntity
8
1
62
256
6
ByLayer
370
18
48
1
60
0
100
AcDbLine
10
120.32476
20
12.776776
30
0
11
120.32476
21
13.91478
31
0
39
0
210
0
220
0
230
1
0
LINE
5
E2
100
AcDbEntity
8
1
62
256
6
ByLayer
370
18
48
1
60
0
100
AcDbLine
10
120.32476
20
-13.91478
30
0
11
120.32476
21
-12.776776
31
0
39
0
210
0
220
0
230
1
0
LINE
5
E3
100
AcDbEntity
8
1
62
256
6
ByLayer
370
13
48
1
60
0
100
AcDbLine
10
119.650481
20
-14.473209
30
0
11
119.650481
21
-14.146205
31
0
39
0
210
0
220
0
230
1
0
LINE
5
E4
100
AcDbEntity
8
1
62
256
6
ByLayer
370
13
48
1
60
0
100
AcDbLine
10
119.650481
20
14.146205
30
0
11
119.650481
21
14.473209
31
0
39
0
210
0
220
0
230
1
0
LINE
5
E5
100
AcDbEntity
8
1
62
256
6
ByLayer
370
18
48
1
60
0
100
AcDbLine
10
120.32476
20
-12.351461
30
0
11
120.32476
21
-10.899779
31
0
39
0
210
0
220
0
230
1
0
LINE
5
E6
100
AcDbEntity
8
1
62
256
6
ByLayer
370
18
48
1
60
0
100
AcDbLine
10
120.32476
20
10.899779
30
0
11
120.32476
21
12.351461
31
0
39
0
210
0
220
0
230
1
0
LINE
5
E7
100
AcDbEntity
8
1
62
256
6
ByLayer
370
13
48
1
60
0
100
AcDbLine
10
119.650481
20
-12.932262
30
0
11
119.650481
21
-12.523683
31
0
39
0
210
0
220
0
230
1
0
LINE
5
E8
100
AcDbEntity
8
1
62
256
6
ByLayer
370
13
48
1
60
0
100
AcDbLine
10
119.650481
20
12.523683
30
0
11
119.650481
21
12.932262
31
0
39
0
210
0
220
0
230
1
0
LINE
5
E9
100
AcDbEntity
8
1
62
256
6
ByLayer
370
18
48
1
60
0
100
AcDbLine
10
120.32476
20
-10.343892
30
0
11
120.32476
21
-8.358834
31
0
39
0
210
0
220
0
230
1
0
LINE
5
EA
100
AcDbEntity
8
1
62
256
6
ByLayer
370
18
48
1
60
0
100
AcDbLine
10
120.32476
20
8.358834
30
0
11
120.32476
21
10.343892
31
0
39
0
210
0
220
0
230
1
0
LINE
5
EB
100
AcDbEntity
8
1
62
256
6
ByLayer
370
13
48
1
60
0
100
AcDbLine
10
119.650481
20
-10.977842
30
0
11
119.650481
21
-10.444044
31
0
39
0
210
0
220
0
230
1
0
LINE
5
EC
100
AcDbEntity
8
1
62
256
6
ByLayer
370
13
48
1
60
0
100
AcDbLine
10
119.650481
20
10.444044
30
0
11
119.650481
21
10.977842
31
0
39
0
210
0
220
0
230
1
0
LINE
5
ED
100
AcDbEntity
8
1
62
256
6
ByLayer
370
18
48
1
60
0
100
AcDbLine
10
120.32476
20
-7.545435
30
0
11
120.32476
21
-4.053785
31
0
39
0
210
0
220
0
230
1
0
LINE
5
EE
100
AcDbEntity
8
1
62
256
6
ByLayer
370
18
48
1
60
0
100
AcDbLine
10
120.32476
20
4.053785
30
0
11
120.32476
21
7.545435
31
0
39
0
210
0
220
0
230
1
0
LINE
5
EF
100
AcDbEntity
8
1
62
256
6
ByLayer
370
13
48
1
60
0
100
AcDbLine
10
119.650481
20
-8.323618
30
0
11
119.650481
21
-7.537296
31
0
39
0
210
0
220
0
230
1
0
LINE
5
F0
100
AcDbEntity
8
1
62
256
6
ByLayer
370
13
48
1
60
0
100
AcDbLine
10
119.650481
20
7.537296
30
0
11
119.650481
21
8.323618
31
0
39
0
210
0
220
0
230
1
0
LINE
5
F1
100
AcDbEntity
8
1
62
256
6
ByLayer
370
18
48
1
60
0
100
AcDbLine
10
120.32476
20
-1.539836
30
0
11
120.32476
21
1.539836
31
0
39
0
210
0
220
0
230
1
0
LINE
5
F2
100
AcDbEntity
8
1
62
256
6
ByLayer
370
13
48
1
60
0
100
AcDbLine
10
119.650481
20
-3.681336
30
0
11
119.650481
21
-0.209491
31
0
39
0
210
0
220
0
230
1
0
LINE
5
F3
100
AcDbEntity
8
1
62
256
6
ByLayer
370
13
48
1
60
0
100
AcDbLine
10
119.650481
20
0.209491
30
0
11
119.650481
21
3.681336
31
0
39
0
210
0
220
0
230
1
0
LINE
5
F4
100
AcDbEntity
8
1
62
256
6
ByLayer
370
18
48
1
60
0
100
AcDbLine
10
118
20
19.8
30
0
11
118
21
-19.8
31
0
39
0
210
0
220
0
230
1
0
LINE
5
F5
100
AcDbEntity
8
1
62
256
6
ByLayer
370
13
48
1
60
0
100
AcDbLine
10
118.2
20
20
30
0
11
118.2
21
-20
31
0
39
0
210
0
220
0
230
1
0
LINE
5
F6
100
AcDbEntity
8
1
62
256
6
ByLayer
370
18
48
1
60
0
100
AcDbLine
10
119.32476
20
-20
30
0
11
119.32476
21
20
31
0
39
0
210
0
220
0
230
1
0
LINE
5
F7
100
AcDbEntity
8
1
62
256
6
ByLayer
370
18
48
1
60
0
100
AcDbLine
10
120.32476
20
-18.976857
30
0
11
120.32476
21
-18.991672
31
0
39
0
210
0
220
0
230
1
0
LINE
5
F8
100
AcDbEntity
8
1
62
256
6
ByLayer
370
18
48
1
60
0
100
AcDbLine
10
120.32476
20
-18.842999
30
0
11
120.32476
21
-18.887723
31
0
39
0
210
0
220
0
230
1
0
LINE
5
F9
100
AcDbEntity
8
1
62
256
6
ByLayer
370
18
48
1
60
0
100
AcDbLine
10
120.32476
20
-18.587525
30
0
11
120.32476
21
-18.663027
31
0
39
0
210
0
220
0
230
1
0
LINE
5
FA
100
AcDbEntity
8
1
62
256
6
ByLayer
370
18
48
1
60
0
100
AcDbLine
10
120.32476
20
-18.205318
30
0
11
120.32476
21
-18.31314
31
0
39
0
210
0
220
0
230
1
0
LINE
5
FB
100
AcDbEntity
8
1
62
256
6
ByLayer
370
18
48
1
60
0
100
AcDbLine
10
120.32476
20
-17.688163
30
0
11
120.32476
21
-17.830692
31
0
39
0
210
0
220
0
230
1
0
LINE
5
FC
100
AcDbEntity
8
1
62
256
6
ByLayer
370
18
48
1
60
0
100
AcDbLine
10
120.32476
20
-17.023766
30
0
11
120.32476
21
-17.204537
31
0
39
0
210
0
220
0
230
1
0
LINE
5
FD
100
AcDbEntity
8
1
62
256
6
ByLayer
370
18
48
1
60
0
100
AcDbLine
10
120.32476
20
-16.194014
30
0
11
120.32476
21
-16.41824
31
0
39
0
210
0
220
0
230
1
0
LINE
5
FE
100
AcDbEntity
8
1
62
256
6
ByLayer
370
18
48
1
60
0
100
AcDbLine
10
120.32476
20
-15.171803
30
0
11
120.32476
21
-15.447365
31
0
39
0
210
0
220
0
230
1
0
LINE
5
FF
100
AcDbEntity
8
1
62
256
6
ByLayer
370
18
48
1
60
0
100
AcDbLine
10
120.32476
20
-13.91478
30
0
11
120.32476
21
-14.254248
31
0
39
0
210
0
220
0
230
1
0
LINE
5
100
100
AcDbEntity
8
1
62
256
6
ByLayer
370
18
48
1
60
0
100
AcDbLine
10
120.32476
20
-12.351461
30
0
11
120.32476
21
-12.776779
31
0
39
0
210
0
220
0
230
1
0
LINE
5
101
100
AcDbEntity
8
1
62
256
6
ByLayer
370
18
48
1
60
0
100
AcDbLine
10
120.32476
20
-10.343892
30
0
11
120.32476
21
-10.899935
31
0
39
0
210
0
220
0
230
1
0
LINE
5
102
100
AcDbEntity
8
1
62
256
6
ByLayer
370
18
48
1
60
0
100
AcDbLine
10
120.32476
20
-7.545435
30
0
11
120.32476
21
-8.358893
31
0
39
0
210
0
220
0
230
1
0
LINE
5
103
100
AcDbEntity
8
1
62
256
6
ByLayer
370
18
48
1
60
0
100
AcDbLine
10
120.32476
20
-1.539836
30
0
11
120.32476
21
-4.053837
31
0
39
0
210
0
220
0
230
1
0
LINE
5
104
100
AcDbEntity
8
1
62
256
6
ByLayer
370
18
48
1
60
0
100
AcDbLine
10
120.32476
20
4.053837
30
0
11
120.32476
21
1.539836
31
0
39
0
210
0
220
0
230
1
0
LINE
5
105
100
AcDbEntity
8
1
62
256
6
ByLayer
370
18
48
1
60
0
100
AcDbLine
10
120.32476
20
8.358893
30
0
11
120.32476
21
7.545435
31
0
39
0
210
0
220
0
230
1
0
LINE
5
106
100
AcDbEntity
8
1
62
256
6
ByLayer
370
18
48
1
60
0
100
AcDbLine
10
120.32476
20
10.899935
30
0
11
120.32476
21
10.343892
31
0
39
0
210
0
220
0
230
1
0
LINE
5
107
100
AcDbEntity
8
1
62
256
6
ByLayer
370
18
48
1
60
0
100
AcDbLine
10
120.32476
20
12.776779
30
0
11
120.32476
21
12.351461
31
0
39
0
210
0
220
0
230
1
0
LINE
5
108
100
AcDbEntity
8
1
62
256
6
ByLayer
370
18
48
1
60
0
100
AcDbLine
10
120.32476
20
14.254248
30
0
11
120.32476
21
13.91478
31
0
39
0
210
0
220
0
230
1
0
LINE
5
109
100
AcDbEntity
8
1
62
256
6
ByLayer
370
18
48
1
60
0
100
AcDbLine
10
120.32476
20
15.447365
30
0
11
120.32476
21
15.171803
31
0
39
0
210
0
220
0
230
1
0
LINE
5
10A
100
AcDbEntity
8
1
62
256
6
ByLayer
370
18
48
1
60
0
100
AcDbLine
10
120.32476
20
16.41824
30
0
11
120.32476
21
16.194014
31
0
39
0
210
0
220
0
230
1
0
LINE
5
10B
100
AcDbEntity
8
1
62
256
6
ByLayer
370
18
48
1
60
0
100
AcDbLine
10
120.32476
20
17.204537
30
0
11
120.32476
21
17.023766
31
0
39
0
210
0
220
0
230
1
0
LINE
5
10C
100
AcDbEntity
8
1
62
256
6
ByLayer
370
18
48
1
60
0
100
AcDbLine
10
120.32476
20
17.830692
30
0
11
120.32476
21
17.688163
31
0
39
0
210
0
220
0
230
1
0
LINE
5
10D
100
AcDbEntity
8
1
62
256
6
ByLayer
370
18
48
1
60
0
100
AcDbLine
10
120.32476
20
18.31314
30
0
11
120.32476
21
18.205318
31
0
39
0
210
0
220
0
230
1
0
LINE
5
10E
100
AcDbEntity
8
1
62
256
6
ByLayer
370
18
48
1
60
0
100
AcDbLine
10
120.32476
20
18.663027
30
0
11
120.32476
21
18.587525
31
0
39
0
210
0
220
0
230
1
0
LINE
5
10F
100
AcDbEntity
8
1
62
256
6
ByLayer
370
18
48
1
60
0
100
AcDbLine
10
120.32476
20
18.887723
30
0
11
120.32476
21
18.842999
31
0
39
0
210
0
220
0
230
1
0
LINE
5
110
100
AcDbEntity
8
1
62
256
6
ByLayer
370
18
48
1
60
0
100
AcDbLine
10
120.32476
20
18.991672
30
0
11
120.32476
21
18.976857
31
0
39
0
210
0
220
0
230
1
0
LINE
5
111
100
AcDbEntity
8
1
62
256
6
ByLayer
370
13
48
1
60
0
100
AcDbLine
10
124.8
20
-6.899495
30
0
11
124.8
21
-9.899495
31
0
39
0
210
0
220
0
230
1
0
LINE
5
112
100
AcDbEntity
8
1
62
256
6
ByLayer
370
13
48
1
60
0
100
AcDbLine
10
124.8
20
-9.899495
30
0
11
124.8
21
-12.899495
31
0
39
0
210
0
220
0
230
1
0
LINE
5
113
100
AcDbEntity
8
1
62
256
6
ByLayer
370
18
48
1
60
0
100
AcDbLine
10
125
20
-14.899495
30
0
11
125
21
-9.899495
31
0
39
0
210
0
220
0
230
1
0
LINE
5
114
100
AcDbEntity
8
1
62
256
6
ByLayer
370
18
48
1
60
0
100
AcDbLine
10
125
20
-9.899495
30
0
11
125
21
-4.899495
31
0
39
0
210
0
220
0
230
1
0
LINE
5
115
100
AcDbEntity
8
1
62
256
6
ByLayer
370
13
48
1
60
0
100
AcDbLine
10
130.4
20
-4.899495
30
0
11
130.4
21
-9.899495
31
0
39
0
210
0
220
0
230
1
0
LINE
5
116
100
AcDbEntity
8
1
62
256
6
ByLayer
370
13
48
1
60
0
100
AcDbLine
10
130.4
20
-9.899495
30
0
11
130.4
21
-14.899495
31
0
39
0
210
0
220
0
230
1
0
LINE
5
117
100
AcDbEntity
8
1
62
256
6
ByLayer
370
18
48
1
60
0
100
AcDbLine
10
131
20
-14.299495
30
0
11
131
21
-9.899495
31
0
39
0
210
0
220
0
230
1
0
LINE
5
118
100
AcDbEntity
8
1
62
256
6
ByLayer
370
18
48
1
60
0
100
AcDbLine
10
131
20
-9.899495
30
0
11
131
21
-5.499495
31
0
39
0
210
0
220
0
230
1
0
LINE
5
119
100
AcDbEntity
8
1
62
256
6
ByLayer
370
18
48
1
60
0
100
AcDbLine
10
0
20
-19.7
30
0
11
0.3
21
-20
31
0
39
0
210
0
220
0
230
1
0
LINE
5
11A
100
AcDbEntity
8
1
62
256
6
ByLayer
370
18
48
1
60
0
100
AcDbLine
10
0.3
20
20
30
0
11
0
21
19.7
31
0
39
0
210
0
220
0
230
1
0
LINE
5
11B
100
AcDbEntity
8
1
62
256
6
ByLayer
370
18
48
1
60
0
100
AcDbLine
10
117.8
20
20
30
0
11
0.3
21
20
31
0
39
0
210
0
220
0
230
1
0
LINE
5
11C
100
AcDbEntity
8
1
62
256
6
ByLayer
370
18
48
1
60
0
100
AcDbLine
10
0.3
20
-20
30
0
11
117.8
21
-20
31
0
39
0
210
0
220
0
230
1
0
LINE
5
11D
100
AcDbEntity
8
1
62
256
6
ByLayer
370
18
48
1
60
0
100
AcDbLine
10
120.324609
20
6.899495
30
0
11
124.8
21
6.899495
31
0
39
0
210
0
220
0
230
1
0
LINE
5
11E
100
AcDbEntity
8
1
62
256
6
ByLayer
370
18
48
1
60
0
100
AcDbLine
10
124.8
20
12.899495
30
0
11
120.324609
21
12.899495
31
0
39
0
210
0
220
0
230
1
0
LINE
5
11F
100
AcDbEntity
8
1
62
256
6
ByLayer
370
18
48
1
60
0
100
AcDbLine
10
125
20
4.899495
30
0
11
130.4
21
4.899495
31
0
39
0
210
0
220
0
230
1
0
LINE
5
120
100
AcDbEntity
8
1
62
256
6
ByLayer
370
18
48
1
60
0
100
AcDbLine
10
130.4
20
14.899495
30
0
11
125
21
14.899495
31
0
39
0
210
0
220
0
230
1
0
LINE
5
121
100
AcDbEntity
8
1
62
256
6
ByLayer
370
18
48
1
60
0
100
AcDbLine
10
119.32476
20
20
30
0
11
118.2
21
20
31
0
39
0
210
0
220
0
230
1
0
LINE
5
122
100
AcDbEntity
8
1
62
256
6
ByLayer
370
18
48
1
60
0
100
AcDbLine
10
118.2
20
-20
30
0
11
119.32476
21
-20
31
0
39
0
210
0
220
0
230
1
0
LINE
5
123
100
AcDbEntity
8
1
62
256
6
ByLayer
370
18
48
1
60
0
100
AcDbLine
10
119.552123
20
19.772637
30
0
11
119.32476
21
20
31
0
39
0
210
0
220
0
230
1
0
LINE
5
124
100
AcDbEntity
8
1
62
256
6
ByLayer
370
18
48
1
60
0
100
AcDbLine
10
119.32476
20
-20
30
0
11
119.552123
21
-19.772637
31
0
39
0
210
0
220
0
230
1
0
LINE
5
125
100
AcDbEntity
8
1
62
256
6
ByLayer
370
18
48
1
60
0
100
AcDbLine
10
120.324609
20
-12.899495
30
0
11
124.8
21
-12.899495
31
0
39
0
210
0
220
0
230
1
0
LINE
5
126
100
AcDbEntity
8
1
62
256
6
ByLayer
370
18
48
1
60
0
100
AcDbLine
10
124.8
20
-6.899495
30
0
11
120.324609
21
-6.899495
31
0
39
0
210
0
220
0
230
1
0
LINE
5
127
100
AcDbEntity
8
1
62
256
6
ByLayer
370
18
48
1
60
0
100
AcDbLine
10
125
20
-14.899495
30
0
11
130.4
21
-14.899495
31
0
39
0
210
0
220
0
230
1
0
LINE
5
128
100
AcDbEntity
8
1
62
256
6
ByLayer
370
18
48
1
60
0
100
AcDbLine
10
130.4
20
-4.899495
30
0
11
125
21
-4.899495
31
0
39
0
210
0
220
0
230
1
0
LINE
5
129
100
AcDbEntity
8
1
62
256
6
ByLayer
370
13
48
0.05
60
0
100
AcDbLine
10
124.3
20
0
30
0
11
-6.5
21
0
31
0
39
0
210
0
220
0
230
1
0
LINE
5
12A
100
AcDbEntity
8
SK2
62
256
6
ByLayer
370
18
48
1
60
0
100
AcDbLine
10
-30.6
20
-20
30
0
11
-30.6
21
20
31
0
39
0
210
0
220
0
230
1
0
LINE
5
12C
100
AcDbEntity
8
SK2
62
256
6
ByLayer
370
18
48
1
60
0
100
AcDbLine
10
-1.2875
20
20
30
0
11
-32.6
21
20
31
0
39
0
210
0
220
0
230
1
0
LINE
5
12D
100
AcDbEntity
8
SK2
62
256
6
ByLayer
370
18
48
1
60
0
100
AcDbLine
10
-1.2875
20
-20
30
0
11
-32.6
21
-20
31
0
39
0
210
0
220
0
230
1
0
LINE
5
12E
100
AcDbEntity
8
1
62
256
6
ByLayer
370
18
48
1
60
1
100
AcDbLine
10
-30.6
20
20
30
0
11
-30.139216
21
16.500002
31
0
39
0
210
0
220
0
230
1
0
LINE
5
12F
100
AcDbEntity
8
1
62
256
6
ByLayer
370
18
48
1
60
1
100
AcDbLine
10
-30.139216
20
16.500002
30
0
11
-31.060784
21
16.499998
31
0
39
0
210
0
220
0
230
1
0
LINE
5
130
100
AcDbEntity
8
1
62
256
6
ByLayer
370
18
48
1
60
1
100
AcDbLine
10
-31.060784
20
16.499998
30
0
11
-30.6
21
20
31
0
39
0
210
0
220
0
230
1
0
LINE
5
131
100
AcDbEntity
8
1
62
256
6
ByLayer
370
18
48
1
60
1
100
AcDbLine
10
-30.6
20
-20
30
0
11
-31.060784
21
-16.500002
31
0
39
0
210
0
220
0
230
1
0
LINE
5
132
100
AcDbEntity
8
1
62
256
6
ByLayer
370
18
48
1
60
1
100
AcDbLine
10
-31.060784
20
-16.500002
30
0
11
-30.139216
21
-16.499998
31
0
39
0
210
0
220
0
230
1
0
LINE
5
133
100
AcDbEntity
8
1
62
256
6
ByLayer
370
18
48
1
60
1
100
AcDbLine
10
-30.139216
20
-16.499998
30
0
11
-30.6
21
-20
31
0
39
0
210
0
220
0
230
1
0
LINE
5
134
100
AcDbEntity
8
SK2
62
256
6
ByLayer
370
18
48
1
60
0
100
AcDbLine
10
142.748181
20
-20
30
0
11
142.748181
21
20
31
0
39
0
210
0
220
0
230
1
0
LINE
5
135
100
AcDbEntity
8
SK2
62
256
6
ByLayer
370
18
48
1
60
0
100
AcDbLine
10
119.3875
20
20
30
0
11
144.748181
21
20
31
0
39
0
210
0
220
0
230
1
0
LINE
5
136
100
AcDbEntity
8
SK2
62
256
6
ByLayer
370
18
48
1
60
0
100
AcDbLine
10
119.3875
20
-20
30
0
11
144.748181
21
-20
31
0
39
0
210
0
220
0
230
1
0
LINE
5
137
100
AcDbEntity
8
1
62
256
6
ByLayer
370
18
48
1
60
1
100
AcDbLine
10
142.748181
20
20
30
0
11
143.208964
21
16.500002
31
0
39
0
210
0
220
0
230
1
0
LINE
5
138
100
AcDbEntity
8
1
62
256
6
ByLayer
370
18
48
1
60
1
100
AcDbLine
10
143.208964
20
16.500002
30
0
11
142.287397
21
16.499998
31
0
39
0
210
0
220
0
230
1
0
LINE
5
139
100
AcDbEntity
8
1
62
256
6
ByLayer
370
18
48
1
60
1
100
AcDbLine
10
142.287397
20
16.499998
30
0
11
142.748181
21
20
31
0
39
0
210
0
220
0
230
1
0
LINE
5
13A
100
AcDbEntity
8
1
62
256
6
ByLayer
370
18
48
1
60
1
100
AcDbLine
10
142.748181
20
-20
30
0
11
142.287397
21
-16.500002
31
0
39
0
210
0
220
0
230
1
0
LINE
5
13B
100
AcDbEntity
8
1
62
256
6
ByLayer
370
18
48
1
60
1
100
AcDbLine
10
142.287397
20
-16.500002
30
0
11
143.208964
21
-16.499998
31
0
39
0
210
0
220
0
230
1
0
LINE
5
13C
100
AcDbEntity
8
1
62
256
6
ByLayer
370
18
48
1
60
1
100
AcDbLine
10
143.208964
20
-16.499998
30
0
11
142.748181
21
-20
31
0
39
0
210
0
220
0
230
1
0
LINE
5
13D
100
AcDbEntity
8
SK2
62
256
6
ByLayer
370
18
48
1
60
0
100
AcDbLine
10
0
20
25.6
30
0
11
120
21
25.6
31
0
39
0
210
0
220
0
230
1
0
LINE
5
13E
100
AcDbEntity
8
SK2
62
256
6
ByLayer
370
18
48
1
60
0
100
AcDbLine
10
120
20
21.5875
30
0
11
120
21
27.6
31
0
39
0
210
0
220
0
230
1
0
LINE
5
13F
100
AcDbEntity
8
SK2
62
256
6
ByLayer
370
18
48
1
60
0
100
AcDbLine
10
0
20
21.2875
30
0
11
0
21
27.6
31
0
39
0
210
0
220
0
230
1
0
LINE
5
140
100
AcDbEntity
8
1
62
256
6
ByLayer
370
18
48
1
60
1
100
AcDbLine
10
120
20
25.6
30
0
11
116.500002
21
25.139216
31
0
39
0
210
0
220
0
230
1
0
LINE
5
141
100
AcDbEntity
8
1
62
256
6
ByLayer
370
18
48
1
60
1
100
AcDbLine
10
116.500002
20
25.139216
30
0
11
116.499998
21
26.060784
31
0
39
0
210
0
220
0
230
1
0
LINE
5
142
100
AcDbEntity
8
1
62
256
6
ByLayer
370
18
48
1
60
1
100
AcDbLine
10
116.499998
20
26.060784
30
0
11
120
21
25.6
31
0
39
0
210
0
220
0
230
1
0
LINE
5
143
100
AcDbEntity
8
1
62
256
6
ByLayer
370
18
48
1
60
1
100
AcDbLine
10
0
20
25.6
30
0
11
3.499998
21
26.060784
31
0
39
0
210
0
220
0
230
1
0
LINE
5
144
100
AcDbEntity
8
1
62
256
6
ByLayer
370
18
48
1
60
1
100
AcDbLine
10
3.499998
20
26.060784
30
0
11
3.500002
21
25.139216
31
0
39
0
210
0
220
0
230
1
0
LINE
5
145
100
AcDbEntity
8
1
62
256
6
ByLayer
370
18
48
1
60
1
100
AcDbLine
10
3.500002
20
25.139216
30
0
11
0
21
25.6
31
0
39
0
210
0
220
0
230
1
0
LINE
5
1D0
100
AcDbEntity
8
1
62
256
6
ByLayer
370
13
48
0.05
60
0
100
AcDbLine
10
107.05
20
-9.899495
30
0
11
136.9
21
-9.899495
31
0
39
0
210
0
220
0
230
1
0
LINE
5
1D1
100
AcDbEntity
8
1
62
256
6
ByLayer
370
13
48
0.05
60
0
100
AcDbLine
10
126.82476
20
0
30
0
11
111.7
21
0
31
0
39
0
210
0
220
0
230
1
0
LINE
5
1D2
100
AcDbEntity
8
1
62
256
6
ByLayer
370
13
48
0.05
60
0
100
AcDbLine
10
107.05
20
9.899495
30
0
11
136.9
21
9.899495
31
0
39
0
210
0
220
0
230
1
0
LINE
5
1D7
100
AcDbEntity
8
1
62
256
6
ByLayer
370
18
48
1
60
1
100
AcDbLine
10
-30.6
20
20
30
0
11
-30.139216
21
16.500002
31
0
39
0
210
0
220
0
230
1
0
LINE
5
1D8
100
AcDbEntity
8
1
62
256
6
ByLayer
370
18
48
1
60
1
100
AcDbLine
10
-30.139216
20
16.500002
30
0
11
-31.060784
21
16.499998
31
0
39
0
210
0
220
0
230
1
0
LINE
5
1D9
100
AcDbEntity
8
1
62
256
6
ByLayer
370
18
48
1
60
1
100
AcDbLine
10
-31.060784
20
16.499998
30
0
11
-30.6
21
20
31
0
39
0
210
0
220
0
230
1
0
LINE
5
1DB
100
AcDbEntity
8
1
62
256
6
ByLayer
370
18
48
1
60
1
100
AcDbLine
10
-30.6
20
-20
30
0
11
-31.060784
21
-16.500002
31
0
39
0
210
0
220
0
230
1
0
LINE
5
1DC
100
AcDbEntity
8
1
62
256
6
ByLayer
370
18
48
1
60
1
100
AcDbLine
10
-31.060784
20
-16.500002
30
0
11
-30.139216
21
-16.499998
31
0
39
0
210
0
220
0
230
1
0
LINE
5
1DD
100
AcDbEntity
8
1
62
256
6
ByLayer
370
18
48
1
60
1
100
AcDbLine
10
-30.139216
20
-16.499998
30
0
11
-30.6
21
-20
31
0
39
0
210
0
220
0
230
1
0
LINE
5
1E1
100
AcDbEntity
8
1
62
256
6
ByLayer
370
18
48
1
60
1
100
AcDbLine
10
142.748181
20
20
30
0
11
143.208964
21
16.500002
31
0
39
0
210
0
220
0
230
1
0
LINE
5
1E2
100
AcDbEntity
8
1
62
256
6
ByLayer
370
18
48
1
60
1
100
AcDbLine
10
143.208964
20
16.500002
30
0
11
142.287397
21
16.499998
31
0
39
0
210
0
220
0
230
1
0
LINE
5
1E3
100
AcDbEntity
8
1
62
256
6
ByLayer
370
18
48
1
60
1
100
AcDbLine
10
142.287397
20
16.499998
30
0
11
142.748181
21
20
31
0
39
0
210
0
220
0
230
1
0
LINE
5
1E5
100
AcDbEntity
8
1
62
256
6
ByLayer
370
18
48
1
60
1
100
AcDbLine
10
142.748181
20
-20
30
0
11
142.287397
21
-16.500002
31
0
39
0
210
0
220
0
230
1
0
LINE
5
1E6
100
AcDbEntity
8
1
62
256
6
ByLayer
370
18
48
1
60
1
100
AcDbLine
10
142.287397
20
-16.500002
30
0
11
143.208964
21
-16.499998
31
0
39
0
210
0
220
0
230
1
0
LINE
5
1E7
100
AcDbEntity
8
1
62
256
6
ByLayer
370
18
48
1
60
1
100
AcDbLine
10
143.208964
20
-16.499998
30
0
11
142.748181
21
-20
31
0
39
0
210
0
220
0
230
1
0
LINE
5
1EA
100
AcDbEntity
8
1
62
256
6
ByLayer
370
18
48
1
60
1
100
AcDbLine
10
120
20
25.6
30
0
11
116.500002
21
25.139216
31
0
39
0
210
0
220
0
230
1
0
LINE
5
1EB
100
AcDbEntity
8
1
62
256
6
ByLayer
370
18
48
1
60
1
100
AcDbLine
10
116.500002
20
25.139216
30
0
11
116.499998
21
26.060784
31
0
39
0
210
0
220
0
230
1
0
LINE
5
1EC
100
AcDbEntity
8
1
62
256
6
ByLayer
370
18
48
1
60
1
100
AcDbLine
10
116.499998
20
26.060784
30
0
11
120
21
25.6
31
0
39
0
210
0
220
0
230
1
0
LINE
5
1EE
100
AcDbEntity
8
1
62
256
6
ByLayer
370
18
48
1
60
1
100
AcDbLine
10
0
20
25.6
30
0
11
3.499998
21
26.060784
31
0
39
0
210
0
220
0
230
1
0
LINE
5
1EF
100
AcDbEntity
8
1
62
256
6
ByLayer
370
18
48
1
60
1
100
AcDbLine
10
3.499998
20
26.060784
30
0
11
3.500002
21
25.139216
31
0
39
0
210
0
220
0
230
1
0
LINE
5
1F0
100
AcDbEntity
8
1
62
256
6
ByLayer
370
18
48
1
60
1
100
AcDbLine
10
3.500002
20
25.139216
30
0
11
0
21
25.6
31
0
39
0
210
0
220
0
230
1
0
MTEXT
5
1D3
100
AcDbEntity
8
SK2
62
256
6
ByLayer
370
18
48
1
60
0
100
AcDbMText
10
-32.164634
20
-4.714889
30
0
210
0
220
0
230
1
1
%%c
40
3.5
41
0
44
1.084337
50
90
71
7
72
5
7
iso_b_vert
0
MTEXT
5
1D6
100
AcDbEntity
8
SK2
62
256
6
ByLayer
370
18
48
1
60
0
100
AcDbMText
10
-32.164634
20
2.257767
30
0
210
0
220
0
230
1
1
\W0.7361;40
40
3.5
41
0
44
1.084337
50
90
71
7
72
5
7
iso_b_vert
0
MTEXT
5
1DF
100
AcDbEntity
8
SK2
62
256
6
ByLayer
370
18
48
1
60
0
100
AcDbMText
10
141.183547
20
-4.714889
30
0
210
0
220
0
230
1
1
%%c
40
3.5
41
0
44
1.084337
50
90
71
7
72
5
7
iso_b_vert
0
MTEXT
5
1E0
100
AcDbEntity
8
SK2
62
256
6
ByLayer
370
18
48
1
60
0
100
AcDbMText
10
141.183547
20
2.257767
30
0
210
0
220
0
230
1
1
\W0.7361;40
40
3.5
41
0
44
1.084337
50
90
71
7
72
5
7
iso_b_vert
0
MTEXT
5
1E9
100
AcDbEntity
8
SK2
62
256
6
ByLayer
370
18
48
1
60
0
100
AcDbMText
10
57.224734
20
26.632634
30
0
210
0
220
0
230
1
1
\W0.6217;120
40
3.5
41
0
44
1.084337
50
0
71
7
72
5
7
iso_b_vert
0
MTEXT
5
1F2
100
AcDbEntity
8
SK6
62
256
6
ByLayer
370
18
48
1
60
0
100
AcDbMText
10
30.336793
20
-45.567366
30
0
210
0
220
0
230
1
1
\W0.7553;HT40D-C4 40 120-40
40
3.5
41
0
44
1.084337
50
0
71
7
72
5
7
iso_b_vert
0
HATCH
5
1DA
100
AcDbEntity
8
SK2
62
256
6
ByLayer
370
13
48
1
60
0
100
AcDbHatch
10
0
20
0
30
0
210
0
220
0
230
1
2
ANSI31
70
0
71
0
91
1
92
5
93
3
72
1
10
-30.6000000000001
20
19.9999999999996
11
-30.1392162584473
21
16.5000016925528
72
1
10
-30.1392162584473
20
16.5000016925528
11
-31.0607837415529
21
16.4999983074464
72
1
10
-31.0607837415529
20
16.4999983074464
11
-30.6000000000001
21
19.9999999999996
97
0
75
0
76
1
52
0
41
0.0062
77
0
78
1
53
45
43
0
44
0
45
-0.0139193969876572
46
0.0139193969876572
79
0
47
0
98
1
10
0
20
0
0
HATCH
5
1DE
100
AcDbEntity
8
SK2
62
256
6
ByLayer
370
13
48
1
60
0
100
AcDbHatch
10
0
20
0
30
0
210
0
220
0
230
1
2
ANSI31
70
0
71
0
91
1
92
5
93
3
72
1
10
-30.6000000000001
20
-20.0000000000004
11
-31.0607837415529
21
-16.5000016925536
72
1
10
-31.0607837415529
20
-16.5000016925536
11
-30.1392162584473
21
-16.4999983074472
72
1
10
-30.1392162584473
20
-16.4999983074472
11
-30.6000000000001
21
-20.0000000000004
97
0
75
0
76
1
52
0
41
0.0062
77
0
78
1
53
45
43
0
44
0
45
-0.0139193969876572
46
0.0139193969876572
79
0
47
0
98
1
10
0
20
0
0
HATCH
5
1E4
100
AcDbEntity
8
SK2
62
256
6
ByLayer
370
13
48
1
60
0
100
AcDbHatch
10
0
20
0
30
0
210
0
220
0
230
1
2
ANSI31
70
0
71
0
91
1
92
5
93
3
72
1
10
142.748180566759
20
19.9999999999996
11
143.208964308312
21
16.5000016925528
72
1
10
143.208964308312
20
16.5000016925528
11
142.287396825206
21
16.4999983074464
72
1
10
142.287396825206
20
16.4999983074464
11
142.748180566759
21
19.9999999999996
97
0
75
0
76
1
52
0
41
0.0062
77
0
78
1
53
45
43
0
44
0
45
-0.0139193969876572
46
0.0139193969876572
79
0
47
0
98
1
10
0
20
0
0
HATCH
5
1E8
100
AcDbEntity
8
SK2
62
256
6
ByLayer
370
13
48
1
60
0
100
AcDbHatch
10
0
20
0
30
0
210
0
220
0
230
1
2
ANSI31
70
0
71
0
91
1
92
5
93
3
72
1
10
142.748180566759
20
-20.0000000000004
11
142.287396825206
21
-16.5000016925536
72
1
10
142.287396825206
20
-16.5000016925536
11
143.208964308312
21
-16.4999983074472
72
1
10
143.208964308312
20
-16.4999983074472
11
142.748180566759
21
-20.0000000000004
97
0
75
0
76
1
52
0
41
0.0062
77
0
78
1
53
45
43
0
44
0
45
-0.0139193969876572
46
0.0139193969876572
79
0
47
0
98
1
10
0
20
0
0
HATCH
5
1ED
100
AcDbEntity
8
SK2
62
256
6
ByLayer
370
13
48
1
60
0
100
AcDbHatch
10
0
20
0
30
0
210
0
220
0
230
1
2
ANSI31
70
0
71
0
91
1
92
5
93
3
72
1
10
120
20
25.6000000000001
11
116.500001692553
21
25.1392162584473
72
1
10
116.500001692553
20
25.1392162584473
11
116.499998307447
21
26.0607837415529
72
1
10
116.499998307447
20
26.0607837415529
11
120
21
25.6000000000001
97
0
75
0
76
1
52
0
41
0.0062
77
0
78
1
53
45
43
0
44
0
45
-0.0139193969876572
46
0.0139193969876572
79
0
47
0
98
1
10
0
20
0
0
HATCH
5
1F1
100
AcDbEntity
8
SK2
62
256
6
ByLayer
370
13
48
1
60
0
100
AcDbHatch
10
0
20
0
30
0
210
0
220
0
230
1
2
ANSI31
70
0
71
0
91
1
92
5
93
3
72
1
10
0
20
25.6000000000001
11
3.49999830744682
21
26.0607837415529
72
1
10
3.49999830744682
20
26.0607837415529
11
3.50000169255318
21
25.1392162584473
72
1
10
3.50000169255318
20
25.1392162584473
11
0
21
25.6000000000001
97
0
75
0
76
1
52
0
41
0.0062
77
0
78
1
53
45
43
0
44
0
45
-0.0139193969876572
46
0.0139193969876572
79
0
47
0
98
1
10
0
20
0
0
ENDSEC
0
SECTION
2
OBJECTS
0
DICTIONARY
5
261
330
0
100
AcDbDictionary
280
0
281
1
3
ACAD_GROUP
350
262
3
ACAD_MLINESTYLE
350
263
0
DICTIONARY
5
262
330
0
100
AcDbDictionary
280
0
281
1
0
DICTIONARY
5
263
330
0
100
AcDbDictionary
280
0
281
1
3
Standard
350
18
0
MLINESTYLE
5
18
330
263
100
AcDbMlineStyle
2
Standard
70
0
3

62
256
51
90
52
90
71
2
49
-0.5
62
256
6
ByLayer
49
0.5
62
256
6
ByLayer
0
RASTERVARIABLES
5
24f
330

100
AcDbRasterVariables
90
0
70
1
71
1
72
1
0
ENDSEC
0
EOF
