0
SECTION
2
HEADER
9
$ACADVER
1
AC1015
9
$DWGCODEPAGE
3
ANSI_1252
9
$HANDSEED
5
271
9
$ANGBASE
50
0
9
$ANGDIR
70
0
9
$ATTMODE
70
1
9
$AUNITS
70
0
9
$AUPREC
70
0
9
$CECOLOR
62
256
9
$CELTSCALE
40
1
9
$CELTYPE
6
ByLayer
9
$CELWEIGHT
370
18
9
$CLAYER
8
0
9
$CMLJUST
70
0
9
$CMLSCALE
40
1
9
$CMLSTYLE
2
Standard
9
$DIMSTYLE
2
Standard
9
$TEXTSIZE
40
0.2
9
$TEXTSTYLE
7
Standard
9
$LUNITS
70
2
9
$LUPREC
70
4
9
$EXTNAMES
290
1
9
$INSUNITS
70
4
9
$LTSCALE
40
1
9
$LWDISPLAY
290
1
9
$PDMODE
70
0
9
$PDSIZE
40
0
9
$PLINEGEN
70
0
0
ENDSEC
0
SECTION
2
CLASSES
0
CLASS
1
RASTERVARIABLES
2
AcDbRasterVariables
3
ISM
90
0
280
0
281
0
0
ENDSEC
0
SECTION
2
TABLES
0
TABLE
2
VPORT
5
267
100
AcDbSymbolTable
0
VPORT
5
1
100
AcDbSymbolTableRecord
100
AcDbViewportTableRecord
2
*Active
70
0
10
0
20
0
11
1
21
1
12
-1
22
1
13
0
23
0
14
0.5
24
0.5
15
10
25
10
16
0
26
0
36
1
17
0
27
0
37
0
0
ENDTAB
0
TABLE
2
LTYPE
5
268
100
AcDbSymbolTable
0
LTYPE
5
14
100
AcDbSymbolTableRecord
100
AcDbLinetypeTableRecord
70
0
2
ByBlock
3

72
65
73
0
40
0
0
LTYPE
5
15
100
AcDbSymbolTableRecord
100
AcDbLinetypeTableRecord
70
0
2
ByLayer
3

72
65
73
0
40
0
0
LTYPE
5
16
100
AcDbSymbolTableRecord
100
AcDbLinetypeTableRecord
70
0
2
Continuous
3
Solid line
72
65
73
0
40
0
0
LTYPE
5
6E
100
AcDbSymbolTableRecord
100
AcDbLinetypeTableRecord
70
0
2
CENTER
3
____ _ ____ _ ____ _ ____
72
65
73
4
40
47.5
49
22
74
0
49
-8.5
74
0
49
8.5
74
0
49
-8.5
74
0
0
LTYPE
5
6F
100
AcDbSymbolTableRecord
100
AcDbLinetypeTableRecord
70
0
2
DASHED
3
__ __ __ __ __ __ __ __ __
72
65
73
2
40
25.72
49
12.86
74
0
49
-12.86
74
0
0
ENDTAB
0
TABLE
2
LAYER
5
269
100
AcDbSymbolTable
0
LAYER
5
10
100
AcDbSymbolTableRecord
100
AcDbLayerTableRecord
2
0
70
0
62
7
6
Continuous
290
1
370
-3
390
0
0
LAYER
5
71
100
AcDbSymbolTableRecord
100
AcDbLayerTableRecord
2
2
70
0
62
7
6
Continuous
290
1
370
-3
390
0
0
LAYER
5
91
100
AcDbSymbolTableRecord
100
AcDbLayerTableRecord
2
81
70
0
62
-3
6
Continuous
290
1
370
-3
390
0
0
LAYER
5
93
100
AcDbSymbolTableRecord
100
AcDbLayerTableRecord
2
80
70
0
62
-6
6
Continuous
290
1
370
-3
390
0
0
LAYER
5
98
100
AcDbSymbolTableRecord
100
AcDbLayerTableRecord
2
4
70
0
62
-2
6
CENTER
290
1
370
-3
390
0
0
LAYER
5
9F
100
AcDbSymbolTableRecord
100
AcDbLayerTableRecord
2
1
70
0
62
4
6
Continuous
290
1
370
-3
390
0
0
LAYER
5
253
100
AcDbSymbolTableRecord
100
AcDbLayerTableRecord
2
SK4
70
0
62
2
6
CENTER
290
1
370
-3
390
0
0
LAYER
5
254
100
AcDbSymbolTableRecord
100
AcDbLayerTableRecord
2
SK1
70
0
62
4
6
Continuous
290
1
370
-3
390
0
0
LAYER
5
255
100
AcDbSymbolTableRecord
100
AcDbLayerTableRecord
2
SK2
70
0
62
7
6
Continuous
290
1
370
-3
390
0
0
LAYER
5
256
100
AcDbSymbolTableRecord
100
AcDbLayerTableRecord
2
SK6
70
0
62
5
6
Continuous
290
1
370
-3
390
0
0
ENDTAB
0
TABLE
2
STYLE
5
26a
100
AcDbSymbolTable
0
STYLE
5
11
100
AcDbSymbolTableRecord
100
AcDbTextStyleTableRecord
2
Standard
3
txt
70
0
71
0
40
0
41
1
42
0
50
0
0
STYLE
5
1CB
100
AcDbSymbolTableRecord
100
AcDbTextStyleTableRecord
2
iso_b_vert
3
simplex.shx
70
0
71
0
40
0
41
1
42
0
50
0
0
STYLE
5
1CC
100
AcDbSymbolTableRecord
100
AcDbTextStyleTableRecord
2
DWGDirectTextStyle
3
simplex
70
0
71
0
40
0
41
1
42
0
50
0
0
ENDTAB
0
TABLE
2
DIMSTYLE
5
26b
100
AcDbSymbolTable
100
AcDbDimStyleTable
0
DIMSTYLE
105
27
100
AcDbSymbolTableRecord
100
AcDbDimStyleTableRecord
2
Standard
70
0
3
<>
41
0.18
42
0.0625
44
0.18
140
0.18
147
0.09
73
0
74
0
77
1
271
2
275
0
278
52
280
0
340
11
0
ENDTAB
0
TABLE
2
VIEW
5
26c
100
AcDbSymbolTable
0
ENDTAB
0
TABLE
2
UCS
5
26d
100
AcDbSymbolTable
0
ENDTAB
0
TABLE
2
APPID
5
26e
100
AcDbSymbolTable
0
APPID
5
12
100
AcDbSymbolTableRecord
100
AcDbRegAppTableRecord
2
ACAD
70
0
0
APPID
5
24F
100
AcDbSymbolTableRecord
100
AcDbRegAppTableRecord
2
ACAD_MLEADERVER
70
0
0
ENDTAB
0
TABLE
2
BLOCK_RECORD
5
26f
100
AcDbSymbolTable
0
BLOCK_RECORD
5
1F
100
AcDbSymbolTableRecord
100
AcDbBlockTableRecord
2
*Model_Space
340
0
70
0
0
BLOCK_RECORD
5
1B
100
AcDbSymbolTableRecord
100
AcDbBlockTableRecord
2
*Paper_Space
340
0
70
0
0
BLOCK_RECORD
5
23
100
AcDbSymbolTableRecord
100
AcDbBlockTableRecord
2
*Paper_Space0
340
0
70
0
0
ENDTAB
0
ENDSEC
0
SECTION
2
BLOCKS
0
BLOCK
5
20
100
AcDbEntity
8
0
100
AcDbBlockBegin
2
*Model_Space
70
0
10
0
20
0
30
0
3
*Model_Space
0
ENDBLK
5
21
100
AcDbEntity
8
0
100
AcDbBlockEnd
0
BLOCK
5
1C
100
AcDbEntity
8
0
100
AcDbBlockBegin
2
*Paper_Space
70
0
10
0
20
0
30
0
3
*Paper_Space
0
ENDBLK
5
1D
100
AcDbEntity
8
0
100
AcDbBlockEnd
0
BLOCK
5
24
100
AcDbEntity
8
0
100
AcDbBlockBegin
2
*Paper_Space0
70
0
10
0
20
0
30
0
3
*Paper_Space0
0
ENDBLK
5
25
100
AcDbEntity
8
0
100
AcDbBlockEnd
0
ENDSEC
0
SECTION
2
ENTITIES
0
ARC
5
13B
100
AcDbEntity
8
SK1
62
256
6
ByLayer
370
18
48
1
60
0
100
AcDbCircle
39
0
10
-0.6
20
38.9
30
0
40
0.999999999999997
210
0
220
0
230
1
100
AcDbArc
50
293.578178
51
306.869898
0
ARC
5
13C
100
AcDbEntity
8
SK1
62
256
6
ByLayer
370
18
48
1
60
0
100
AcDbCircle
39
0
10
-0.6
20
-38.9
30
0
40
0.999999999999997
210
0
220
0
230
1
100
AcDbArc
50
53.130102
51
66.421822
0
ARC
5
13D
100
AcDbEntity
8
1
62
256
6
ByLayer
370
18
48
1
60
0
100
AcDbCircle
39
0
10
943.8
20
-49.8
30
0
40
0.2
210
0
220
0
230
1
100
AcDbArc
50
270
51
360
0
ARC
5
13E
100
AcDbEntity
8
1
62
256
6
ByLayer
370
18
48
1
60
0
100
AcDbCircle
39
0
10
943.8
20
49.8
30
0
40
0.2
210
0
220
0
230
1
100
AcDbArc
50
360
51
90
0
ARC
5
13F
100
AcDbEntity
8
1
62
256
6
ByLayer
370
18
48
1
60
0
100
AcDbCircle
39
0
10
953.5
20
30.5
30
0
40
0.5
210
0
220
0
230
1
100
AcDbArc
50
180
51
270
0
ARC
5
140
100
AcDbEntity
8
1
62
256
6
ByLayer
370
18
48
1
60
0
100
AcDbCircle
39
0
10
944.4
20
-49.6
30
0
40
0.4
210
0
220
0
230
1
100
AcDbArc
50
180
51
270
0
ARC
5
141
100
AcDbEntity
8
1
62
256
6
ByLayer
370
18
48
1
60
0
100
AcDbCircle
39
0
10
944.4
20
49.6
30
0
40
0.4
210
0
220
0
230
1
100
AcDbArc
50
90
51
180
0
ELLIPSE
5
142
100
AcDbEntity
8
1
62
256
6
ByLayer
370
13
48
1
60
0
100
AcDbEllipse
10
947.250839
20
10.64559
30
0
11
-2.47220831324027
21
0.805100028534166
31
0
210
0
220
0
230
1
40
0.919296
41
-1.49214012906749
42
-0.758848225072879
0
ELLIPSE
5
143
100
AcDbEntity
8
1
62
256
6
ByLayer
370
13
48
1
60
0
100
AcDbEllipse
10
948.347663
20
-32.940243
30
0
11
2.54945757591368
21
0.510162786389141
31
0
210
0
220
0
230
1
40
0.783734
41
2.11539851667746
42
-0.511782883579698
0
ELLIPSE
5
144
100
AcDbEntity
8
1
62
256
6
ByLayer
370
13
48
1
60
0
100
AcDbEllipse
10
948.408598
20
-33.244755
30
0
11
2.94168181836194
21
0.588649368910547
31
0
210
0
220
0
230
1
40
0.783734
41
3.03902675683277
42
-0.51178288357965
0
ELLIPSE
5
145
100
AcDbEntity
8
1
62
256
6
ByLayer
370
13
48
1
60
0
100
AcDbEllipse
10
947.311774
20
10.832701
30
0
11
-2.85254805373877
21
0.928961571385576
31
0
210
0
220
0
230
1
40
0.919296
41
-1.49214012906747
42
-0.707306470599939
0
ELLIPSE
5
146
100
AcDbEntity
8
1
62
256
6
ByLayer
370
18
48
1
60
0
100
AcDbEllipse
10
-7.094011
20
0
30
0
11
23.4185446994539
21
49.3543728818742
31
0
210
0
220
0
230
1
40
0.341999
41
-1.09444724969936
42
-0.154598522698914
0
ELLIPSE
5
147
100
AcDbEntity
8
1
62
256
6
ByLayer
370
18
48
1
60
0
100
AcDbEllipse
10
39.094011
20
0
30
0
11
23.4185446994528
21
-49.3543728818726
31
0
210
0
220
0
230
1
40
0.341999
41
-2.98699413089088
42
-2.04714540389041
0
ELLIPSE
5
148
100
AcDbEntity
8
1
62
256
6
ByLayer
370
18
48
1
60
0
100
AcDbEllipse
10
39.094011
20
0
30
0
11
23.4185446994518
21
49.3543728818713
31
0
210
0
220
0
230
1
40
0.341999
41
2.04714540389039
42
2.98699413089088
0
ELLIPSE
5
149
100
AcDbEntity
8
1
62
256
6
ByLayer
370
18
48
1
60
0
100
AcDbEllipse
10
-7.094011
20
0
30
0
11
23.4185446994538
21
-49.3543728818738
31
0
210
0
220
0
230
1
40
0.341999
41
0.154598522698913
42
1.09444724969936
0
ELLIPSE
5
14A
100
AcDbEntity
8
1
62
256
6
ByLayer
370
18
48
1
60
0
100
AcDbEllipse
10
947.311774
20
10.832701
30
0
11
-2.37712337811564
21
0.774134642821314
31
0
210
0
220
0
230
1
40
0.919296
41
-2.39502700609679
42
-0.701315702773425
0
ELLIPSE
5
14B
100
AcDbEntity
8
1
62
256
6
ByLayer
370
18
48
1
60
0
100
AcDbEllipse
10
969.297437
20
14.877983
30
0
11
-1.53900039462537
21
1.70923309859801
31
0
210
0
220
0
230
1
40
0.258819
41
-2.87033522338309
42
-0.271354208577133
0
ELLIPSE
5
14C
100
AcDbEntity
8
1
62
256
6
ByLayer
370
18
48
1
60
0
100
AcDbEllipse
10
969.153872
20
14.748717
30
0
11
1.67282651589714
21
-1.85786206369349
31
0
210
0
220
0
230
1
40
0.258819
41
0
42
-3.14159198189577
0
ELLIPSE
5
14D
100
AcDbEntity
8
1
62
256
6
ByLayer
370
18
48
1
60
0
100
AcDbEllipse
10
948.408598
20
-33.244755
30
0
11
2.45140151530162
21
0.49054114075879
31
0
210
0
220
0
230
1
40
0.783734
41
-0.163956205870733
42
0
0
ELLIPSE
5
14E
100
AcDbEntity
8
1
62
256
6
ByLayer
370
18
48
1
60
0
100
AcDbEllipse
10
948.408598
20
-33.244755
30
0
11
2.45140151530162
21
0.49054114075879
31
0
210
0
220
0
230
1
40
0.783734
41
0
42
0.558610465710255
0
ELLIPSE
5
14F
100
AcDbEntity
8
1
62
256
6
ByLayer
370
18
48
1
60
0
100
AcDbEllipse
10
948.408598
20
-33.244755
30
0
11
2.45140151530162
21
0.49054114075879
31
0
210
0
220
0
230
1
40
0.783734
41
1.93482430297717
42
-0.163955699710508
0
ELLIPSE
5
150
100
AcDbEntity
8
1
62
256
6
ByLayer
370
18
48
1
60
0
100
AcDbEllipse
10
948.408598
20
-33.244755
30
0
11
2.45140151530162
21
0.49054114075879
31
0
210
0
220
0
230
1
40
0.783734
41
1.92770537567461
42
0
0
ELLIPSE
5
151
100
AcDbEntity
8
1
62
256
6
ByLayer
370
18
48
1
60
0
100
AcDbEllipse
10
948.408598
20
-33.244755
30
0
11
2.45140151530162
21
0.49054114075879
31
0
210
0
220
0
230
1
40
0.783734
41
0
42
0.582220124350683
0
ELLIPSE
5
152
100
AcDbEntity
8
1
62
256
6
ByLayer
370
18
48
1
60
0
100
AcDbEllipse
10
948.408598
20
-33.244755
30
0
11
2.99070984866797
21
0.598460191725723
31
0
210
0
220
0
230
1
40
0.783734
41
-3.14154884635489
42
-0.14810200252464
0
ELLIPSE
5
153
100
AcDbEntity
8
1
62
256
6
ByLayer
370
18
48
1
60
0
100
AcDbEllipse
10
953.676371
20
-10
30
0
11
2.44921270764594E-15
21
40.0000000000193
31
0
210
0
220
0
230
1
40
0.013091
41
-2.7182201118619
42
-0.423372541727942
0
ELLIPSE
5
154
100
AcDbEntity
8
1
62
256
6
ByLayer
370
18
48
1
60
0
100
AcDbEllipse
10
970.325199
20
-10.000447
30
0
11
16.2612160110516
21
-36.5460257469453
31
0
210
0
220
0
230
1
40
0.999994
41
3.13446827457689
42
-3.13686796887878
0
ELLIPSE
5
155
100
AcDbEntity
8
1
62
256
6
ByLayer
370
18
48
1
60
0
100
AcDbEllipse
10
970.324936
20
-10.000144
30
0
11
36.5341238545005
21
-16.2865433750627
31
0
210
0
220
0
230
1
40
0.999998
41
-1.57482158436053
42
-1.56297242484043
0
ELLIPSE
5
156
100
AcDbEntity
8
1
62
256
6
ByLayer
370
18
48
1
60
0
100
AcDbEllipse
10
947.311774
20
10.832701
30
0
11
-2.37712337811564
21
0.774134642821314
31
0
210
0
220
0
230
1
40
0.919296
41
-1.27990987822011
42
-0.701562312356267
0
ELLIPSE
5
157
100
AcDbEntity
8
1
62
256
6
ByLayer
370
18
48
1
60
0
100
AcDbEllipse
10
947.311774
20
10.832701
30
0
11
-2.37712337811564
21
0.774134642821314
31
0
210
0
220
0
230
1
40
0.919296
41
-2.39733523704797
42
-1.27990987822011
0
ELLIPSE
5
158
100
AcDbEntity
8
1
62
256
6
ByLayer
370
13
48
1
60
0
100
AcDbEllipse
10
953.5
20
-47.9875
30
0
11
0.5
21
0
31
0
210
0
220
0
230
1
40
0.937963
41
1.5707963267949
42
2.6165859086495
0
ELLIPSE
5
159
100
AcDbEntity
8
1
62
256
6
ByLayer
370
18
48
1
60
0
100
AcDbEllipse
10
947.311774
20
10.832701
30
0
11
-2.90009052130108
21
0.944444264242001
31
0
210
0
220
0
230
1
40
0.919296
41
-1.27990998381296
42
-0.717564842881232
0
ELLIPSE
5
15A
100
AcDbEntity
8
1
62
256
6
ByLayer
370
18
48
1
60
0
100
AcDbEllipse
10
947.311774
20
10.832701
30
0
11
-2.90009052130108
21
0.944444264242001
31
0
210
0
220
0
230
1
40
0.919296
41
-2.39105205159787
42
-1.27990998381296
0
ELLIPSE
5
15B
100
AcDbEntity
8
1
62
256
6
ByLayer
370
18
48
1
60
0
100
AcDbEllipse
10
969.381175
20
-34.782739
30
0
11
1.53900039462538
21
1.709233098598
31
0
210
0
220
0
230
1
40
0.258819
41
-2.8703352233831
42
-0.271354208577136
0
ELLIPSE
5
15C
100
AcDbEntity
8
1
62
256
6
ByLayer
370
18
48
1
60
0
100
AcDbEllipse
10
969.23761
20
-34.653473
30
0
11
-1.67282651589715
21
-1.85786206369348
31
0
210
0
220
0
230
1
40
0.258819
41
0
42
-3.14159198189577
0
ELLIPSE
5
15D
100
AcDbEntity
8
1
62
256
6
ByLayer
370
18
48
1
60
0
100
AcDbEllipse
10
974.884955
20
-10
30
0
11
38.0494835789963
21
39.3223697467326
31
0
210
0
220
0
230
1
40
0.192684
41
-2.09405060609805
42
-1.93293084500613
0
ELLIPSE
5
15E
100
AcDbEntity
8
1
62
256
6
ByLayer
370
18
48
1
60
0
100
AcDbEllipse
10
974.884955
20
-10
30
0
11
38.0494835752223
21
-39.3223697415099
31
0
210
0
220
0
230
1
40
0.192684
41
1.932930844944
42
2.09405060605081
0
ELLIPSE
5
15F
100
AcDbEntity
8
1
62
256
6
ByLayer
370
18
48
1
60
0
100
AcDbEllipse
10
441.471024
20
-520.546958
30
0
11
549.360850155412
21
528.205128560958
31
0
210
0
220
0
230
1
40
0.048591
41
-0.336535907392874
42
-0.330104518405149
0
ELLIPSE
5
160
100
AcDbEntity
8
1
62
256
6
ByLayer
370
18
48
1
60
0
100
AcDbEllipse
10
441.388071
20
500.624079
30
0
11
549.443863914591
21
-528.282445988112
31
0
210
0
220
0
230
1
40
0.048588
41
0.33008034447025
42
0.336511227931969
0
POINT
5
70
100
AcDbEntity
8
2
62
256
6
ByLayer
370
18
48
1
60
0
100
AcDbPoint
10
944
20
0
30
0
39
0
210
0
220
0
230
1
50
360
0
POINT
5
72
100
AcDbEntity
8
2
62
256
6
ByLayer
370
18
48
1
60
0
100
AcDbPoint
10
953.175
20
-26
30
0
39
0
210
0
220
0
230
1
50
360
0
POINT
5
73
100
AcDbEntity
8
2
62
256
6
ByLayer
370
18
48
1
60
0
100
AcDbPoint
10
953.175
20
6
30
0
39
0
210
0
220
0
230
1
50
360
0
POINT
5
74
100
AcDbEntity
8
2
62
256
6
ByLayer
370
18
48
1
60
0
100
AcDbPoint
10
885
20
0
30
0
39
0
210
0
220
0
230
1
50
360
0
POINT
5
75
100
AcDbEntity
8
2
62
256
6
ByLayer
370
18
48
1
60
0
100
AcDbPoint
10
954.325
20
-10
30
0
39
0
210
0
220
0
230
1
50
360
0
POINT
5
76
100
AcDbEntity
8
2
62
256
6
ByLayer
370
18
48
1
60
0
100
AcDbPoint
10
962.825
20
-10
30
0
39
0
210
0
220
0
230
1
50
360
0
POINT
5
77
100
AcDbEntity
8
2
62
256
6
ByLayer
370
18
48
1
60
0
100
AcDbPoint
10
615
20
0
30
0
39
0
210
0
220
0
230
1
50
360
0
POINT
5
78
100
AcDbEntity
8
2
62
256
6
ByLayer
370
18
48
1
60
0
100
AcDbPoint
10
953.175
20
-26
30
0
39
0
210
0
220
0
230
1
50
360
0
POINT
5
79
100
AcDbEntity
8
2
62
256
6
ByLayer
370
18
48
1
60
0
100
AcDbPoint
10
938
20
0
30
0
39
0
210
0
220
0
230
1
50
360
0
POINT
5
7A
100
AcDbEntity
8
2
62
256
6
ByLayer
370
50
48
1
60
0
100
AcDbPoint
10
924
20
0
30
0
39
0
210
0
220
0
230
1
50
360
0
POINT
5
7B
100
AcDbEntity
8
2
62
256
6
ByLayer
370
18
48
1
60
0
100
AcDbPoint
10
952.825
20
-10
30
0
39
0
210
0
220
0
230
1
50
360
0
POINT
5
7C
100
AcDbEntity
8
2
62
256
6
ByLayer
370
18
48
1
60
0
100
AcDbPoint
10
919
20
0
30
0
39
0
210
0
220
0
230
1
50
360
0
POINT
5
7D
100
AcDbEntity
8
2
62
256
6
ByLayer
370
18
48
1
60
0
100
AcDbPoint
10
923.5
20
0
30
0
39
0
210
0
220
0
230
1
50
360
0
POINT
5
7E
100
AcDbEntity
8
2
62
256
6
ByLayer
370
18
48
1
60
0
100
AcDbPoint
10
953.9905
20
-10
30
0
39
0
210
0
220
0
230
1
50
360
0
POINT
5
7F
100
AcDbEntity
8
2
62
256
6
ByLayer
370
18
48
1
60
0
100
AcDbPoint
10
954.325
20
-10
30
0
39
0
210
0
220
0
230
1
50
360
0
POINT
5
80
100
AcDbEntity
8
2
62
256
6
ByLayer
370
18
48
1
60
0
100
AcDbPoint
10
919
20
0
30
0
39
0
210
0
220
0
230
1
50
360
0
POINT
5
81
100
AcDbEntity
8
2
62
256
6
ByLayer
370
18
48
1
60
0
100
AcDbPoint
10
948.5
20
13
30
0
39
0
210
0
220
0
230
1
50
360
0
POINT
5
82
100
AcDbEntity
8
2
62
256
6
ByLayer
370
18
48
1
60
0
100
AcDbPoint
10
951.325
20
-10
30
0
39
0
210
0
220
0
230
1
50
360
0
POINT
5
83
100
AcDbEntity
8
2
62
256
6
ByLayer
370
18
48
1
60
0
100
AcDbPoint
10
944
20
0
30
0
39
0
210
0
220
0
230
1
50
360
0
POINT
5
84
100
AcDbEntity
8
2
62
256
6
ByLayer
370
18
48
1
60
0
100
AcDbPoint
10
948.5
20
-32.25
30
0
39
0
210
0
220
0
230
1
50
360
0
POINT
5
85
100
AcDbEntity
8
2
62
256
6
ByLayer
370
18
48
1
60
0
100
AcDbPoint
10
948.825
20
1
30
0
39
0
210
0
220
0
230
1
50
360
0
POINT
5
86
100
AcDbEntity
8
2
62
256
6
ByLayer
370
18
48
1
60
0
100
AcDbPoint
10
944
20
0
30
0
39
0
210
0
220
0
230
1
50
360
0
POINT
5
87
100
AcDbEntity
8
2
62
256
6
ByLayer
370
18
48
1
60
0
100
AcDbPoint
10
948.825
20
-21
30
0
39
0
210
0
220
0
230
1
50
360
0
POINT
5
88
100
AcDbEntity
8
2
62
256
6
ByLayer
370
18
48
1
60
0
100
AcDbPoint
10
953.175
20
6
30
0
39
0
210
0
220
0
230
1
50
360
0
POINT
5
89
100
AcDbEntity
8
2
62
256
6
ByLayer
370
18
48
1
60
0
100
AcDbPoint
10
963.064334
20
-29.09503
30
0
39
0
210
0
220
0
230
1
50
360
0
POINT
5
8A
100
AcDbEntity
8
2
62
256
6
ByLayer
370
70
48
1
60
0
100
AcDbPoint
10
953.9905
20
-10
30
0
39
0
210
0
220
0
230
1
50
360
0
POINT
5
8B
100
AcDbEntity
8
2
62
256
6
ByLayer
370
70
48
1
60
0
100
AcDbPoint
10
965.074238
20
-30.904756
30
0
39
0
210
0
220
0
230
1
50
360
0
POINT
5
8C
100
AcDbEntity
8
2
62
256
6
ByLayer
370
70
48
1
60
0
100
AcDbPoint
10
962.9905
20
-10
30
0
39
0
210
0
220
0
230
1
50
360
0
POINT
5
8D
100
AcDbEntity
8
2
62
256
6
ByLayer
370
18
48
1
60
0
100
AcDbPoint
10
961.6905
20
-10
30
0
39
0
210
0
220
0
230
1
50
360
0
POINT
5
8E
100
AcDbEntity
8
2
62
256
6
ByLayer
370
70
48
1
60
0
100
AcDbPoint
10
964.9905
20
11
30
0
39
0
210
0
220
0
230
1
50
360
0
POINT
5
8F
100
AcDbEntity
8
2
62
256
6
ByLayer
370
18
48
1
60
0
100
AcDbPoint
10
962.980596
20
9.190275
30
0
39
0
210
0
220
0
230
1
50
360
0
POINT
5
90
100
AcDbEntity
8
81
62
256
6
ByLayer
370
18
48
1
60
0
100
AcDbPoint
10
955
20
-10
30
0
39
0
210
0
220
0
230
1
50
360
0
POINT
5
92
100
AcDbEntity
8
80
62
256
6
ByLayer
370
18
48
1
60
0
100
AcDbPoint
10
0
20
0
30
0
39
0
210
0
220
0
230
1
50
360
0
SPLINE
5
161
100
AcDbEntity
8
SK1
62
256
6
ByLayer
370
18
48
1
60
0
100
AcDbSpline
70
4
71
3
72
55
73
51
40
0
40
0
40
0
40
0
40
0.0021426945045928
40
0.0298014025177869
40
0.0574601105309811
40
0.0851188185441752
40
0.112777526557369
40
0.140436234570564
40
0.168094942583758
40
0.195753650596952
40
0.223412358610146
40
0.25107106662334
40
0.278729774636534
40
0.306388482649728
40
0.334047190662923
40
0.361705898676117
40
0.389364606689311
40
0.403193960695908
40
0.417023314702505
40
0.430852668709102
40
0.444682022715699
40
0.458511376722296
40
0.472340730728893
40
0.48617008473549
40
0.493084761738789
40
0.499999438742088
40
0.506914115745386
40
0.513828792748685
40
0.527658146755282
40
0.541487500761879
40
0.555316854768476
40
0.569146208775073
40
0.58297556278167
40
0.596804916788267
40
0.610634270794864
40
0.638292978808058
40
0.665951686821252
40
0.693610394834446
40
0.721269102847641
40
0.748927810860835
40
0.776586518874029
40
0.804245226887223
40
0.831903934900417
40
0.859562642913612
40
0.887221350926806
40
0.91488005894
40
0.942538766953194
40
0.970197474966388
40
0.997856182979582
40
1
40
1
40
1
40
1
41
1
10
-60.0000000000001
20
-33.4636353457467
30
0
41
1
10
-60.0000000000001
20
-33.4633418359335
30
0
41
1
10
-60.0000000000001
20
-33.4548082648377
30
0
41
1
10
-60.0000000000001
20
-33.3205056815015
30
0
41
1
10
-60.0000000000001
20
-32.8505413890955
30
0
41
1
10
-60.0000000000001
20
-32.1329294130155
30
0
41
1
10
-60.0000000000001
20
-31.1885173778895
30
0
41
1
10
-60.0000000000001
20
-30.033383709577
30
0
41
1
10
-60.0000000000001
20
-28.6802027696426
30
0
41
1
10
-60.0000000000001
20
-27.1391563014212
30
0
41
1
10
-60.0000000000001
20
-25.4186126805196
30
0
41
1
10
-60.0000000000001
20
-23.5255321087807
30
0
41
1
10
-60.0000000000001
20
-21.4658195107746
30
0
41
1
10
-60.0000000000001
20
-19.2446308945637
30
0
41
1
10
-60.0000000000001
20
-16.8668253225732
30
0
41
1
10
-60.0000000000001
20
-14.3374601373515
30
0
41
1
10
-60
20
-12.1145030090861
30
0
41
1
10
-60
20
-10.2537713764772
30
0
41
1
10
-60
20
-8.83314461375005
30
0
41
1
10
-60
20
-7.38364733925624
30
0
41
1
10
-60
20
-5.91000562514989
30
0
41
1
10
-60
20
-4.4200428506075
30
0
41
1
10
-60
20
-2.92703470265559
30
0
41
1
10
-60
20
-1.70333091645796
30
0
41
1
10
-60
20
-0.720500335383463
30
0
41
1
10
-60
20
-1.53638666E-08
30
0
41
1
10
-60
20
0.720500611729165
30
0
41
1
10
-60
20
1.70333122668194
30
0
41
1
10
-60
20
2.92703464210848
30
0
41
1
10
-60
20
4.42004263163022
30
0
41
1
10
-60
20
5.9100059937137
30
0
41
1
10
-60
20
7.38364757350564
30
0
41
1
10
-60
20
8.83314440595325
30
0
41
1
10
-60
20
10.2537717697711
30
0
41
1
10
-59.9999999999999
20
12.1145025622944
30
0
41
1
10
-59.9999999999999
20
14.3374601761271
30
0
41
1
10
-59.9999999999999
20
16.8668255987006
30
0
41
1
10
-59.9999999999999
20
19.244630869401
30
0
41
1
10
-59.9999999999999
20
21.4658194114311
30
0
41
1
10
-59.9999999999999
20
23.5255322928728
30
0
41
1
10
-59.9999999999999
20
25.4186124925266
30
0
41
1
10
-59.9999999999999
20
27.1391563797825
30
0
41
1
10
-59.9999999999999
20
28.6802025797168
30
0
41
1
10
-59.9999999999999
20
30.0333837103401
30
0
41
1
10
-59.9999999999999
20
31.1885173679486
30
0
41
1
10
-59.9999999999999
20
32.1329288173201
30
0
41
1
10
-59.9999999999999
20
32.8505413389776
30
0
41
1
10
-59.9999999999999
20
33.3205059792771
30
0
41
1
10
-59.9999999999999
20
33.4548110647066
30
0
41
1
10
-59.9999999999999
20
33.4633423487754
30
0
41
1
10
-59.9999999999999
20
33.463635654625
30
0
0
SPLINE
5
162
100
AcDbEntity
8
SK1
62
256
6
ByLayer
370
18
48
1
60
0
100
AcDbSpline
70
4
71
3
72
35
73
31
40
0
40
0
40
0
40
0
40
0.249999999999997
40
0.249999999999997
40
0.374999999999998
40
0.374999999999998
40
0.499999999999999
40
0.499999999999999
40
0.624999999999999
40
0.624999999999999
40
0.687500000000001
40
0.687500000000001
40
0.750000000000002
40
0.750000000000002
40
0.812500000000004
40
0.812500000000004
40
0.843750000000004
40
0.843750000000004
40
0.875000000000005
40
0.875000000000005
40
0.906250000000006
40
0.906250000000006
40
0.921875000000006
40
0.921875000000006
40
0.937500000000007
40
0.937500000000007
40
0.953125000000007
40
0.953125000000007
40
0.968750000000008
40
1
40
1
40
1
40
1
41
1
10
-0.200000000000017
20
-6.81513478724611
30
0
41
1
10
-0.200338559745831
20
-6.75019455649687
30
0
41
1
10
-0.202015290054646
20
-6.68521895117203
30
0
41
1
10
-0.207341087389409
20
-6.58770581547981
30
0
41
1
10
-0.209590420526951
20
-6.55519323641431
30
0
41
1
10
-0.215316946322531
20
-6.4901547060374
30
0
41
1
10
-0.218787497090688
20
-6.45762862829326
30
0
41
1
10
-0.227462754000754
20
-6.39257019354176
30
0
41
1
10
-0.23263600663239
20
-6.36013139183518
30
0
41
1
10
-0.242440199067005
20
-6.31178890673766
30
0
41
1
10
-0.246061015445633
20
-6.29569872196828
30
0
41
1
10
-0.254247154374525
20
-6.26378985464163
30
0
41
1
10
-0.258796103956485
20
-6.24800183842427
30
0
41
1
10
-0.26928915316779
20
-6.21693652516302
30
0
41
1
10
-0.275203088231365
20
-6.20164812034517
30
0
41
1
10
-0.285975269686759
20
-6.17941326237553
30
0
41
1
10
-0.289887109237753
20
-6.17211949294256
30
0
41
1
10
-0.298743534933749
20
-6.15791144208123
30
0
41
1
10
-0.303619948323529
20
-6.15109580779926
30
0
41
1
10
-0.314768934999933
20
-6.13864094702626
30
0
41
1
10
-0.32096631649344
20
-6.13307709934361
30
0
41
1
10
-0.331608689070237
20
-6.12677507307677
30
0
41
1
10
-0.335424941304297
20
-6.12501830371843
30
0
41
1
10
-0.343229294830081
20
-6.12257787152618
30
0
41
1
10
-0.347325836481844
20
-6.12186429918972
30
0
41
1
10
-0.355452660466
20
-6.12159300997945
30
0
41
1
10
-0.359469499195768
20
-6.12201356674984
30
0
41
1
10
-0.367420535136233
20
-6.12384711124531
30
0
41
1
10
-0.378768531813392
20
-6.12796735398592
30
0
41
1
10
-0.388797444116932
20
-6.13511490508347
30
0
41
1
10
-0.39491379981132
20
-6.1404895479867
30
0
0
SPLINE
5
163
100
AcDbEntity
8
SK1
62
256
6
ByLayer
370
18
48
1
60
0
100
AcDbSpline
70
4
71
3
72
38
73
34
40
0
40
0
40
0
40
0
40
0.0156250000000012
40
0.0156250000000012
40
0.0312500000000023
40
0.0312500000000023
40
0.0468750000000035
40
0.0468750000000035
40
0.0625000000000046
40
0.0625000000000046
40
0.0781250000000058
40
0.0781250000000058
40
0.093750000000007
40
0.093750000000007
40
0.125000000000007
40
0.125000000000007
40
0.156250000000007
40
0.156250000000007
40
0.187500000000006
40
0.187500000000006
40
0.250000000000006
40
0.250000000000006
40
0.312500000000005
40
0.312500000000005
40
0.375000000000005
40
0.375000000000005
40
0.500000000000004
40
0.500000000000004
40
0.625000000000003
40
0.625000000000003
40
0.750000000000002
40
0.750000000000002
40
1
40
1
40
1
40
1
41
1
10
-0.394913799811263
20
6.14048931519881
30
0
41
1
10
-0.391859175197254
20
6.13780511628147
30
0
41
1
10
-0.388686559823725
20
6.13529574333785
30
0
41
1
10
-0.382033424453482
20
6.13073337924817
30
0
41
1
10
-0.37852947079017
20
6.12866765624966
30
0
41
1
10
-0.37121101952664
20
6.12522181033523
30
0
41
1
10
-0.367433379654869
20
6.12385483366967
30
0
41
1
10
-0.359574524938068
20
6.12203263759289
30
0
41
1
10
-0.35547204290279
20
6.12159560817219
30
0
41
1
10
-0.34738263983391
20
6.12185872817406
30
0
41
1
10
-0.343285185316574
20
6.12256411001283
30
0
41
1
10
-0.335452839534213
20
6.1250054440053
30
0
41
1
10
-0.331693726093022
20
6.1267288459369
30
0
41
1
10
-0.320936929416774
20
6.13308563425852
30
0
41
1
10
-0.314749234501505
20
6.13865828268484
30
0
41
1
10
-0.303586892285011
20
6.15113696370872
30
0
41
1
10
-0.298759657726578
20
6.15789253941819
30
0
41
1
10
-0.289962437596159
20
6.17199129036317
30
0
41
1
10
-0.285990787434173
20
6.17937676918206
30
0
41
1
10
-0.275088323518133
20
6.20189327718197
30
0
41
1
10
-0.269151523758893
20
6.21729962361047
30
0
41
1
10
-0.258638343325884
20
6.24851404682823
30
0
41
1
10
-0.254096489237071
20
6.2643324397734
30
0
41
1
10
-0.245933915331676
20
6.29623991319608
30
0
41
1
10
-0.242319543002253
20
6.31233859574394
30
0
41
1
10
-0.232501591303219
20
6.36088659443806
30
0
41
1
10
-0.227355749960736
20
6.39329057484417
30
0
41
1
10
-0.218731591997454
20
6.45813108693864
30
0
41
1
10
-0.21527619678875
20
6.49056858627654
30
0
41
1
10
-0.209571318882297
20
6.555459254276
30
0
41
1
10
-0.207328217206253
20
6.58791268903786
30
0
41
1
10
-0.202014906793778
20
6.68528329279224
30
0
41
1
10
-0.200338479334306
20
6.75020990600598
30
0
41
1
10
-0.199999999999989
20
6.81513476249575
30
0
0
SPLINE
5
164
100
AcDbEntity
8
SK1
62
256
6
ByLayer
370
13
48
1
60
0
100
AcDbSpline
70
4
71
3
72
27
73
23
40
0
40
0
40
0
40
0
40
0.0125014890469668
40
0.0431281921218593
40
0.0737548951967518
40
0.104381598271644
40
0.135008301346537
40
0.196261707496322
40
0.257515113646107
40
0.318768519795892
40
0.380021925945677
40
0.441275332095462
40
0.502528738245247
40
0.563782144395032
40
0.625035550544817
40
0.686288956694602
40
0.747542362844387
40
0.808795768994172
40
0.870049175143957
40
0.931302581293742
40
0.992555987443527
40
1
40
1
40
1
40
1
41
1
10
-0.39491379981132
20
-6.14048954798812
30
0
41
1
10
-0.39491379981132
20
-6.36440300196199
30
0
41
1
10
-0.39491379981132
20
-7.13289945093021
30
0
41
1
10
-0.39491379981132
20
-8.42331075216447
30
0
41
1
10
-0.39491379981132
20
-9.98816040557102
30
0
41
1
10
-0.394913799811349
20
-11.5102859417502
30
0
41
1
10
-0.394913799811349
20
-13.4834575653738
30
0
41
1
10
-0.394913799811349
20
-15.8428434722906
30
0
41
1
10
-0.394913799811349
20
-18.5056011360314
30
0
41
1
10
-0.394913799811377
20
-20.9993892841997
30
0
41
1
10
-0.394913799811377
20
-23.3230322455299
30
0
41
1
10
-0.394913799811377
20
-25.4742063724191
30
0
41
1
10
-0.394913799811405
20
-27.449451757043
30
0
41
1
10
-0.394913799811405
20
-29.2440107058567
30
0
41
1
10
-0.394913799811405
20
-30.8516499008688
30
0
41
1
10
-0.394913799811405
20
-32.2643689271589
30
0
41
1
10
-0.394913799811405
20
-33.4720135663698
30
0
41
1
10
-0.394913799811434
20
-34.4615411736756
30
0
41
1
10
-0.394913799811434
20
-35.2159258037197
30
0
41
1
10
-0.394913799811434
20
-35.7124173230212
30
0
41
1
10
-0.394913799811434
20
-35.8588061333675
30
0
41
1
10
-0.394913799811434
20
-35.8655011589904
30
0
41
1
10
-0.394913799811434
20
-35.8653758446084
30
0
0
SPLINE
5
165
100
AcDbEntity
8
SK1
62
256
6
ByLayer
370
18
48
1
60
0
100
AcDbSpline
70
4
71
3
72
44
73
40
40
0
40
0
40
0
40
0
40
0.0312499999999969
40
0.0312499999999969
40
0.0468749999999956
40
0.0468749999999956
40
0.0624999999999944
40
0.0781249999999932
40
0.0781249999999932
40
0.0859374999999929
40
0.0859374999999929
40
0.0937499999999926
40
0.109374999999992
40
0.109374999999992
40
0.124999999999992
40
0.124999999999992
40
0.156249999999991
40
0.156249999999991
40
0.18749999999999
40
0.18749999999999
40
0.218749999999989
40
0.218749999999989
40
0.249999999999988
40
0.249999999999988
40
0.312499999999988
40
0.312499999999988
40
0.374999999999987
40
0.374999999999987
40
0.437499999999987
40
0.437499999999987
40
0.499999999999987
40
0.499999999999987
40
0.62499999999999
40
0.62499999999999
40
0.749999999999993
40
0.749999999999993
40
0.874999999999997
40
0.874999999999997
40
1
40
1
40
1
40
1
41
1
10
-0.39491379981132
20
-6.14048954798807
30
0
41
1
10
-0.411320296904194
20
-6.15490647656026
30
0
41
1
10
-0.428692575635296
20
-6.16812049444115
30
0
41
1
10
-0.456847871703985
20
-6.18533833468359
30
0
41
1
10
-0.466645793041778
20
-6.190662165194
30
0
41
1
10
-0.486679220255837
20
-6.20001925474503
30
0
41
1
10
-0.507195340378559
20
-6.20812819851409
30
0
41
1
10
-0.528819088976064
20
-6.21337534589202
30
0
41
1
10
-0.545522979159642
20
-6.21605544304009
30
0
41
1
10
-0.551173881687731
20
-6.21673571501583
30
0
41
1
10
-0.562387828318549
20
-6.21763160756586
30
0
41
1
10
-0.579171588290023
20
-6.21829610951232
30
0
41
1
10
-0.595845611378707
20
-6.21695442895037
30
0
41
1
10
-0.617982640268394
20
-6.21342877796661
30
0
41
1
10
-0.629092493063609
20
-6.21075953330535
30
0
41
1
10
-0.661178894788975
20
-6.20061034113303
30
0
41
1
10
-0.681215510343293
20
-6.19103427162474
30
0
41
1
10
-0.719340518859042
20
-6.16783435052412
30
0
41
1
10
-0.736840009746544
20
-6.15457756836202
30
0
41
1
10
-0.769702703210783
20
-6.12594888888395
30
0
41
1
10
-0.785070378501985
20
-6.11054891190958
30
0
41
1
10
-0.814264246961585
20
-6.07816953792792
30
0
41
1
10
-0.827902203448076
20
-6.06139145953347
30
0
41
1
10
-0.866591379680074
20
-6.00998831052675
30
0
41
1
10
-0.889552422423549
20
-5.97421011732268
30
0
41
1
10
-0.93205245088015
20
-5.90079746755288
30
0
41
1
10
-0.951550604545673
20
-5.8631417358763
30
0
41
1
10
-0.988106509998431
20
-5.78648090037512
30
0
41
1
10
-1.00516682254644
20
-5.7474209945816
30
0
41
1
10
-1.03715984705502
20
-5.66894819794635
30
0
41
1
10
-1.0521344144392
20
-5.62944051499005
30
0
41
1
10
-1.09469182958466
20
-5.51026258495523
30
0
41
1
10
-1.11994311520161
20
-5.42994544157921
30
0
41
1
10
-1.1662622239964
20
-5.2680431737038
30
0
41
1
10
-1.18730158957433
20
-5.18645153904424
30
0
41
1
10
-1.22623577285506
20
-5.02222827252785
30
0
41
1
10
-1.24411971327538
20
-4.93959396507074
30
0
41
1
10
-1.27738506598777
20
-4.77341902800811
30
0
41
1
10
-1.2927621929098
20
-4.68987741371876
30
0
41
1
10
-1.30710678118655
20
-4.60592606074874
30
0
0
SPLINE
5
166
100
AcDbEntity
8
SK1
62
256
6
ByLayer
370
18
48
1
60
0
100
AcDbSpline
70
4
71
3
72
52
73
48
40
0
40
0
40
0
40
0
40
0.124999999999997
40
0.124999999999997
40
0.249999999999993
40
0.249999999999993
40
0.312499999999993
40
0.312499999999993
40
0.374999999999993
40
0.374999999999993
40
0.499999999999988
40
0.499999999999988
40
0.562499999999987
40
0.562499999999987
40
0.624999999999986
40
0.624999999999986
40
0.687499999999985
40
0.687499999999985
40
0.718749999999985
40
0.718749999999985
40
0.749999999999985
40
0.749999999999985
40
0.781249999999984
40
0.781249999999984
40
0.812499999999984
40
0.812499999999984
40
0.828124999999985
40
0.828124999999985
40
0.843749999999986
40
0.843749999999986
40
0.859374999999988
40
0.859374999999988
40
0.874999999999989
40
0.89062499999999
40
0.89062499999999
40
0.898437499999991
40
0.898437499999991
40
0.906249999999991
40
0.921874999999992
40
0.921874999999992
40
0.937499999999993
40
0.937499999999993
40
0.968749999999995
40
0.968749999999995
40
0.984374999999998
40
0.984374999999998
40
1
40
1
40
1
40
1
41
1
10
-1.30710678118652
20
4.60592664169553
30
0
41
1
10
-1.29275891091695
20
4.68989714720857
30
0
41
1
10
-1.27736962638437
20
4.77350841426141
30
0
41
1
10
-1.24404820493325
20
4.9399397228791
30
0
41
1
10
-1.22612064508869
20
5.02276061332566
30
0
41
1
10
-1.19681208321498
20
5.14631322592794
30
0
41
1
10
-1.18663768174733
20
5.18738396050338
30
0
41
1
10
-1.16535505328312
20
5.26927678319413
30
0
41
1
10
-1.15423917443448
20
5.31012638756459
30
0
41
1
10
-1.11931731285438
20
5.43201276986741
30
0
41
1
10
-1.09398428792127
20
5.51239595526584
30
0
41
1
10
-1.05148525648869
20
5.63117963544465
30
0
41
1
10
-1.03656113937748
20
5.67047297182705
30
0
41
1
10
-1.00477875230897
20
5.74831460023262
30
0
41
1
10
-0.98792647788153
20
5.78686496693513
30
0
41
1
10
-0.951618923970926
20
5.86299160032428
30
0
41
1
10
-0.932180037806262
20
5.90057354452273
30
0
41
1
10
-0.900153001667064
20
5.95590061943511
30
0
41
1
10
-0.888962127258139
20
5.9742145038457
30
0
41
1
10
-0.865496992525976
20
6.01015344582646
30
0
41
1
10
-0.853252514704224
20
6.02774095695474
30
0
41
1
10
-0.827458831985751
20
6.06194863274374
30
0
41
1
10
-0.813913312977633
20
6.07857148158422
30
0
41
1
10
-0.785075891824761
20
6.11052946629451
30
0
41
1
10
-0.769793584513906
20
6.12587159294549
30
0
41
1
10
-0.744972277821574
20
6.14749176791878
30
0
41
1
10
-0.736378832912976
20
6.15445714630403
30
0
41
1
10
-0.718692978023824
20
6.16759076245796
30
0
41
1
10
-0.709571748065656
20
6.17378612133842
30
0
41
1
10
-0.690657240434462
20
6.18528091245651
30
0
41
1
10
-0.680808653574928
20
6.19060634315309
30
0
41
1
10
-0.660548602982999
20
6.20002330412603
30
0
41
1
10
-0.63986137796212
20
6.20815612202625
30
0
41
1
10
-0.618206929166234
20
6.21338279886066
30
0
41
1
10
-0.601549235398664
20
6.21605069297289
30
0
41
1
10
-0.595894684359621
20
6.21673259001068
30
0
41
1
10
-0.584623491536121
20
6.2176327300308
30
0
41
1
10
-0.567784303200085
20
6.2182961509402
30
0
41
1
10
-0.55114318445527
20
6.21694745395433
30
0
41
1
10
-0.529123888329934
20
6.21343336489906
30
0
41
1
10
-0.518101951885455
20
6.21078160435087
30
0
41
1
10
-0.486210164870357
20
6.20067411916989
30
0
41
1
10
-0.466388186231001
20
6.19116060030751
30
0
41
1
10
-0.438186505727458
20
6.17393188540939
30
0
41
1
10
-0.429090292917067
20
6.16771263779106
30
0
41
1
10
-0.411568394116813
20
6.15460321336286
30
0
41
1
10
-0.403113287056044
20
6.14769447379137
30
0
41
1
10
-0.394913799811263
20
6.14048931519875
30
0
0
SPLINE
5
167
100
AcDbEntity
8
SK1
62
256
6
ByLayer
370
13
48
1
60
0
100
AcDbSpline
70
4
71
3
72
27
73
23
40
0
40
0
40
0
40
0
40
0.0074621416428386
40
0.0687144287315515
40
0.129966715820264
40
0.191219002908977
40
0.25247128999769
40
0.313723577086403
40
0.374975864175116
40
0.436228151263829
40
0.497480438352542
40
0.558732725441255
40
0.619985012529968
40
0.681237299618681
40
0.742489586707394
40
0.803741873796106
40
0.864994160884819
40
0.895620304429176
40
0.926246447973532
40
0.956872591517889
40
0.987498735062245
40
1
40
1
40
1
40
1
41
1
10
-0.39491379981115
20
35.8653747195649
30
0
41
1
10
-0.39491379981115
20
35.8655045632919
30
0
41
1
10
-0.394913799811121
20
35.8588269022231
30
0
41
1
10
-0.39491379981115
20
35.7124176199326
30
0
41
1
10
-0.39491379981115
20
35.2159257001025
30
0
41
1
10
-0.39491379981115
20
34.4615405790489
30
0
41
1
10
-0.394913799811178
20
33.4720136264138
30
0
41
1
10
-0.394913799811178
20
32.2643688967805
30
0
41
1
10
-0.394913799811178
20
30.8516497262062
30
0
41
1
10
-0.394913799811178
20
29.2440107893824
30
0
41
1
10
-0.394913799811178
20
27.4494515900979
30
0
41
1
10
-0.394913799811206
20
25.4742065689819
30
0
41
1
10
-0.394913799811206
20
23.3230321121426
30
0
41
1
10
-0.394913799811206
20
20.9993893665863
30
0
41
1
10
-0.394913799811235
20
18.505601336728
30
0
41
1
10
-0.394913799811235
20
15.8428433477203
30
0
41
1
10
-0.394913799811235
20
13.4834574083321
30
0
41
1
10
-0.394913799811235
20
11.510286218877
30
0
41
1
10
-0.394913799811263
20
9.98816027318446
30
0
41
1
10
-0.394913799811263
20
8.42331104678902
30
0
41
1
10
-0.394913799811263
20
7.13289939289211
30
0
41
1
10
-0.394913799811263
20
6.36440284602151
30
0
41
1
10
-0.394913799811263
20
6.14048931519881
30
0
0
SPLINE
5
168
100
AcDbEntity
8
SK1
62
256
6
ByLayer
370
18
48
1
60
0
100
AcDbSpline
70
4
71
3
72
29
73
25
40
0
40
0
40
0
40
0
40
0.125
40
0.125
40
0.25
40
0.25
40
0.3125
40
0.3125
40
0.34375
40
0.34375
40
0.375
40
0.375
40
0.5
40
0.5
40
0.625
40
0.625
40
0.75
40
0.75
40
0.78125
40
0.78125
40
0.8125
40
0.875
40
0.875
40
1
40
1
40
1
40
1
41
1
10
-1.30710678118655
20
-4.60592606074869
30
0
41
1
10
-1.37081125400846
20
-4.23309718755536
30
0
41
1
10
-1.42988244415665
20
-3.85762223498023
30
0
41
1
10
-1.53601697125637
20
-3.10046674502002
30
0
41
1
10
-1.58309608481946
20
-2.71879180004015
30
0
41
1
10
-1.6418538836833
20
-2.14065366130035
30
0
41
1
10
-1.65945940647146
20
-1.94700181642941
30
0
41
1
10
-1.68249845293482
20
-1.65497671689536
30
0
41
1
10
-1.68961870290613
20
-1.55733947190663
30
0
41
1
10
-1.70266427629372
20
-1.36168548678421
30
0
41
1
10
-1.70857393117737
20
-1.2639093425509
30
0
41
1
10
-1.73495061568829
20
-0.775288794588619
30
0
41
1
10
-1.7457641954185
20
-0.385233065375189
30
0
41
1
10
-1.74561737258446
20
0.393133285396345
30
0
41
1
10
-1.73466515643025
20
0.781444423561027
30
0
41
1
10
-1.69273604411049
20
1.55642983746571
30
0
41
1
10
-1.66186877360201
20
1.94311068769235
30
0
41
1
10
-1.61291274879554
20
2.42556605138475
30
0
41
1
10
-1.60259660498775
20
2.52208429114984
30
0
41
1
10
-1.58103161178599
20
2.714623369474
30
0
41
1
10
-1.54729100893732
20
3.0026557867829
30
0
41
1
10
-1.50965797271613
20
3.28847396604806
30
0
41
1
10
-1.42991858386861
20
3.85743979515036
30
0
41
1
10
-1.37079534340222
20
4.23319113014099
30
0
41
1
10
-1.30710678118652
20
4.60592664169553
30
0
0
SPLINE
5
169
100
AcDbEntity
8
SK1
62
256
6
ByLayer
370
13
48
1
60
0
100
AcDbSpline
70
4
71
3
72
55
73
51
40
0
40
0
40
0
40
0
40
0.0031234992345779
40
0.0307296936549033
40
0.0583358880752286
40
0.0859420824955539
40
0.113548276915879
40
0.141154471336205
40
0.16876066575653
40
0.196366860176855
40
0.223973054597181
40
0.251579249017506
40
0.279185443437831
40
0.306791637858157
40
0.334397832278482
40
0.362004026698807
40
0.389610221119133
40
0.403413318329295
40
0.417216415539458
40
0.43101951274962
40
0.444822609959783
40
0.458625707169946
40
0.472428804380108
40
0.486231901590271
40
0.493133450195352
40
0.500034998800434
40
0.506936547405515
40
0.513838096010596
40
0.527641193220759
40
0.541444290430922
40
0.555247387641084
40
0.569050484851247
40
0.58285358206141
40
0.596656679271572
40
0.610459776481735
40
0.63806597090206
40
0.665672165322386
40
0.693278359742711
40
0.720884554163036
40
0.748490748583362
40
0.776096943003687
40
0.803703137424012
40
0.831309331844338
40
0.858915526264663
40
0.886521720684988
40
0.914127915105313
40
0.941734109525639
40
0.969340303945964
40
0.99694649836629
40
1
40
1
40
1
40
1
41
1
10
-1.99503997793917
20
35.8251941583462
30
0
41
1
10
-1.99503997793917
20
35.8252016000075
30
0
41
1
10
-1.99503997793917
20
35.8180399259984
30
0
41
1
10
-1.99503997793917
20
35.6723836848469
30
0
41
1
10
-1.99503997793917
20
35.1763357577499
30
0
41
1
10
-1.99503997793917
20
34.4225661075322
30
0
41
1
10
-1.99503997793917
20
33.4337942626939
30
0
41
1
10
-1.99503997793917
20
32.2270284220684
30
0
41
1
10
-1.99503997793917
20
30.8153057523624
30
0
41
1
10
-1.9950399779392
20
29.2087813923734
30
0
41
1
10
-1.9950399779392
20
27.4154610031465
30
0
41
1
10
-1.9950399779392
20
25.4415911921648
30
0
41
1
10
-1.9950399779392
20
23.2919475472127
30
0
41
1
10
-1.99503997793923
20
20.970019599504
30
0
41
1
10
-1.99503997793923
20
18.4781727978133
30
0
41
1
10
-1.99503997793923
20
15.8176474286293
30
0
41
1
10
-1.99503997793926
20
13.4605449192125
30
0
41
1
10
-1.99503997793926
20
11.4892556686531
30
0
41
1
10
-1.99503997793926
20
9.96882852636497
30
0
41
1
10
-1.99503997793926
20
8.40590997758017
30
0
41
1
10
-1.99503997793928
20
6.80062156131368
30
0
41
1
10
-1.99503997793928
20
5.15362303649027
30
0
41
1
10
-1.99503997793928
20
3.46682572646461
30
0
41
1
10
-1.99503997793928
20
2.03246205572793
30
0
41
1
10
-1.99503997793928
20
0.872327198701271
30
0
41
1
10
-1.99503997793928
20
1.87858404E-08
30
0
41
1
10
-1.99503997793931
20
-0.872327145714451
30
0
41
1
10
-1.99503997793931
20
-2.03246197307198
30
0
41
1
10
-1.99503997793931
20
-3.46682565849329
30
0
41
1
10
-1.99503997793931
20
-5.15362300763576
30
0
41
1
10
-1.99503997793931
20
-6.80062160559305
30
0
41
1
10
-1.99503997793934
20
-8.40590968396612
30
0
41
1
10
-1.99503997793934
20
-9.96882866001368
30
0
41
1
10
-1.99503997793934
20
-11.489255389582
30
0
41
1
10
-1.99503997793934
20
-13.4605450811038
30
0
41
1
10
-1.99503997793937
20
-15.8176475504657
30
0
41
1
10
-1.99503997793937
20
-18.4781725958541
30
0
41
1
10
-1.99503997793937
20
-20.9700195189174
30
0
41
1
10
-1.99503997793937
20
-23.2919476800301
30
0
41
1
10
-1.9950399779394
20
-25.4415909958108
30
0
41
1
10
-1.9950399779394
20
-27.4154611704439
30
0
41
1
10
-1.9950399779394
20
-29.2087813089343
30
0
41
1
10
-1.9950399779394
20
-30.8153059272805
30
0
41
1
10
-1.99503997793943
20
-32.2270284519257
30
0
41
1
10
-1.99503997793943
20
-33.4337942038213
30
0
41
1
10
-1.99503997793943
20
-34.4225667021769
30
0
41
1
10
-1.99503997793943
20
-35.1763358604717
30
0
41
1
10
-1.99503997793943
20
-35.672383387921
30
0
41
1
10
-1.99503997793943
20
-35.8178649589525
30
0
41
1
10
-1.9950399779394
20
-35.8251687567467
30
0
41
1
10
-1.9950399779394
20
-35.825193728107
30
0
0
SPLINE
5
16A
100
AcDbEntity
8
SK1
62
256
6
ByLayer
370
18
48
1
60
0
100
AcDbSpline
70
4
71
3
72
53
73
49
40
0
40
0
40
0
40
0
40
0.0212885202770087
40
0.0494480161289551
40
0.0776075119809014
40
0.105767007832848
40
0.133926503684794
40
0.16208599953674
40
0.190245495388687
40
0.218404991240633
40
0.24656448709258
40
0.274723982944526
40
0.302883478796472
40
0.331042974648419
40
0.359202470500365
40
0.387361966352311
40
0.401441714278285
40
0.415521462204258
40
0.429601210130231
40
0.443680958056204
40
0.457760705982177
40
0.47184045390815
40
0.485920201834124
40
0.49296007579711
40
0.499999949760097
40
0.507039823723083
40
0.51407969768607
40
0.528159445612043
40
0.542239193538016
40
0.55631894146399
40
0.570398689389963
40
0.584478437315936
40
0.598558185241909
40
0.612637933167882
40
0.640797429019829
40
0.668956924871775
40
0.697116420723721
40
0.725275916575668
40
0.753435412427614
40
0.78159490827956
40
0.809754404131507
40
0.837913899983453
40
0.8660733958354
40
0.894232891687346
40
0.922392387539292
40
0.950551883391239
40
0.978711379243185
40
1
40
1
40
1
40
1
41
1
10
-2.19999999999987
20
35.9985343291421
30
0
41
1
10
-2.19999999999987
20
35.9683617174162
30
0
41
1
10
-2.19999999999987
20
35.8259680693888
30
0
41
1
10
-2.19999999999987
20
35.36828810137
30
0
41
1
10
-2.19999999999987
20
34.6115343329044
30
0
41
1
10
-2.19999999999987
20
33.619101338222
30
0
41
1
10
-2.19999999999987
20
32.4080741929617
30
0
41
1
10
-2.19999999999987
20
30.9915199760065
30
0
41
1
10
-2.1999999999999
20
29.3795915759284
30
0
41
1
10
-2.1999999999999
20
27.5802648002379
30
0
41
1
10
-2.1999999999999
20
25.5997272652693
30
0
41
1
10
-2.1999999999999
20
23.4426614592353
30
0
41
1
10
-2.19999999999993
20
21.1124192921534
30
0
41
1
10
-2.19999999999993
20
18.6111604207771
30
0
41
1
10
-2.19999999999993
20
15.9398101657229
30
0
41
1
10
-2.19999999999996
20
13.5716364167829
30
0
41
1
10
-2.19999999999996
20
11.5912225613334
30
0
41
1
10
-2.19999999999996
20
10.0625587489356
30
0
41
1
10
-2.19999999999996
20
8.49027928497594
30
0
41
1
10
-2.19999999999999
20
6.8741257988703
30
0
41
1
10
-2.19999999999999
20
5.21416685618908
30
0
41
1
10
-2.19999999999999
20
3.51137573607468
30
0
41
1
10
-2.19999999999999
20
2.05962586413813
30
0
41
1
10
-2.19999999999999
20
0.88485774265564
30
0
41
1
10
-2.19999999999999
20
2.16043077E-08
30
0
41
1
10
-2.20000000000002
20
-0.884857708103027
30
0
41
1
10
-2.20000000000002
20
-2.0596258002638
30
0
41
1
10
-2.20000000000002
20
-3.5113756574965
30
0
41
1
10
-2.20000000000002
20
-5.21416680688048
30
0
41
1
10
-2.20000000000002
20
-6.87412587722235
30
0
41
1
10
-2.20000000000005
20
-8.49027898646239
30
0
41
1
10
-2.20000000000005
20
-10.0625588764647
30
0
41
1
10
-2.20000000000005
20
-11.5912222916892
30
0
41
1
10
-2.20000000000005
20
-13.5716365551607
30
0
41
1
10
-2.20000000000005
20
-15.9398103008149
30
0
41
1
10
-2.20000000000007
20
-18.6111602249392
30
0
41
1
10
-2.20000000000007
20
-21.1124192028391
30
0
41
1
10
-2.20000000000007
20
-23.4426615948154
30
0
41
1
10
-2.2000000000001
20
-25.5997270679032
30
0
41
1
10
-2.2000000000001
20
-27.5802649658272
30
0
41
1
10
-2.2000000000001
20
-29.3795914920701
30
0
41
1
10
-2.2000000000001
20
-30.991520149686
30
0
41
1
10
-2.20000000000013
20
-32.4080742253461
30
0
41
1
10
-2.20000000000013
20
-33.61910127367
30
0
41
1
10
-2.20000000000013
20
-34.6115349274623
30
0
41
1
10
-2.20000000000013
20
-35.3682882084331
30
0
41
1
10
-2.20000000000013
20
-35.8259683979512
30
0
41
1
10
-2.20000000000013
20
-35.9683620778396
30
0
41
1
10
-2.20000000000013
20
-35.9985346703041
30
0
0
SPLINE
5
16B
100
AcDbEntity
8
SK1
62
256
6
ByLayer
370
18
48
1
60
0
100
AcDbSpline
70
4
71
3
72
53
73
49
40
0
40
0
40
0
40
0
40
0.0213321386161418
40
0.0494890687065382
40
0.0776459987969347
40
0.105802928887331
40
0.133959858977727
40
0.162116789068124
40
0.19027371915852
40
0.218430649248917
40
0.246587579339313
40
0.27474450942971
40
0.302901439520106
40
0.331058369610502
40
0.359215299700899
40
0.387372229791295
40
0.401450694836493
40
0.415529159881692
40
0.42960762492689
40
0.443686089972088
40
0.457764555017286
40
0.471843020062485
40
0.485921485107683
40
0.492960717630282
40
0.499999950152881
40
0.50703918267548
40
0.514078415198079
40
0.528156880243278
40
0.542235345288476
40
0.556313810333674
40
0.570392275378872
40
0.58447074042407
40
0.598549205469268
40
0.612627670514467
40
0.640784600604863
40
0.668941530695259
40
0.697098460785656
40
0.725255390876052
40
0.753412320966449
40
0.781569251056845
40
0.809726181147242
40
0.837883111237638
40
0.866040041328034
40
0.894196971418431
40
0.922353901508827
40
0.950510831599224
40
0.97866776168962
40
1
40
1
40
1
40
1
41
1
10
-57.9999999999999
20
34.597798335495
30
0
41
1
10
-57.9999999999999
20
34.5687765958756
30
0
41
1
10
-57.9999999999999
20
34.4314143227705
30
0
41
1
10
-57.9999999999999
20
33.9876977370147
30
0
41
1
10
-57.9999999999999
20
33.2524068213664
30
0
41
1
10
-57.9999999999999
20
32.2863061344951
30
0
41
1
10
-57.9999999999999
20
31.1059278263756
30
0
41
1
10
-57.9999999999999
20
29.7241238367491
30
0
41
1
10
-57.9999999999999
20
28.1510632386217
30
0
41
1
10
-57.9999999999999
20
26.3949365568698
30
0
41
1
10
-57.9999999999999
20
24.4623556934106
30
0
41
1
10
-57.9999999999999
20
22.3586727420947
30
0
41
1
10
-57.9999999999999
20
20.088229434133
30
0
41
1
10
-57.9999999999999
20
17.6546655565837
30
0
41
1
10
-57.9999999999999
20
15.0611717780169
30
0
41
1
10
-58
20
12.7726263697316
30
0
41
1
10
-58
20
10.8578399578044
30
0
41
1
10
-58
20
9.3884172423019
30
0
41
1
10
-58
20
7.88346485051159
30
0
41
1
10
-58
20
6.34545685846496
30
0
41
1
10
-58
20
4.77871390718593
30
0
41
1
10
-58
20
3.19095602751759
30
0
41
1
10
-58
20
1.86425397420436
30
0
41
1
10
-58
20
0.794733559135977
30
0
41
1
10
-58
20
1.3330919E-09
30
0
41
1
10
-58
20
-0.794733391997454
30
0
41
1
10
-58
20
-1.86425377524557
30
0
41
1
10
-58
20
-3.19095602522771
30
0
41
1
10
-58
20
-4.77871400499004
30
0
41
1
10
-58
20
-6.34545669175338
30
0
41
1
10
-58
20
-7.88346458723669
30
0
41
1
10
-58
20
-9.3884174138451
30
0
41
1
10
-58.0000000000001
20
-10.8578396203575
30
0
41
1
10
-58.0000000000001
20
-12.772626677226
30
0
41
1
10
-58.0000000000001
20
-15.0611718177695
30
0
41
1
10
-58.0000000000001
20
-17.6546653167194
30
0
41
1
10
-58.0000000000001
20
-20.0882294075913
30
0
41
1
10
-58.0000000000001
20
-22.3586728578046
30
0
41
1
10
-58.0000000000001
20
-24.4623555033231
30
0
41
1
10
-58.0000000000001
20
-26.3949367347439
30
0
41
1
10
-58.0000000000001
20
-28.1510631577775
30
0
41
1
10
-58.0000000000001
20
-29.724124019337
30
0
41
1
10
-58.0000000000001
20
-31.1059278405836
30
0
41
1
10
-58.0000000000001
20
-32.2863061107906
30
0
41
1
10
-58.0000000000001
20
-33.2524074165479
30
0
41
1
10
-58.0000000000001
20
-33.9876978128523
30
0
41
1
10
-58.0000000000001
20
-34.4314146252759
30
0
41
1
10
-58.0000000000001
20
-34.5687769389064
30
0
41
1
10
-58.0000000000001
20
-34.5977986641529
30
0
0
SPLINE
5
16C
100
AcDbEntity
8
1
62
256
6
ByLayer
370
18
48
1
60
0
100
AcDbSpline
70
4
71
3
72
28
73
24
40
0
40
0
40
0
40
0
40
0.0625000000000112
40
0.0625000000000112
40
0.0937500000000099
40
0.0937500000000099
40
0.125000000000009
40
0.125000000000009
40
0.250000000000012
40
0.250000000000012
40
0.375000000000016
40
0.375000000000016
40
0.437500000000012
40
0.437500000000012
40
0.500000000000008
40
0.500000000000008
40
0.625000000000006
40
0.625000000000006
40
0.750000000000004
40
0.750000000000004
40
0.875000000000002
40
0.875000000000002
40
1
40
1
40
1
40
1
41
1
10
18.2113248654053
20
47.699112336314
30
0
41
1
10
18.2270595596559
20
47.699112336314
30
0
41
1
10
18.2425066022339
20
47.6986325211243
30
0
41
1
10
18.265284104851
20
47.6972565620906
30
0
41
1
10
18.272810913383
20
47.6966882205613
30
0
41
1
10
18.2877376616229
20
47.6953394645318
30
0
41
1
10
18.2951724971557
20
47.6945543357694
30
0
41
1
10
18.3314372006437
20
47.690189691897
30
0
41
1
10
18.3578281265271
20
47.685321932856
30
0
41
1
10
18.4069581904137
20
47.6736470656566
30
0
41
1
10
18.4288334491968
20
47.6670413844208
30
0
41
1
10
18.4588809702255
20
47.6563838934507
30
0
41
1
10
18.4684309157004
20
47.6527013060038
30
0
41
1
10
18.4867303490984
20
47.6451099305975
30
0
41
1
10
18.4955010868102
20
47.6411896516379
30
0
41
1
10
18.5204889532972
20
47.6292580497127
30
0
41
1
10
18.5354760545343
20
47.6210513457404
30
0
41
1
10
18.562944944888
20
47.6042440377894
30
0
41
1
10
18.5754177835218
20
47.5956422180835
30
0
41
1
10
18.5983196665244
20
47.5781044545094
30
0
41
1
10
18.6087450830626
20
47.5691680198121
30
0
41
1
10
18.6278436196426
20
47.5509978353522
30
0
41
1
10
18.6364974994729
20
47.541778524855
30
0
41
1
10
18.6443375672975
20
47.5324740593459
30
0
0
SPLINE
5
16D
100
AcDbEntity
8
1
62
256
6
ByLayer
370
18
48
1
60
0
100
AcDbSpline
70
4
71
3
72
32
73
28
40
0
40
0
40
0
40
0
40
0.249999999999997
40
0.249999999999997
40
0.375000000000001
40
0.375000000000001
40
0.437500000000009
40
0.437500000000009
40
0.500000000000018
40
0.500000000000018
40
0.625000000000019
40
0.625000000000019
40
0.687500000000018
40
0.687500000000018
40
0.750000000000016
40
0.750000000000016
40
0.812500000000014
40
0.812500000000014
40
0.843750000000017
40
0.843750000000017
40
0.87500000000002
40
0.87500000000002
40
0.93750000000001
40
0.93750000000001
40
0.968750000000005
40
0.968750000000005
40
1
40
1
40
1
40
1
41
1
10
18.6443375672973
20
15.513346183129
30
0
41
1
10
18.6286630435769
20
15.4563493271806
30
0
41
1
10
18.6099224010159
20
15.400478236028
30
0
41
1
10
18.5756373106803
20
15.3189628763402
30
0
41
1
10
18.563169573401
20
15.2921769035833
30
0
41
1
10
18.542518822586
20
15.2527254134146
30
0
41
1
10
18.5353085448822
20
15.2396968594118
30
0
41
1
10
18.520136596788
20
15.2139209621236
30
0
41
1
10
18.5121625348485
20
15.2011578148612
30
0
41
1
10
18.4871618698533
20
15.1637170876447
30
0
41
1
10
18.4690247593559
20
15.1397658465102
30
0
41
1
10
18.4387714809655
20
15.1059376964121
30
0
41
1
10
18.4281592107111
20
15.0950108035219
30
0
41
1
10
18.4060583457712
20
15.0743622886569
30
0
41
1
10
18.3945344903245
20
15.0645964295523
30
0
41
1
10
18.3703588188408
20
15.0463962702364
30
0
41
1
10
18.3577088110858
20
15.0379598317318
30
0
41
1
10
18.3376838445829
20
15.0265455239634
30
0
41
1
10
18.3308009490982
20
15.0229343649006
30
0
41
1
10
18.316834097529
20
15.0162767768352
30
0
41
1
10
18.309748706295
20
15.0132261076342
30
0
41
1
10
18.2881674439404
20
15.0049610020093
30
0
41
1
10
18.2733483563929
20
15.0006283664656
30
0
41
1
10
18.250367935748
20
14.9961810114779
30
0
41
1
10
18.2425805614475
20
14.995045811105
30
0
41
1
10
18.2270026846868
20
14.9935361300596
30
0
41
1
10
18.2191806796093
20
14.9931545155676
30
0
41
1
10
18.2113248654052
20
14.9931545155676
30
0
0
SPLINE
5
16E
100
AcDbEntity
8
1
62
256
6
ByLayer
370
18
48
1
60
0
100
AcDbSpline
70
4
71
3
72
28
73
24
40
0
40
0
40
0
40
0
40
0.0625000000000043
40
0.0625000000000043
40
0.0937500000000064
40
0.0937500000000064
40
0.125000000000008
40
0.125000000000008
40
0.249999999999996
40
0.249999999999996
40
0.374999999999984
40
0.374999999999984
40
0.437499999999982
40
0.437499999999982
40
0.499999999999979
40
0.499999999999979
40
0.624999999999984
40
0.624999999999984
40
0.749999999999989
40
0.749999999999989
40
0.874999999999995
40
0.874999999999995
40
1
40
1
40
1
40
1
41
1
10
13.7886751345949
20
14.9931545155676
30
0
41
1
10
13.7729404403443
20
14.9931545155676
30
0
41
1
10
13.7574933977663
20
14.9946812225927
30
0
41
1
10
13.7347158951492
20
14.9990572633151
30
0
41
1
10
13.7271890866172
20
15.0008645698073
30
0
41
1
10
13.7122623383773
20
15.0051523955678
30
0
41
1
10
13.7048275028445
20
15.0076478892363
30
0
41
1
10
13.6685627993566
20
15.0215159830931
30
0
41
1
10
13.6421718734731
20
15.0369693753061
30
0
41
1
10
13.5930418095866
20
15.0739427918913
30
0
41
1
10
13.5711665508034
20
15.0948242086536
30
0
41
1
10
13.5411190297747
20
15.1284239846261
30
0
41
1
10
13.5315690842998
20
15.140020314601
30
0
41
1
10
13.5132696509018
20
15.1638931870094
30
0
41
1
10
13.5044989131901
20
15.1762057179681
30
0
41
1
10
13.479511046703
20
15.2136275524138
30
0
41
1
10
13.4645239454659
20
15.2392987486413
30
0
41
1
10
13.4370550551122
20
15.2917202176401
30
0
41
1
10
13.4245822164784
20
15.3184744071189
30
0
41
1
10
13.4016803334758
20
15.3728589673219
30
0
41
1
10
13.3912549169376
20
15.4004909261966
30
0
41
1
10
13.3721563803576
20
15.4565025709992
30
0
41
1
10
13.3635025005273
20
15.4848375519008
30
0
41
1
10
13.3556624327026
20
15.513346183129
30
0
0
SPLINE
5
16F
100
AcDbEntity
8
1
62
256
6
ByLayer
370
18
48
1
60
0
100
AcDbSpline
70
4
71
3
72
32
73
28
40
0
40
0
40
0
40
0
40
0.249999999999982
40
0.249999999999982
40
0.374999999999974
40
0.374999999999974
40
0.437499999999971
40
0.437499999999971
40
0.499999999999967
40
0.499999999999967
40
0.624999999999969
40
0.624999999999969
40
0.687499999999969
40
0.687499999999969
40
0.74999999999997
40
0.74999999999997
40
0.812499999999971
40
0.812499999999971
40
0.843749999999974
40
0.843749999999974
40
0.874999999999976
40
0.874999999999976
40
0.937499999999984
40
0.937499999999984
40
0.968749999999992
40
0.968749999999992
40
1
40
1
40
1
40
1
41
1
10
13.3556624327028
20
47.5324740593459
30
0
41
1
10
13.3713369564233
20
47.5510763302181
30
0
41
1
10
13.3900775989842
20
47.5691972862267
30
0
41
1
10
13.4243626893198
20
47.5954849905103
30
0
41
1
10
13.4368304265991
20
47.6040973909195
30
0
41
1
10
13.4574811774143
20
47.6167466147849
30
0
41
1
10
13.464691455118
20
47.6209179112662
30
0
41
1
10
13.4798634032122
20
47.6291590523765
30
0
41
1
10
13.4878374651517
20
47.6332339095114
30
0
41
1
10
13.5128381301468
20
47.64517153341
30
0
41
1
10
13.5309752406443
20
47.6527863810657
30
0
41
1
10
13.5612285190347
20
47.6635163018191
30
0
41
1
10
13.5718407892891
20
47.6669777320219
30
0
41
1
10
13.593941654229
20
47.6735117109474
30
0
41
1
10
13.6054655096757
20
47.6765983002466
30
0
41
1
10
13.6296411811594
20
47.6823452689501
30
0
41
1
10
13.6422911889144
20
47.6850063201912
30
0
41
1
10
13.6623161554173
20
47.6886039377399
30
0
41
1
10
13.669199050902
20
47.6897416143956
30
0
41
1
10
13.6831659024712
20
47.6918383367784
30
0
41
1
10
13.6902512937052
20
47.6927987245779
30
0
41
1
10
13.7118325560598
20
47.6953999741734
30
0
41
1
10
13.7266516436073
20
47.6967625554497
30
0
41
1
10
13.7496320642522
20
47.6981609444842
30
0
41
1
10
13.7574194385527
20
47.6985178150113
30
0
41
1
10
13.7729973153135
20
47.6989923891761
30
0
41
1
10
13.7808193203909
20
47.6991123363141
30
0
41
1
10
13.788675134595
20
47.6991123363141
30
0
0
SPLINE
5
170
100
AcDbEntity
8
1
62
256
6
ByLayer
370
18
48
1
60
0
100
AcDbSpline
70
4
71
3
72
28
73
24
40
0
40
0
40
0
40
0
40
0.062500000000006
40
0.062500000000006
40
0.093750000000009
40
0.093750000000009
40
0.125000000000012
40
0.125000000000012
40
0.25000000000002
40
0.25000000000002
40
0.375000000000028
40
0.375000000000028
40
0.437500000000026
40
0.437500000000026
40
0.500000000000024
40
0.500000000000024
40
0.625000000000018
40
0.625000000000018
40
0.750000000000012
40
0.750000000000012
40
0.875000000000006
40
0.875000000000006
40
1
40
1
40
1
40
1
41
1
10
13.7886751345946
20
-47.6991123363142
30
0
41
1
10
13.7729404403441
20
-47.6991123363142
30
0
41
1
10
13.757493397766
20
-47.6986325211245
30
0
41
1
10
13.7347158951489
20
-47.6972565620907
30
0
41
1
10
13.7271890866169
20
-47.6966882205615
30
0
41
1
10
13.7122623383771
20
-47.6953394645319
30
0
41
1
10
13.7048275028442
20
-47.6945543357696
30
0
41
1
10
13.6685627993563
20
-47.6901896918972
30
0
41
1
10
13.6421718734729
20
-47.6853219328561
30
0
41
1
10
13.5930418095863
20
-47.6736470656568
30
0
41
1
10
13.5711665508031
20
-47.6670413844209
30
0
41
1
10
13.5411190297744
20
-47.6563838934508
30
0
41
1
10
13.5315690842996
20
-47.652701306004
30
0
41
1
10
13.5132696509016
20
-47.6451099305976
30
0
41
1
10
13.5044989131898
20
-47.641189651638
30
0
41
1
10
13.4795110467028
20
-47.6292580497129
30
0
41
1
10
13.4645239454657
20
-47.6210513457406
30
0
41
1
10
13.4370550551119
20
-47.6042440377896
30
0
41
1
10
13.4245822164781
20
-47.5956422180837
30
0
41
1
10
13.4016803334756
20
-47.5781044545096
30
0
41
1
10
13.3912549169374
20
-47.5691680198123
30
0
41
1
10
13.3721563803573
20
-47.5509978353524
30
0
41
1
10
13.363502500527
20
-47.5417785248551
30
0
41
1
10
13.3556624327024
20
-47.532474059346
30
0
0
SPLINE
5
171
100
AcDbEntity
8
1
62
256
6
ByLayer
370
18
48
1
60
0
100
AcDbSpline
70
4
71
3
72
32
73
28
40
0
40
0
40
0
40
0
40
0.249999999999992
40
0.249999999999992
40
0.374999999999986
40
0.374999999999986
40
0.437499999999981
40
0.437499999999981
40
0.499999999999976
40
0.499999999999976
40
0.624999999999969
40
0.624999999999969
40
0.687499999999968
40
0.687499999999968
40
0.749999999999967
40
0.749999999999967
40
0.812499999999966
40
0.812499999999966
40
0.84374999999997
40
0.84374999999997
40
0.874999999999975
40
0.874999999999975
40
0.937499999999984
40
0.937499999999984
40
0.968749999999992
40
0.968749999999992
40
1
40
1
40
1
40
1
41
1
10
13.3556624327026
20
-15.5133461831292
30
0
41
1
10
13.371336956423
20
-15.4563493271807
30
0
41
1
10
13.390077598984
20
-15.400478236028
30
0
41
1
10
13.4243626893196
20
-15.3189628763402
30
0
41
1
10
13.4368304265989
20
-15.2921769035834
30
0
41
1
10
13.457481177414
20
-15.2527254134146
30
0
41
1
10
13.4646914551177
20
-15.2396968594119
30
0
41
1
10
13.479863403212
20
-15.2139209621236
30
0
41
1
10
13.4878374651515
20
-15.2011578148612
30
0
41
1
10
13.5128381301466
20
-15.1637170876447
30
0
41
1
10
13.5309752406441
20
-15.1397658465102
30
0
41
1
10
13.5612285190345
20
-15.1059376964121
30
0
41
1
10
13.5718407892889
20
-15.095010803522
30
0
41
1
10
13.5939416542287
20
-15.0743622886569
30
0
41
1
10
13.6054655096755
20
-15.0645964295523
30
0
41
1
10
13.6296411811591
20
-15.0463962702364
30
0
41
1
10
13.6422911889142
20
-15.0379598317318
30
0
41
1
10
13.6623161554171
20
-15.0265455239635
30
0
41
1
10
13.6691990509017
20
-15.0229343649006
30
0
41
1
10
13.683165902471
20
-15.0162767768352
30
0
41
1
10
13.690251293705
20
-15.0132261076342
30
0
41
1
10
13.7118325560596
20
-15.0049610020094
30
0
41
1
10
13.7266516436071
20
-15.0006283664656
30
0
41
1
10
13.7496320642519
20
-14.996181011478
30
0
41
1
10
13.7574194385524
20
-14.995045811105
30
0
41
1
10
13.7729973153132
20
-14.9935361300596
30
0
41
1
10
13.7808193203906
20
-14.9931545155676
30
0
41
1
10
13.7886751345948
20
-14.9931545155676
30
0
0
SPLINE
5
172
100
AcDbEntity
8
1
62
256
6
ByLayer
370
18
48
1
60
0
100
AcDbSpline
70
4
71
3
72
28
73
24
40
0
40
0
40
0
40
0
40
0.0625000000000154
40
0.0625000000000154
40
0.0937500000000168
40
0.0937500000000168
40
0.125000000000018
40
0.125000000000018
40
0.25000000000002
40
0.25000000000002
40
0.375000000000023
40
0.375000000000023
40
0.437500000000021
40
0.437500000000021
40
0.500000000000018
40
0.500000000000018
40
0.625000000000014
40
0.625000000000014
40
0.750000000000009
40
0.750000000000009
40
0.875000000000005
40
0.875000000000005
40
1
40
1
40
1
40
1
41
1
10
18.2113248654051
20
-14.9931545155678
30
0
41
1
10
18.2270595596556
20
-14.9931545155678
30
0
41
1
10
18.2425066022337
20
-14.9946812225929
30
0
41
1
10
18.2652841048507
20
-14.9990572633152
30
0
41
1
10
18.2728109133828
20
-15.0008645698075
30
0
41
1
10
18.2877376616226
20
-15.005152395568
30
0
41
1
10
18.2951724971554
20
-15.0076478892364
30
0
41
1
10
18.3314372006434
20
-15.0215159830933
30
0
41
1
10
18.3578281265268
20
-15.0369693753062
30
0
41
1
10
18.4069581904134
20
-15.0739427918915
30
0
41
1
10
18.4288334491966
20
-15.0948242086538
30
0
41
1
10
18.4588809702252
20
-15.1284239846262
30
0
41
1
10
18.4684309157001
20
-15.1400203146011
30
0
41
1
10
18.4867303490982
20
-15.1638931870095
30
0
41
1
10
18.4955010868099
20
-15.1762057179683
30
0
41
1
10
18.5204889532969
20
-15.2136275524139
30
0
41
1
10
18.535476054534
20
-15.2392987486415
30
0
41
1
10
18.5629449448878
20
-15.2917202176403
30
0
41
1
10
18.5754177835215
20
-15.318474407119
30
0
41
1
10
18.5983196665241
20
-15.372858967322
30
0
41
1
10
18.6087450830623
20
-15.4004909261967
30
0
41
1
10
18.6278436196423
20
-15.4565025709993
30
0
41
1
10
18.6364974994727
20
-15.4848375519009
30
0
41
1
10
18.6443375672973
20
-15.5133461831292
30
0
0
SPLINE
5
173
100
AcDbEntity
8
1
62
256
6
ByLayer
370
18
48
1
60
0
100
AcDbSpline
70
4
71
3
72
32
73
28
40
0
40
0
40
0
40
0
40
0.250000000000002
40
0.250000000000002
40
0.375000000000007
40
0.375000000000007
40
0.437500000000006
40
0.437500000000006
40
0.500000000000005
40
0.500000000000005
40
0.625000000000004
40
0.625000000000004
40
0.687500000000005
40
0.687500000000005
40
0.750000000000006
40
0.750000000000006
40
0.812500000000007
40
0.812500000000007
40
0.843750000000008
40
0.843750000000008
40
0.875000000000009
40
0.875000000000009
40
0.937500000000005
40
0.937500000000005
40
0.968750000000003
40
0.968750000000003
40
1
40
1
40
1
40
1
41
1
10
18.6443375672971
20
-47.532474059346
30
0
41
1
10
18.6286630435767
20
-47.5510763302183
30
0
41
1
10
18.6099224010157
20
-47.5691972862269
30
0
41
1
10
18.5756373106801
20
-47.5954849905104
30
0
41
1
10
18.5631695734008
20
-47.6040973909196
30
0
41
1
10
18.5425188225857
20
-47.6167466147851
30
0
41
1
10
18.535308544882
20
-47.6209179112663
30
0
41
1
10
18.5201365967877
20
-47.6291590523766
30
0
41
1
10
18.5121625348482
20
-47.6332339095116
30
0
41
1
10
18.4871618698531
20
-47.64517153341
30
0
41
1
10
18.4690247593556
20
-47.6527863810658
30
0
41
1
10
18.4387714809652
20
-47.6635163018192
30
0
41
1
10
18.4281592107108
20
-47.6669777320221
30
0
41
1
10
18.406058345771
20
-47.6735117109475
30
0
41
1
10
18.3945344903242
20
-47.6765983002467
30
0
41
1
10
18.3703588188406
20
-47.6823452689503
30
0
41
1
10
18.3577088110855
20
-47.6850063201914
30
0
41
1
10
18.3376838445826
20
-47.68860393774
30
0
41
1
10
18.3308009490979
20
-47.6897416143957
30
0
41
1
10
18.3168340975287
20
-47.6918383367785
30
0
41
1
10
18.3097487062947
20
-47.692798724578
30
0
41
1
10
18.2881674439401
20
-47.6953999741736
30
0
41
1
10
18.2733483563926
20
-47.6967625554498
30
0
41
1
10
18.2503679357478
20
-47.6981609444844
30
0
41
1
10
18.2425805614473
20
-47.6985178150114
30
0
41
1
10
18.2270026846865
20
-47.6989923891762
30
0
41
1
10
18.2191806796091
20
-47.6991123363142
30
0
41
1
10
18.211324865405
20
-47.6991123363142
30
0
0
SPLINE
5
174
100
AcDbEntity
8
1
62
256
6
ByLayer
370
18
48
1
60
0
100
AcDbSpline
70
4
71
3
72
83
73
79
40
0
40
0
40
0
40
0
40
0.0066848149474825
40
0.0134370415424222
40
0.0202566527809418
40
0.0271436235975928
40
0.0340979309244514
40
0.0411195537497576
40
0.0482084731769636
40
0.0553646724842226
40
0.0625881371843439
40
0.0698788550852401
40
0.0772368163508921
40
0.0846620135628648
40
0.0921544417823926
40
0.0997140986130669
40
0.107340984264153
40
0.115035101614558
40
0.12279645627749
40
0.130625056665817
40
0.138520914058179
40
0.146484042665861
40
0.15451445970047
40
0.16261218544244
40
0.170777243310404
40
0.179009659931449
40
0.187309465212315
40
0.19567669241154
40
0.20411137821261
40
0.212613562798138
40
0.22118328992512
40
0.229820607001287
40
0.238525565162616
40
0.247298219352032
40
0.256138628399312
40
0.265046855102332
40
0.274022966309558
40
0.283067033003949
40
0.292179130388278
40
0.301359337971864
40
0.310607739658963
40
0.319924423838544
40
0.32930948347584
40
0.338763016205527
40
0.348285124426664
40
0.357875915399442
40
0.367535501343812
40
0.37726399954006
40
0.387061532431384
40
0.396928227728574
40
0.406864218516844
40
0.416869643364872
40
0.426944646436316
40
0.437089377603469
40
0.447303992563648
40
0.457588652958061
40
0.467943526493378
40
0.478368787066078
40
0.488864614889684
40
0.499431196624985
40
0.560058481352537
40
0.621923332069931
40
0.685063798002712
40
0.749522339458954
40
0.812151561955368
40
0.874740534388954
40
0.905875694109991
40
0.937357923157041
40
0.968675776624295
40
0.98433768167742
40
0.992169452775466
40
0.996085552197284
40
0.998043656533048
40
0.999022722536042
40
0.999512259010404
40
0.999757028117561
40
0.999879412888855
40
1
40
1
40
1
40
1
41
1
10
953.067339719524
20
-47.7524376453059
30
0
41
1
10
953.067968069158
20
-47.7623511103648
30
0
41
1
10
953.069231104888
20
-47.7822780107908
30
0
41
1
10
953.071051598861
20
-47.8120702661822
30
0
41
1
10
953.0728296045
20
-47.8419741815259
30
0
41
1
10
953.074558472995
20
-47.8719656840591
30
0
41
1
10
953.076239387268
20
-47.9020434284001
30
0
41
1
10
953.077871422342
20
-47.9321998156315
30
0
41
1
10
953.07945424791
20
-47.9624288743244
30
0
41
1
10
953.080987393158
20
-47.9927241177913
30
0
41
1
10
953.082470446281
20
-48.0230791266349
30
0
41
1
10
953.083902999922
20
-48.0534873904033
30
0
41
1
10
953.085284665686
20
-48.0839423505969
30
0
41
1
10
953.086615069896
20
-48.1144373889234
30
0
41
1
10
953.087893854456
20
-48.1449658303999
30
0
41
1
10
953.089120676345
20
-48.1755209423911
30
0
41
1
10
953.090295207497
20
-48.2060959347195
30
0
41
1
10
953.091417134586
20
-48.2366839594539
30
0
41
1
10
953.092486158852
20
-48.2672781107531
30
0
41
1
10
953.09350199593
20
-48.2978714246631
30
0
41
1
10
953.09446437569
20
-48.3284568788941
30
0
41
1
10
953.095373042092
20
-48.3590273925705
30
0
41
1
10
953.096227753039
20
-48.3895758259556
30
0
41
1
10
953.097028280257
20
-48.4200949801488
30
0
41
1
10
953.097774409171
20
-48.4505775967572
30
0
41
1
10
953.0984659388
20
-48.481016357539
30
0
41
1
10
953.099102681656
20
-48.5114038840206
30
0
41
1
10
953.09968446366
20
-48.5417327370847
30
0
41
1
10
953.100211124061
20
-48.5719954165306
30
0
41
1
10
953.100682515374
20
-48.6021843606066
30
0
41
1
10
953.101098503318
20
-48.6322919455117
30
0
41
1
10
953.101458966774
20
-48.6623104848688
30
0
41
1
10
953.101763797746
20
-48.692232229168
30
0
41
1
10
953.102012901342
20
-48.7220493651776
30
0
41
1
10
953.102206195751
20
-48.751754015329
30
0
41
1
10
953.102343612251
20
-48.7813382370607
30
0
41
1
10
953.102425095211
20
-48.8107940221408
30
0
41
1
10
953.102450602109
20
-48.8401132959506
30
0
41
1
10
953.10242010357
20
-48.8692879167335
30
0
41
1
10
953.102333583397
20
-48.8983096748201
30
0
41
1
10
953.102191038643
20
-48.9271702917998
30
0
41
1
10
953.101992479663
20
-48.9558614196806
30
0
41
1
10
953.101737930199
20
-48.9843746399935
30
0
41
1
10
953.101427427475
20
-49.012701462872
30
0
41
1
10
953.101061022296
20
-49.0408333260888
30
0
41
1
10
953.100638779174
20
-49.0687615940565
30
0
41
1
10
953.100160776454
20
-49.0964775567891
30
0
41
1
10
953.099627106464
20
-49.1239724288241
30
0
41
1
10
953.099037875675
20
-49.1512373481033
30
0
41
1
10
953.098393204877
20
-49.1782633748138
30
0
41
1
10
953.097693229373
20
-49.2050414901835
30
0
41
1
10
953.096938099169
20
-49.2315625952432
30
0
41
1
10
953.096127979237
20
-49.2578175095257
30
0
41
1
10
953.095263049705
20
-49.2837969697224
30
0
41
1
10
953.094343506156
20
-49.3094916284071
30
0
41
1
10
953.093369559853
20
-49.3348920521637
30
0
41
1
10
953.092341438181
20
-49.3599887218037
30
0
41
1
10
953.091259384413
20
-49.38477202445
30
0
41
1
10
953.090123660096
20
-49.4092322760548
30
0
41
1
10
953.087059330898
20
-49.4714076674655
30
0
41
1
10
953.081436681907
20
-49.5656173160901
30
0
41
1
10
953.072307460407
20
-49.6800357262731
30
0
41
1
10
953.061872866829
20
-49.77904879523
30
0
41
1
10
953.050465373934
20
-49.8602118240318
30
0
41
1
10
953.038368053813
20
-49.9229829005966
30
0
41
1
10
953.027961964824
20
-49.9599591532816
30
0
41
1
10
953.019457659512
20
-49.9807091488693
30
0
41
1
10
953.013012743467
20
-49.9918346097262
30
0
41
1
10
953.007593522886
20
-49.9974052069038
30
0
41
1
10
953.003798459579
20
-49.999351183578
30
0
41
1
10
953.00189949233
20
-49.9998377808558
30
0
41
1
10
953.000949791579
20
-49.9999594427309
30
0
41
1
10
953.000474904643
20
-49.9999898611406
30
0
41
1
10
953.000237454214
20
-49.9999974642601
30
0
41
1
10
953.00011872754
20
-49.9999993674697
30
0
41
1
10
953.000059363873
20
-49.9999998398852
30
0
41
1
10
953.000025566256
20
-49.9999999798148
30
0
41
1
10
953.000009478809
20
-49.999999992671
30
0
41
1
10
952.999999679296
20
-50.0000000002516
30
0
0
SPLINE
5
175
100
AcDbEntity
8
1
62
256
6
ByLayer
370
18
48
1
60
0
100
AcDbSpline
70
4
71
3
72
8
73
4
40
0
40
0
40
0
40
0
40
1
40
1
40
1
40
1
41
1
10
954.96830127019
20
26.2367577274229
30
0
41
1
10
954.862578603669
20
26.3774498786618
30
0
41
1
10
954.75663687714
20
26.5179226549982
30
0
41
1
10
954.650480947162
20
26.6581809199742
30
0
0
SPLINE
5
176
100
AcDbEntity
8
1
62
256
6
ByLayer
370
18
48
1
60
0
100
AcDbSpline
70
4
71
3
72
36
73
32
40
0
40
0
40
0
40
0
40
0.125000000000001
40
0.125000000000001
40
0.250000000000001
40
0.250000000000001
40
0.312499999999992
40
0.312499999999992
40
0.374999999999983
40
0.374999999999983
40
0.499999999999986
40
0.499999999999986
40
0.562499999999991
40
0.562499999999991
40
0.624999999999997
40
0.624999999999997
40
0.687500000000002
40
0.687500000000002
40
0.750000000000008
40
0.750000000000008
40
0.781250000000008
40
0.781250000000008
40
0.812500000000008
40
0.812500000000008
40
0.875000000000011
40
0.875000000000011
40
0.906250000000012
40
0.906250000000012
40
0.937500000000014
40
0.937500000000014
40
1
40
1
40
1
40
1
41
1
10
954.650480947162
20
26.6581809199742
30
0
41
1
10
954.638564391986
20
26.673925639594
30
0
41
1
10
954.627279009068
20
26.689500477464
30
0
41
1
10
954.606105628428
20
26.7202705154536
30
0
41
1
10
954.596387135782
20
26.7352193517605
30
0
41
1
10
954.583366382077
20
26.7568005099311
30
0
41
1
10
954.579284859493
20
26.7638570511835
30
0
41
1
10
954.571714569437
20
26.7776555564928
30
0
41
1
10
954.56820742277
20
26.7844370891091
30
0
41
1
10
954.558936804868
20
26.8038314511134
30
0
41
1
10
954.55434090269
20
26.815567371094
30
0
41
1
10
954.55087736364
20
26.8305890942521
30
0
41
1
10
954.550337187033
20
26.835038576678
30
0
41
1
10
954.550689902404
20
26.8426094509539
30
0
41
1
10
954.55160680527
20
26.8457448036697
30
0
41
1
10
954.555036120945
20
26.8502195468021
30
0
41
1
10
954.557555971616
20
26.8516045735537
30
0
41
1
10
954.564279998563
20
26.8524511260299
30
0
41
1
10
954.5683643372
20
26.8519087556728
30
0
41
1
10
954.575497700388
20
26.8497512431619
30
0
41
1
10
954.578044198973
20
26.848806871779
30
0
41
1
10
954.583471624242
20
26.8464720607586
30
0
41
1
10
954.586343605015
20
26.845083365218
30
0
41
1
10
954.595212908225
20
26.8403943663449
30
0
41
1
10
954.601530025633
20
26.8365470800171
30
0
41
1
10
954.611524691542
20
26.8298517812705
30
0
41
1
10
954.614958258419
20
26.8274536729667
30
0
41
1
10
954.621886081876
20
26.8224400038891
30
0
41
1
10
954.62538609
20
26.8198214667877
30
0
41
1
10
954.635983326106
20
26.8116653933004
30
0
41
1
10
954.643177150321
20
26.8058293259391
30
0
41
1
10
954.650480947162
20
26.7996539821638
30
0
0
SPLINE
5
177
100
AcDbEntity
8
1
62
256
6
ByLayer
370
18
48
1
60
0
100
AcDbSpline
70
4
71
3
72
8
73
4
40
0
40
0
40
0
40
0
40
1
40
1
40
1
40
1
41
1
10
954.650480947162
20
26.7996539821637
30
0
41
1
10
954.875282095915
20
26.6095851173146
30
0
41
1
10
955.100042276568
20
26.4194516280998
30
0
41
1
10
955.324759526419
20
26.2292505270223
30
0
0
SPLINE
5
178
100
AcDbEntity
8
1
62
256
6
ByLayer
370
18
48
1
60
0
100
AcDbSpline
70
4
71
3
72
8
73
4
40
0
40
0
40
0
40
0
40
1
40
1
40
1
40
1
41
1
10
955.324759526419
20
26.3764497133756
30
0
41
1
10
955.100882142789
20
26.6664416139547
30
0
41
1
10
954.876108812168
20
26.9555047085801
30
0
41
1
10
954.650480947162
20
27.2436819286685
30
0
0
SPLINE
5
179
100
AcDbEntity
8
1
62
256
6
ByLayer
370
18
48
1
60
0
100
AcDbSpline
70
4
71
3
72
37
73
33
40
0
40
0
40
0
40
0
40
0.124999999999993
40
0.124999999999993
40
0.249999999999986
40
0.249999999999986
40
0.312499999999983
40
0.312499999999983
40
0.374999999999981
40
0.374999999999981
40
0.437499999999978
40
0.437499999999978
40
0.499999999999976
40
0.499999999999976
40
0.562499999999973
40
0.562499999999973
40
0.593749999999975
40
0.593749999999975
40
0.624999999999977
40
0.656249999999979
40
0.656249999999979
40
0.687499999999981
40
0.687499999999981
40
0.749999999999985
40
0.749999999999985
40
0.812499999999988
40
0.812499999999988
40
0.874999999999992
40
0.874999999999992
40
0.937499999999996
40
0.937499999999996
40
1
40
1
40
1
40
1
41
1
10
954.650480947162
20
27.2436819286685
30
0
41
1
10
954.638467058234
20
27.2590263503942
30
0
41
1
10
954.627038858386
20
27.274224877392
30
0
41
1
10
954.605700044476
20
27.3040077997858
30
0
41
1
10
954.595914271545
20
27.3184113228563
30
0
41
1
10
954.582787427473
20
27.3391567920321
30
0
41
1
10
954.578672780125
20
27.3459273598973
30
0
41
1
10
954.571049270789
20
27.3591325133063
30
0
41
1
10
954.567543902738
20
27.3655670792176
30
0
41
1
10
954.56141644239
20
27.3777173575745
30
0
41
1
10
954.558769249391
20
27.3834740016375
30
0
41
1
10
954.554451365012
20
27.394240680637
30
0
41
1
10
954.552771511771
20
27.3992892151872
30
0
41
1
10
954.550682545483
20
27.4082442431063
30
0
41
1
10
954.550265663349
20
27.4121446763342
30
0
41
1
10
954.550745996391
20
27.416979458381
30
0
41
1
10
954.551095107797
20
27.4184225933361
30
0
41
1
10
954.55217658928
20
27.4208822223773
30
0
41
1
10
954.553640471277
20
27.4229330396772
30
0
41
1
10
954.555894732812
20
27.4241393470884
30
0
41
1
10
954.558565018368
20
27.424901402502
30
0
41
1
10
954.560116577479
20
27.4250565756594
30
0
41
1
10
954.565270948229
20
27.4248344128793
30
0
41
1
10
954.56940202182
20
27.4237910284226
30
0
41
1
10
954.578968331075
20
27.420026304276
30
0
41
1
10
954.584461109294
20
27.4172610331215
30
0
41
1
10
954.59613104104
20
27.4104498461389
30
0
41
1
10
954.602358037812
20
27.4063918343886
30
0
41
1
10
954.615492982932
20
27.3971445135576
30
0
41
1
10
954.622344017223
20
27.3919907710298
30
0
41
1
10
954.636219069864
20
27.3810306452357
30
0
41
1
10
954.643291702789
20
27.3751893721754
30
0
41
1
10
954.650480947162
20
27.3690368883746
30
0
0
SPLINE
5
17A
100
AcDbEntity
8
1
62
256
6
ByLayer
370
18
48
1
60
0
100
AcDbSpline
70
4
71
3
72
8
73
4
40
0
40
0
40
0
40
0
40
1
40
1
40
1
40
1
41
1
10
954.650480947162
20
27.3690368883746
30
0
41
1
10
954.875296565803
20
27.1766419188687
30
0
41
1
10
955.100056943949
20
26.9841609443808
30
0
41
1
10
955.324759526419
20
26.791589986704
30
0
0
SPLINE
5
17B
100
AcDbEntity
8
1
62
256
6
ByLayer
370
18
48
1
60
0
100
AcDbSpline
70
4
71
3
72
8
73
4
40
0
40
0
40
0
40
0
40
1
40
1
40
1
40
1
41
1
10
955.324759526419
20
26.9213162515874
30
0
41
1
10
955.100779420665
20
27.2019060176484
30
0
41
1
10
954.876007833843
20
27.4816479322784
30
0
41
1
10
954.650480947162
20
27.7605807535596
30
0
0
SPLINE
5
17C
100
AcDbEntity
8
1
62
256
6
ByLayer
370
18
48
1
60
0
100
AcDbSpline
70
4
71
3
72
38
73
34
40
0
40
0
40
0
40
0
40
0.0624999999999925
40
0.0624999999999925
40
0.124999999999985
40
0.124999999999985
40
0.249999999999985
40
0.249999999999985
40
0.312499999999991
40
0.312499999999991
40
0.374999999999996
40
0.374999999999996
40
0.437500000000002
40
0.437500000000002
40
0.500000000000008
40
0.500000000000008
40
0.562500000000014
40
0.562500000000014
40
0.62500000000002
40
0.62500000000002
40
0.687500000000026
40
0.687500000000026
40
0.750000000000032
40
0.750000000000032
40
0.781250000000028
40
0.781250000000028
40
0.812500000000024
40
0.812500000000024
40
0.875000000000016
40
0.875000000000016
40
0.937500000000008
40
0.937500000000008
40
1
40
1
40
1
40
1
41
1
10
954.650480947162
20
27.7605807535596
30
0
41
1
10
954.644424573363
20
27.768071308036
30
0
41
1
10
954.638520147547
20
27.7755087941899
30
0
41
1
10
954.627029830908
20
27.7902720497061
30
0
41
1
10
954.621428121776
20
27.7976194383979
30
0
41
1
10
954.605310773168
20
27.8192497600483
30
0
41
1
10
954.595440158383
20
27.8331631126568
30
0
41
1
10
954.582199737126
20
27.85312238814
30
0
41
1
10
954.578049629234
20
27.8596222670996
30
0
41
1
10
954.570369434482
20
27.8722609240596
30
0
41
1
10
954.566896441733
20
27.8783074830341
30
0
41
1
10
954.560818850451
20
27.8897119064785
30
0
41
1
10
954.558205729128
20
27.8950826198057
30
0
41
1
10
954.55399186748
20
27.9050356314004
30
0
41
1
10
954.552394285592
20
27.9096311149699
30
0
41
1
10
954.550525513418
20
27.9175574760371
30
0
41
1
10
954.550232624415
20
27.9209392309006
30
0
41
1
10
954.551165224461
20
27.9262716903183
30
0
41
1
10
954.552376343874
20
27.9281528656007
30
0
41
1
10
954.556374506812
20
27.9302557408222
30
0
41
1
10
954.559214999618
20
27.9304514734469
30
0
41
1
10
954.566219279544
20
27.929114619797
30
0
41
1
10
954.570392360961
20
27.9276110698123
30
0
41
1
10
954.577604774527
20
27.9241714415788
30
0
41
1
10
954.580185352463
20
27.922816359364
30
0
41
1
10
954.585547759674
20
27.9197795366074
30
0
41
1
10
954.58833400436
20
27.9180973055148
30
0
41
1
10
954.596979938385
20
27.9126031031299
30
0
41
1
10
954.60312508737
20
27.9083463524739
30
0
41
1
10
954.616086056367
20
27.8987895966666
30
0
41
1
10
954.622793315097
20
27.8935680996892
30
0
41
1
10
954.636435763729
20
27.8825088787434
30
0
41
1
10
954.64339717757
20
27.8766509677133
30
0
41
1
10
954.650480947162
20
27.8705070301736
30
0
0
SPLINE
5
17D
100
AcDbEntity
8
1
62
256
6
ByLayer
370
18
48
1
60
0
100
AcDbSpline
70
4
71
3
72
8
73
4
40
0
40
0
40
0
40
0
40
1
40
1
40
1
40
1
41
1
10
954.650480947162
20
27.8705070301735
30
0
41
1
10
954.875312850705
20
27.6755044747884
30
0
41
1
10
955.100073465689
20
27.4803924257702
30
0
41
1
10
955.324759526419
20
27.2851658672686
30
0
0
SPLINE
5
17E
100
AcDbEntity
8
1
62
256
6
ByLayer
370
18
48
1
60
0
100
AcDbSpline
70
4
71
3
72
8
73
4
40
0
40
0
40
0
40
0
40
1
40
1
40
1
40
1
41
1
10
955.324759526419
20
27.3981429184623
30
0
41
1
10
955.100689433322
20
27.6700776853911
30
0
41
1
10
954.875919349476
20
27.9412388764583
30
0
41
1
10
954.650480947162
20
28.2116614934284
30
0
0
SPLINE
5
17F
100
AcDbEntity
8
1
62
256
6
ByLayer
370
18
48
1
60
0
100
AcDbSpline
70
4
71
3
72
34
73
30
40
0
40
0
40
0
40
0
40
0.125000000000003
40
0.125000000000003
40
0.250000000000007
40
0.250000000000007
40
0.312500000000005
40
0.312500000000005
40
0.375000000000003
40
0.375000000000003
40
0.437500000000002
40
0.437500000000002
40
0.5
40
0.5
40
0.562499999999998
40
0.562499999999998
40
0.624999999999997
40
0.624999999999997
40
0.687499999999995
40
0.687499999999995
40
0.749999999999993
40
0.749999999999993
40
0.781249999999995
40
0.781249999999995
40
0.812499999999997
40
0.812499999999997
40
0.875
40
0.875
40
1
40
1
40
1
40
1
41
1
10
954.650480947162
20
28.2116614934284
30
0
41
1
10
954.638287117024
20
28.2262884931902
30
0
41
1
10
954.626699763673
20
28.2406563471387
30
0
41
1
10
954.604912869527
20
28.2687948496716
30
0
41
1
10
954.59493315056
20
28.2822804699495
30
0
41
1
10
954.581614502963
20
28.3014320711354
30
0
41
1
10
954.577451274389
20
28.3076366259411
30
0
41
1
10
954.569772964676
20
28.3196246684685
30
0
41
1
10
954.566279983252
20
28.3253782216785
30
0
41
1
10
954.560240218038
20
28.3360763129946
30
0
41
1
10
954.557668448915
20
28.3410582663397
30
0
41
1
10
954.553581330179
20
28.3501566795411
30
0
41
1
10
954.552067855755
20
28.3542897521285
30
0
41
1
10
954.550407735545
20
28.3612285470446
30
0
41
1
10
954.550237809652
20
28.3640759028651
30
0
41
1
10
954.551434385278
20
28.3683169624118
30
0
41
1
10
954.552782316351
20
28.3696382471978
30
0
41
1
10
954.55701004349
20
28.3706490320179
30
0
41
1
10
954.55994334948
20
28.3703131548065
30
0
41
1
10
954.56711036234
20
28.3680119495445
30
0
41
1
10
954.571341209358
20
28.3660702316196
30
0
41
1
10
954.578594887134
20
28.3620502061006
30
0
41
1
10
954.581160783534
20
28.3605256966368
30
0
41
1
10
954.586469683972
20
28.3571932023095
30
0
41
1
10
954.589225686452
20
28.3553782040432
30
0
41
1
10
954.59777345998
20
28.3495237687648
30
0
41
1
10
954.60384812266
20
28.34507359438
30
0
41
1
10
954.623035025826
20
28.3302964227828
30
0
41
1
10
954.636509603876
20
28.319027197025
30
0
41
1
10
954.650480947162
20
28.3067316209587
30
0
0
SPLINE
5
180
100
AcDbEntity
8
1
62
256
6
ByLayer
370
18
48
1
60
0
100
AcDbSpline
70
4
71
3
72
8
73
4
40
0
40
0
40
0
40
0
40
1
40
1
40
1
40
1
41
1
10
954.650480947162
20
28.3067316209586
30
0
41
1
10
954.875330997764
20
28.1088507984656
30
0
41
1
10
955.100091875538
20
27.9108350221756
30
0
41
1
10
955.324759526419
20
27.7126781566853
30
0
0
SPLINE
5
181
100
AcDbEntity
8
1
62
256
6
ByLayer
370
18
48
1
60
0
100
AcDbSpline
70
4
71
3
72
8
73
4
40
0
40
0
40
0
40
0
40
1
40
1
40
1
40
1
41
1
10
955.324759526419
20
27.8095040135378
30
0
41
1
10
955.100610162109
20
28.0734412000286
30
0
41
1
10
954.875841381203
20
28.3366732332125
30
0
41
1
10
954.650480947162
20
28.5992317194349
30
0
0
SPLINE
5
182
100
AcDbEntity
8
1
62
256
6
ByLayer
370
18
48
1
60
0
100
AcDbSpline
70
4
71
3
72
36
73
32
40
0
40
0
40
0
40
0
40
0.124999999999993
40
0.124999999999993
40
0.249999999999987
40
0.249999999999987
40
0.312499999999986
40
0.312499999999986
40
0.374999999999985
40
0.374999999999985
40
0.437499999999984
40
0.437499999999984
40
0.499999999999983
40
0.499999999999983
40
0.531249999999982
40
0.531249999999982
40
0.562499999999982
40
0.562499999999982
40
0.624999999999985
40
0.624999999999985
40
0.656249999999985
40
0.656249999999985
40
0.687499999999986
40
0.687499999999986
40
0.749999999999987
40
0.749999999999987
40
0.812499999999987
40
0.812499999999987
40
0.874999999999988
40
0.874999999999988
40
1
40
1
40
1
40
1
41
1
10
954.650480947162
20
28.5992317194349
30
0
41
1
10
954.638185631719
20
28.6135565028609
30
0
41
1
10
954.626448824661
20
28.6276380595497
30
0
41
1
10
954.604494453589
20
28.654954585812
30
0
41
1
10
954.594435741193
20
28.6679867767595
30
0
41
1
10
954.581008866335
20
28.6863989293606
30
0
41
1
10
954.576811098666
20
28.6923476552345
30
0
41
1
10
954.569087491098
20
28.7037794871794
30
0
41
1
10
954.565637124999
20
28.7091511198949
30
0
41
1
10
954.55965704079
20
28.719123596057
30
0
41
1
10
954.55712579297
20
28.7237257173154
30
0
41
1
10
954.553159992792
20
28.7320116203067
30
0
41
1
10
954.551751887247
20
28.7356544071333
30
0
41
1
10
954.550677161243
20
28.7401096304882
30
0
41
1
10
954.550488228852
20
28.7414344182614
30
0
41
1
10
954.550474077376
20
28.7437397421707
30
0
41
1
10
954.550652071278
20
28.7447224304279
30
0
41
1
10
954.551750356912
20
28.7470629809933
30
0
41
1
10
954.553224879415
20
28.7478421742836
30
0
41
1
10
954.556580932313
20
28.7478078045123
30
0
41
1
10
954.557900840685
20
28.7475918790965
30
0
41
1
10
954.560888415783
20
28.7467569408877
30
0
41
1
10
954.562548762688
20
28.7461422795345
30
0
41
1
10
954.568001838274
20
28.7437397788501
30
0
41
1
10
954.572271021232
20
28.7413920617301
30
0
41
1
10
954.581961171813
20
28.7353198781658
30
0
41
1
10
954.587237950171
20
28.731687791235
30
0
41
1
10
954.598514345948
20
28.7234273751092
30
0
41
1
10
954.604544859903
20
28.7187733709408
30
0
41
1
10
954.623417074936
20
28.7036246643775
30
0
41
1
10
954.636691354429
20
28.6922454860678
30
0
41
1
10
954.650480947162
20
28.679918203609
30
0
0
SPLINE
5
183
100
AcDbEntity
8
1
62
256
6
ByLayer
370
18
48
1
60
0
100
AcDbSpline
70
4
71
3
72
8
73
4
40
0
40
0
40
0
40
0
40
1
40
1
40
1
40
1
41
1
10
954.650480947162
20
28.679918203609
30
0
41
1
10
954.875351093927
20
28.4788942959897
30
0
41
1
10
955.10011226246
20
28.2777080605136
30
0
41
1
10
955.324759526419
20
28.0763521591779
30
0
0
SPLINE
5
184
100
AcDbEntity
8
1
62
256
6
ByLayer
370
18
48
1
60
0
100
AcDbSpline
70
4
71
3
72
8
73
4
40
0
40
0
40
0
40
0
40
1
40
1
40
1
40
1
41
1
10
955.324759526419
20
28.1575168708568
30
0
41
1
10
955.100539982182
20
28.4140398201373
30
0
41
1
10
954.875772336776
20
28.6699208754559
30
0
41
1
10
954.650480947162
20
28.9251885618156
30
0
0
SPLINE
5
185
100
AcDbEntity
8
1
62
256
6
ByLayer
370
18
48
1
60
0
100
AcDbSpline
70
4
71
3
72
37
73
33
40
0
40
0
40
0
40
0
40
0.0624999999999997
40
0.0624999999999997
40
0.124999999999999
40
0.124999999999999
40
0.250000000000002
40
0.250000000000002
40
0.312500000000003
40
0.312500000000003
40
0.375000000000004
40
0.375000000000004
40
0.437500000000005
40
0.437500000000005
40
0.500000000000006
40
0.500000000000006
40
0.562500000000007
40
0.562500000000007
40
0.625000000000009
40
0.625000000000009
40
0.65625000000001
40
0.65625000000001
40
0.687500000000011
40
0.718750000000012
40
0.718750000000012
40
0.750000000000013
40
0.750000000000013
40
0.812500000000009
40
0.812500000000009
40
0.875000000000005
40
0.875000000000005
40
1
40
1
40
1
40
1
41
1
10
954.650480947162
20
28.9251885618156
30
0
41
1
10
954.644281124505
20
28.9322133060291
30
0
41
1
10
954.638227502074
20
28.9391586770682
30
0
41
1
10
954.626431271929
20
28.9528800259238
30
0
41
1
10
954.620668334994
20
28.9596805443812
30
0
41
1
10
954.604077667191
20
28.9795803831555
30
0
41
1
10
954.593928867472
20
28.9921899007746
30
0
41
1
10
954.580387164116
20
29.0098881550538
30
0
41
1
10
954.576131913535
20
29.0156176573313
30
0
41
1
10
954.568431375473
20
29.0264023653018
30
0
41
1
10
954.564998862174
20
29.0314365639847
30
0
41
1
10
954.559078732859
20
29.0406943905306
30
0
41
1
10
954.556585353199
20
29.0449273029849
30
0
41
1
10
954.55275680416
20
29.0523814140453
30
0
41
1
10
954.551466361912
20
29.0555147817221
30
0
41
1
10
954.550263080226
20
29.0604706588144
30
0
41
1
10
954.550369028879
20
29.0622932350178
30
0
41
1
10
954.552090331233
20
29.0643404438862
30
0
41
1
10
954.553687158685
20
29.0645981370327
30
0
41
1
10
954.557223450903
20
29.0637984314654
30
0
41
1
10
954.558596869571
20
29.0633298320292
30
0
41
1
10
954.561651941978
20
29.0620248466217
30
0
41
1
10
954.565028853992
20
29.0603503803072
30
0
41
1
10
954.569016663261
20
29.0579749819878
30
0
41
1
10
954.573299416286
20
29.0552613750196
30
0
41
1
10
954.575601126068
20
29.0537262502267
30
0
41
1
10
954.582818569593
20
29.0487095880425
30
0
41
1
10
954.588047050246
20
29.0448219345214
30
0
41
1
10
954.599211407045
20
29.0361263043382
30
0
41
1
10
954.605191227672
20
29.0312807628715
30
0
41
1
10
954.623772752719
20
29.0157621259779
30
0
41
1
10
954.636860855824
20
29.0042576579065
30
0
41
1
10
954.650480947162
20
28.9918768078122
30
0
0
SPLINE
5
186
100
AcDbEntity
8
1
62
256
6
ByLayer
370
18
48
1
60
0
100
AcDbSpline
70
4
71
3
72
8
73
4
40
0
40
0
40
0
40
0
40
1
40
1
40
1
40
1
41
1
10
954.650480947162
20
28.9918768078122
30
0
41
1
10
954.87537326867
20
28.7874465987313
30
0
41
1
10
955.100134758696
20
28.5828247827852
30
0
41
1
10
955.324759526419
20
28.3780027326817
30
0
0
SPLINE
5
187
100
AcDbEntity
8
1
62
256
6
ByLayer
370
18
48
1
60
0
100
AcDbSpline
70
4
71
3
72
8
73
4
40
0
40
0
40
0
40
0
40
1
40
1
40
1
40
1
41
1
10
955.324759526419
20
28.4439019058904
30
0
41
1
10
955.100477572429
20
28.693532378087
30
0
41
1
10
954.875710921389
20
28.9425796328426
30
0
41
1
10
954.650480947162
20
29.1910693885121
30
0
0
SPLINE
5
188
100
AcDbEntity
8
1
62
256
6
ByLayer
370
18
48
1
60
0
100
AcDbSpline
70
4
71
3
72
37
73
33
40
0
40
0
40
0
40
0
40
0.0624999999999993
40
0.0624999999999993
40
0.124999999999999
40
0.124999999999999
40
0.250000000000008
40
0.250000000000008
40
0.312500000000013
40
0.312500000000013
40
0.375000000000018
40
0.406250000000017
40
0.406250000000017
40
0.437500000000015
40
0.437500000000015
40
0.500000000000018
40
0.500000000000018
40
0.531250000000018
40
0.531250000000018
40
0.562500000000019
40
0.562500000000019
40
0.625000000000016
40
0.625000000000016
40
0.687500000000012
40
0.687500000000012
40
0.750000000000008
40
0.750000000000008
40
0.812500000000004
40
0.812500000000004
40
0.875000000000001
40
0.875000000000001
40
1
40
1
40
1
40
1
41
1
10
954.650480947162
20
29.1910693885121
30
0
41
1
10
954.644227294373
20
29.1979688638544
30
0
41
1
10
954.638116117521
20
29.2047812021501
30
0
41
1
10
954.626198982525
20
29.2182186406587
30
0
41
1
10
954.620377514564
20
29.2248620758047
30
0
41
1
10
954.603653580318
20
29.2442095948177
30
0
41
1
10
954.593408919521
20
29.2564164100061
30
0
41
1
10
954.579745402713
20
29.2734199100042
30
0
41
1
10
954.575456649465
20
29.2788974278653
30
0
41
1
10
954.567776340579
20
29.2890491462882
30
0
41
1
10
954.562653295116
20
29.2961018604166
30
0
41
1
10
954.558624159348
20
29.3021907022718
30
0
41
1
10
954.556206755929
20
29.3060131392977
30
0
41
1
10
954.555131029208
20
29.3078092564882
30
0
41
1
10
954.552398456442
20
29.3127140881078
30
0
41
1
10
954.551209144028
20
29.3153778837003
30
0
41
1
10
954.550482539152
20
29.3183602776051
30
0
41
1
10
954.550419191621
20
29.3191872271584
30
0
41
1
10
954.55066746586
20
29.3204513184745
30
0
41
1
10
954.550976288827
20
29.3208930574689
30
0
41
1
10
954.552453430918
20
29.3216509763685
30
0
41
1
10
954.554172763204
20
29.3214016674726
30
0
41
1
10
954.559115699976
20
29.3193455768171
30
0
41
1
10
954.562250328911
20
29.3175778505782
30
0
41
1
10
954.569700642292
20
29.3127264099834
30
0
41
1
10
954.574068338113
20
29.3096013746193
30
0
41
1
10
954.58362753328
20
29.3023326650729
30
0
41
1
10
954.588810770566
20
29.298200819853
30
0
41
1
10
954.599870537004
20
29.2890839936572
30
0
41
1
10
954.605793764752
20
29.2840575809719
30
0
41
1
10
954.62410525595
20
29.2681672513113
30
0
41
1
10
954.637019529892
20
29.256522639784
30
0
41
1
10
954.650480947162
20
29.2440675994899
30
0
0
SPLINE
5
189
100
AcDbEntity
8
1
62
256
6
ByLayer
370
18
48
1
60
0
100
AcDbSpline
70
4
71
3
72
8
73
4
40
0
40
0
40
0
40
0
40
1
40
1
40
1
40
1
41
1
10
954.650480947162
20
29.2440675994899
30
0
41
1
10
954.875397692611
20
29.0359656536676
30
0
41
1
10
955.100159538353
20
28.8276408850737
30
0
41
1
10
955.324759526419
20
28.6190832846887
30
0
0
SPLINE
5
18A
100
AcDbEntity
8
1
62
256
6
ByLayer
370
18
48
1
60
0
100
AcDbSpline
70
4
71
3
72
8
73
4
40
0
40
0
40
0
40
0
40
1
40
1
40
1
40
1
41
1
10
955.324759526419
20
28.6700283649977
30
0
41
1
10
955.100421849063
20
28.9132366582231
30
0
41
1
10
954.875656072682
20
29.1559163189213
30
0
41
1
10
954.650480947162
20
29.3980905001427
30
0
0
SPLINE
5
18B
100
AcDbEntity
8
1
62
256
6
ByLayer
370
18
48
1
60
0
100
AcDbSpline
70
4
71
3
72
38
73
34
40
0
40
0
40
0
40
0
40
0.125000000000008
40
0.125000000000008
40
0.18750000000001
40
0.18750000000001
40
0.250000000000013
40
0.250000000000013
40
0.312500000000015
40
0.312500000000015
40
0.375000000000018
40
0.375000000000018
40
0.43750000000002
40
0.43750000000002
40
0.500000000000023
40
0.500000000000023
40
0.562500000000025
40
0.562500000000025
40
0.593750000000026
40
0.593750000000026
40
0.625000000000027
40
0.625000000000027
40
0.68750000000003
40
0.68750000000003
40
0.718750000000027
40
0.718750000000027
40
0.750000000000024
40
0.750000000000024
40
0.812500000000018
40
0.812500000000018
40
0.875000000000011
40
0.875000000000011
40
1
40
1
40
1
40
1
41
1
10
954.650480947162
20
29.3980905001427
30
0
41
1
10
954.637817581332
20
29.4117098563851
30
0
41
1
10
954.625764641225
20
29.4248877953368
30
0
41
1
10
954.608942446843
20
29.4436628505135
30
0
41
1
10
954.60353571356
20
29.4497659288036
30
0
41
1
10
954.593178093792
20
29.4616186053551
30
0
41
1
10
954.588201351188
20
29.4673994030053
30
0
41
1
10
954.579009946802
20
29.4782783245624
30
0
41
1
10
954.574773005238
20
29.4834007913728
30
0
41
1
10
954.567112284481
20
29.4929264606329
30
0
41
1
10
954.563673791371
20
29.4973489720223
30
0
41
1
10
954.5578379242
20
29.505244937
30
0
41
1
10
954.555484247879
20
29.508657664356
30
0
41
1
10
954.552035251764
20
29.5142890458864
30
0
41
1
10
954.550946743309
20
29.5165109360806
30
0
41
1
10
954.550259395237
20
29.5194449294056
30
0
41
1
10
954.550635376377
20
29.5201906371795
30
0
41
1
10
954.552339462797
20
29.5201668853564
30
0
41
1
10
954.553102063031
20
29.5199642164224
30
0
41
1
10
954.554965177309
20
29.5191904927515
30
0
41
1
10
954.556068758435
20
29.5186202777278
30
0
41
1
10
954.559870244374
20
29.51638676496
30
0
41
1
10
954.563056353125
20
29.5142032977141
30
0
41
1
10
954.568765690978
20
29.5099379387815
30
0
41
1
10
954.570819750839
20
29.508353397613
30
0
41
1
10
954.575134873696
20
29.5049388415767
30
0
41
1
10
954.577405832552
20
29.503101508839
30
0
41
1
10
954.584532698097
20
29.4972296486051
30
0
41
1
10
954.589700912741
20
29.4928371911518
30
0
41
1
10
954.600784621414
20
29.4831970765497
30
0
41
1
10
954.606584228291
20
29.4780500042152
30
0
41
1
10
954.624504245075
20
29.4619040733198
30
0
41
1
10
954.637193585318
20
29.450162619479
30
0
41
1
10
954.650480947162
20
29.4376371821521
30
0
0
SPLINE
5
18C
100
AcDbEntity
8
1
62
256
6
ByLayer
370
18
48
1
60
0
100
AcDbSpline
70
4
71
3
72
8
73
4
40
0
40
0
40
0
40
0
40
1
40
1
40
1
40
1
41
1
10
954.650480947162
20
29.437637182152
30
0
41
1
10
954.875424578535
20
29.2255922788872
30
0
41
1
10
955.100186818474
20
29.0132913320678
30
0
41
1
10
955.324759526419
20
28.8007228508661
30
0
0
SPLINE
5
18D
100
AcDbEntity
8
1
62
256
6
ByLayer
370
18
48
1
60
0
100
AcDbSpline
70
4
71
3
72
8
73
4
40
0
40
0
40
0
40
0
40
1
40
1
40
1
40
1
41
1
10
955.324759526419
20
28.8369488213186
30
0
41
1
10
955.100371915989
20
29.0741620896711
30
0
41
1
10
954.875606912157
20
29.3108976363487
30
0
41
1
10
954.650480947162
20
29.5471762620254
30
0
0
SPLINE
5
18E
100
AcDbEntity
8
1
62
256
6
ByLayer
370
18
48
1
60
0
100
AcDbSpline
70
4
71
3
72
36
73
32
40
0
40
0
40
0
40
0
40
0.125000000000006
40
0.125000000000006
40
0.187500000000008
40
0.187500000000008
40
0.250000000000011
40
0.250000000000011
40
0.312500000000014
40
0.312500000000014
40
0.375000000000017
40
0.375000000000017
40
0.43750000000002
40
0.43750000000002
40
0.468750000000019
40
0.468750000000019
40
0.500000000000018
40
0.500000000000018
40
0.562500000000016
40
0.562500000000016
40
0.625000000000014
40
0.625000000000014
40
0.687500000000012
40
0.687500000000012
40
0.75000000000001
40
0.75000000000001
40
0.812500000000008
40
0.812500000000008
40
0.875000000000006
40
0.875000000000006
40
1
40
1
40
1
40
1
41
1
10
954.650480947162
20
29.5471762620254
30
0
41
1
10
954.637704644204
20
29.5605854985133
30
0
41
1
10
954.625541463237
20
29.5734985078776
30
0
41
1
10
954.608544520806
20
29.5918066304914
30
0
41
1
10
954.603079242828
20
29.5977407709477
30
0
41
1
10
954.592608088527
20
29.6092217483094
30
0
41
1
10
954.587590850105
20
29.6147822023506
30
0
41
1
10
954.578357410151
20
29.6251547719251
30
0
41
1
10
954.574106540349
20
29.6300043695019
30
0
41
1
10
954.566441477589
20
29.6389327209363
30
0
41
1
10
954.563002030927
20
29.6430430069848
30
0
41
1
10
954.55728091196
20
29.650150472175
30
0
41
1
10
954.554997020138
20
29.6531472517054
30
0
41
1
10
954.552541809604
20
29.6567046119242
30
0
41
1
10
954.551884037704
20
29.6577373876061
30
0
41
1
10
954.550936577762
20
29.6594332033905
30
0
41
1
10
954.550643774493
20
29.6600996818839
30
0
41
1
10
954.550309235351
20
29.661553745806
30
0
41
1
10
954.550808052654
20
29.6617992695843
30
0
41
1
10
954.553329574796
20
29.6607626195678
30
0
41
1
10
954.555308536855
20
29.6594969574314
30
0
41
1
10
954.560521258633
20
29.6556501981886
30
0
41
1
10
954.563759240989
20
29.6530665751805
30
0
41
1
10
954.571432908151
20
29.6466484507647
30
0
41
1
10
954.575772129463
20
29.6428942113801
30
0
41
1
10
954.585221061747
20
29.6345331255938
30
0
41
1
10
954.590344937576
20
29.6299140928261
30
0
41
1
10
954.601308993375
20
29.6198907698287
30
0
41
1
10
954.607044820101
20
29.6145817229885
30
0
41
1
10
954.624770430714
20
29.5980200946677
30
0
41
1
10
954.637325403221
20
29.5860923002166
30
0
41
1
10
954.650480947162
20
29.5734457846267
30
0
0
SPLINE
5
18F
100
AcDbEntity
8
1
62
256
6
ByLayer
370
18
48
1
60
0
100
AcDbSpline
70
4
71
3
72
8
73
4
40
0
40
0
40
0
40
0
40
1
40
1
40
1
40
1
41
1
10
954.650480947162
20
29.5734457846267
30
0
41
1
10
954.875454184539
20
29.3571774519326
30
0
41
1
10
955.100216862248
20
29.1406177487036
30
0
41
1
10
955.324759526419
20
28.9237535927577
30
0
0
SPLINE
5
190
100
AcDbEntity
8
1
62
256
6
ByLayer
370
18
48
1
60
0
100
AcDbSpline
70
4
71
3
72
8
73
4
40
0
40
0
40
0
40
0
40
1
40
1
40
1
40
1
41
1
10
955.324759526419
20
28.9454245547499
30
0
41
1
10
955.100327027265
20
29.177033746535
30
0
41
1
10
954.875562708417
20
29.4082128092184
30
0
41
1
10
954.650480947162
20
29.6389803796967
30
0
0
SPLINE
5
191
100
AcDbEntity
8
1
62
256
6
ByLayer
370
18
48
1
60
0
100
AcDbSpline
70
4
71
3
72
36
73
32
40
0
40
0
40
0
40
0
40
0.124999999999996
40
0.124999999999996
40
0.187499999999997
40
0.187499999999997
40
0.249999999999999
40
0.249999999999999
40
0.3125
40
0.3125
40
0.375000000000001
40
0.375000000000001
40
0.437500000000002
40
0.437500000000002
40
0.500000000000004
40
0.500000000000004
40
0.562500000000005
40
0.562500000000005
40
0.593750000000004
40
0.593750000000004
40
0.625000000000002
40
0.625000000000002
40
0.6875
40
0.6875
40
0.749999999999998
40
0.749999999999998
40
0.812499999999995
40
0.812499999999995
40
0.874999999999993
40
0.874999999999993
40
1
40
1
40
1
40
1
41
1
10
954.650480947162
20
29.6389803796967
30
0
41
1
10
954.637613777945
20
29.6521725875535
30
0
41
1
10
954.625219981924
20
29.664958130869
30
0
41
1
10
954.608051892107
20
29.6828079374732
30
0
41
1
10
954.602547121528
20
29.6885561698197
30
0
41
1
10
954.592032006144
20
29.6995941319583
30
0
41
1
10
954.586988461851
20
29.7049191838167
30
0
41
1
10
954.577667436379
20
29.7148341010412
30
0
41
1
10
954.57340361874
20
29.7194088322727
30
0
41
1
10
954.565767910917
20
29.7276968181442
30
0
41
1
10
954.562378301667
20
29.7314298437316
30
0
41
1
10
954.556742664827
20
29.7377786746802
30
0
41
1
10
954.554537699916
20
29.7403474129815
30
0
41
1
10
954.551460409732
20
29.7441672799396
30
0
41
1
10
954.550599832248
20
29.7454099780301
30
0
41
1
10
954.550385618228
20
29.746370310133
30
0
41
1
10
954.5510054639
20
29.7461180029686
30
0
41
1
10
954.553033048057
20
29.7446336348542
30
0
41
1
10
954.553898743935
20
29.743948377048
30
0
41
1
10
954.55595257669
20
29.7422445820428
30
0
41
1
10
954.557142668717
20
29.7412250365869
30
0
41
1
10
954.561172414617
20
29.7376944897496
30
0
41
1
10
954.564472057431
20
29.7347113458474
30
0
41
1
10
954.572191242041
20
29.7275945713957
30
0
41
1
10
954.576505474409
20
29.723558299546
30
0
41
1
10
954.585897533902
20
29.7146841550092
30
0
41
1
10
954.590976612175
20
29.7098449636738
30
0
41
1
10
954.601822543975
20
29.6994455960925
30
0
41
1
10
954.607496229114
20
29.693974666679
30
0
41
1
10
954.625031392685
20
29.6769930253228
30
0
41
1
10
954.637454677588
20
29.6648688160291
30
0
41
1
10
954.650480947162
20
29.652086906322
30
0
0
SPLINE
5
192
100
AcDbEntity
8
1
62
256
6
ByLayer
370
18
48
1
60
0
100
AcDbSpline
70
4
71
3
72
8
73
4
40
0
40
0
40
0
40
0
40
1
40
1
40
1
40
1
41
1
10
954.650480947162
20
29.652086906322
30
0
41
1
10
954.875486819227
20
29.4313019207311
30
0
41
1
10
955.100249984337
20
29.210187997719
30
0
41
1
10
955.324759526419
20
28.9887303428788
30
0
0
SPLINE
5
193
100
AcDbEntity
8
1
62
256
6
ByLayer
370
18
48
1
60
0
100
AcDbSpline
70
4
71
3
72
8
73
4
40
0
40
0
40
0
40
0
40
1
40
1
40
1
40
1
41
1
10
955.324759526419
20
28.9959432986269
30
0
41
1
10
955.100286558413
20
29.2223090367093
30
0
41
1
10
954.875522849095
20
29.4482892231451
30
0
41
1
10
954.650480947162
20
29.6739004987441
30
0
0
SPLINE
5
194
100
AcDbEntity
8
1
62
256
6
ByLayer
370
18
48
1
60
0
100
AcDbSpline
70
2053
71
3
72
40
73
36
40
0
40
0
40
0
40
0
40
0.0625000000000087
40
0.0625000000000087
40
0.125000000000017
40
0.125000000000017
40
0.250000000000034
40
0.250000000000034
40
0.312500000000043
40
0.312500000000043
40
0.343750000000043
40
0.343750000000043
40
0.375000000000043
40
0.375000000000043
40
0.437500000000043
40
0.437500000000043
40
0.468750000000043
40
0.468750000000043
40
0.500000000000043
40
0.500000000000043
40
0.562500000000043
40
0.562500000000043
40
0.593750000000044
40
0.593750000000044
40
0.625000000000045
40
0.625000000000045
40
0.687500000000038
40
0.687500000000038
40
0.75000000000003
40
0.75000000000003
40
0.812500000000023
40
0.812500000000023
40
0.875000000000015
40
0.875000000000015
40
1
40
1
40
1
40
1
41
1
10
954.650480947162
20
29.6739004987441
30
0
41
1
10
954.643992955582
20
29.6804049054523
30
0
41
1
10
954.637636181189
20
29.6867793477346
30
0
41
1
10
954.625210847247
20
29.6992420527512
30
0
41
1
10
954.619146176302
20
29.7053264300536
30
0
41
1
10
954.601744389061
20
29.7227884282004
30
0
41
1
10
954.591072584738
20
29.7335022487956
30
0
41
1
10
954.576936961534
20
29.7476979729858
30
0
41
1
10
954.572645704744
20
29.7520083043074
30
0
41
1
10
954.56691962021
20
29.7577605651844
30
0
41
1
10
954.565129580502
20
29.7595589239996
30
0
41
1
10
954.561806833647
20
29.7628973043261
30
0
41
1
10
954.560272171239
20
29.7644392911591
30
0
41
1
10
954.55616284662
20
29.7685684174307
30
0
41
1
10
954.554049300942
20
29.7706924154174
30
0
41
1
10
954.551902178127
20
29.7728502205678
30
0
41
1
10
954.551356306606
20
29.7733988261239
30
0
41
1
10
954.550642374049
20
29.7741163393902
30
0
41
1
10
954.550471167322
20
29.7742884082704
30
0
41
1
10
954.550501797686
20
29.7742576238856
30
0
41
1
10
954.551244995422
20
29.7735106695338
30
0
41
1
10
954.553446264571
20
29.7712984538464
30
0
41
1
10
954.554361786639
20
29.7703783986682
30
0
41
1
10
954.556500156567
20
29.7682295397063
30
0
41
1
10
954.557726962776
20
29.7669967579247
30
0
41
1
10
954.561850783476
20
29.7628530861755
30
0
41
1
10
954.565204674615
20
29.7594833280313
30
0
41
1
10
954.572933903368
20
29.7517188121399
30
0
41
1
10
954.577233363334
20
29.7474002825761
30
0
41
1
10
954.586565485228
20
29.7380285412718
30
0
41
1
10
954.591599284108
20
29.7329741860504
30
0
41
1
10
954.602328233387
20
29.7222037216158
30
0
41
1
10
954.607940977048
20
29.7165703468942
30
0
41
1
10
954.62528862224
20
29.6991628420913
30
0
41
1
10
954.637582161457
20
29.6868319193891
30
0
41
1
10
954.650480947162
20
29.6739004987441
30
0
0
SPLINE
5
195
100
AcDbEntity
8
1
62
256
6
ByLayer
370
18
48
1
60
0
100
AcDbSpline
70
4
71
3
72
34
73
30
40
0
40
0
40
0
40
0
40
0.0007747478422696
40
0.0007747478422696
40
0.0461940774858129
40
0.0461940774858129
40
0.0916134071293564
40
0.0916134071293564
40
0.182452066416426
40
0.182452066416426
40
0.22787139605996
40
0.22787139605996
40
0.273290725703495
40
0.273290725703495
40
0.364129384990564
40
0.364129384990564
40
0.409548714634102
40
0.409548714634102
40
0.45496804427764
40
0.45496804427764
40
0.545806703564699
40
0.545806703564699
40
0.636645362851757
40
0.636645362851757
40
0.727484022138815
40
0.727484022138815
40
0.818322681425874
40
0.818322681425874
40
1
40
1
40
1
40
1
41
1
10
954.568926092078
20
-49.7557449210138
30
0
41
1
10
954.568893465289
20
-49.7557776968743
30
0
41
1
10
954.568860872937
20
-49.7558104381806
30
0
41
1
10
954.56691962021
20
-49.7577605651915
30
0
41
1
10
954.565129580502
20
-49.7595589240067
30
0
41
1
10
954.561806833646
20
-49.7628973043333
30
0
41
1
10
954.560272171239
20
-49.7644392911662
30
0
41
1
10
954.556162846619
20
-49.7685684174378
30
0
41
1
10
954.554049300942
20
-49.7706924154246
30
0
41
1
10
954.551902178127
20
-49.7728502205749
30
0
41
1
10
954.551356306606
20
-49.7733988261311
30
0
41
1
10
954.550642374049
20
-49.7741163393973
30
0
41
1
10
954.550471167322
20
-49.7742884082775
30
0
41
1
10
954.550501797686
20
-49.7742576238928
30
0
41
1
10
954.551244995422
20
-49.7735106695409
30
0
41
1
10
954.553446264571
20
-49.7712984538536
30
0
41
1
10
954.554361786639
20
-49.7703783986753
30
0
41
1
10
954.556500156567
20
-49.7682295397134
30
0
41
1
10
954.557726962775
20
-49.7669967579319
30
0
41
1
10
954.561850783476
20
-49.7628530861826
30
0
41
1
10
954.565204674614
20
-49.7594833280384
30
0
41
1
10
954.572933903367
20
-49.751718812147
30
0
41
1
10
954.577233363334
20
-49.7474002825832
30
0
41
1
10
954.586565485227
20
-49.7380285412789
30
0
41
1
10
954.591599284107
20
-49.7329741860576
30
0
41
1
10
954.602328233387
20
-49.7222037216229
30
0
41
1
10
954.607940977048
20
-49.7165703469014
30
0
41
1
10
954.62528862224
20
-49.6991628420985
30
0
41
1
10
954.637582161456
20
-49.6868319193962
30
0
41
1
10
954.650480947162
20
-49.6739004987512
30
0
0
SPLINE
5
196
100
AcDbEntity
8
1
62
256
6
ByLayer
370
18
48
1
60
0
100
AcDbSpline
70
4
71
3
72
8
73
4
40
0
40
0
40
0
40
0
40
1
40
1
40
1
40
1
41
1
10
954.650480947162
20
-49.6739004987512
30
0
41
1
10
954.875522849095
20
-49.4482892231523
30
0
41
1
10
955.100286558413
20
-49.2223090367163
30
0
41
1
10
955.324759526419
20
-48.995943298634
30
0
0
SPLINE
5
197
100
AcDbEntity
8
1
62
256
6
ByLayer
370
18
48
1
60
0
100
AcDbSpline
70
4
71
3
72
8
73
4
40
0
40
0
40
0
40
0
40
1
40
1
40
1
40
1
41
1
10
955.324759526419
20
-48.988730342886
30
0
41
1
10
955.100249984337
20
-49.2101879977261
30
0
41
1
10
954.875486819226
20
-49.4313019207383
30
0
41
1
10
954.650480947162
20
-49.6520869063292
30
0
0
SPLINE
5
198
100
AcDbEntity
8
1
62
256
6
ByLayer
370
18
48
1
60
0
100
AcDbSpline
70
4
71
3
72
38
73
34
40
0
40
0
40
0
40
0
40
0.0624999999999982
40
0.0624999999999982
40
0.124999999999996
40
0.124999999999996
40
0.187499999999995
40
0.187499999999995
40
0.249999999999993
40
0.249999999999993
40
0.312499999999991
40
0.312499999999991
40
0.374999999999989
40
0.374999999999989
40
0.437499999999988
40
0.437499999999988
40
0.468749999999987
40
0.468749999999987
40
0.499999999999986
40
0.499999999999986
40
0.562499999999988
40
0.562499999999988
40
0.624999999999989
40
0.624999999999989
40
0.687499999999991
40
0.687499999999991
40
0.749999999999993
40
0.749999999999993
40
0.812499999999995
40
0.812499999999995
40
0.874999999999996
40
0.874999999999996
40
1
40
1
40
1
40
1
41
1
10
954.650480947162
20
-49.6520869063292
30
0
41
1
10
954.643929136608
20
-49.6585158114304
30
0
41
1
10
954.637505188353
20
-49.664802277811
30
0
41
1
10
954.624940100892
20
-49.6770593973062
30
0
41
1
10
954.618813287764
20
-49.6830158733848
30
0
41
1
10
954.607090448675
20
-49.6943665412535
30
0
41
1
10
954.601468397143
20
-49.6997861974921
30
0
41
1
10
954.590766358961
20
-49.7100454680122
30
0
41
1
10
954.585662645022
20
-49.7149075890087
30
0
41
1
10
954.576210122694
20
-49.7238357803473
30
0
41
1
10
954.571917101348
20
-49.7278494915585
30
0
41
1
10
954.564306503146
20
-49.7348616776814
30
0
41
1
10
954.56097038894
20
-49.7378755715435
30
0
41
1
10
954.555637293165
20
-49.7425395587118
30
0
41
1
10
954.553610605183
20
-49.7442181385245
30
0
41
1
10
954.551618740782
20
-49.7456650542125
30
0
41
1
10
954.551133084226
20
-49.7459650957412
30
0
41
1
10
954.550541940155
20
-49.7461865108895
30
0
41
1
10
954.550431387483
20
-49.7461117990397
30
0
41
1
10
954.550640600418
20
-49.7453455867344
30
0
41
1
10
954.551498397542
20
-49.7441148410466
30
0
41
1
10
954.554647012233
20
-49.7402172619542
30
0
41
1
10
954.55688476653
20
-49.7376161136344
30
0
41
1
10
954.562491321592
20
-49.7313051130312
30
0
41
1
10
954.565888053189
20
-49.7275648617892
30
0
41
1
10
954.573619820885
20
-49.719175781219
30
0
41
1
10
954.577903028731
20
-49.714582341853
30
0
41
1
10
954.587175791549
20
-49.7047211284086
30
0
41
1
10
954.592166384284
20
-49.6994523602027
30
0
41
1
10
954.602785683596
20
-49.6883064830146
30
0
41
1
10
954.608343208476
20
-49.6825042200341
30
0
41
1
10
954.625519842097
20
-49.6646480964839
30
0
41
1
10
954.637696147616
20
-49.6520881371413
30
0
41
1
10
954.650480947162
20
-49.6389803797038
30
0
0
SPLINE
5
199
100
AcDbEntity
8
1
62
256
6
ByLayer
370
18
48
1
60
0
100
AcDbSpline
70
4
71
3
72
8
73
4
40
0
40
0
40
0
40
0
40
1
40
1
40
1
40
1
41
1
10
954.650480947162
20
-49.6389803797038
30
0
41
1
10
954.875562708417
20
-49.4082128092255
30
0
41
1
10
955.100327027265
20
-49.1770337465421
30
0
41
1
10
955.324759526419
20
-48.9454245547571
30
0
0
SPLINE
5
19A
100
AcDbEntity
8
1
62
256
6
ByLayer
370
18
48
1
60
0
100
AcDbSpline
70
4
71
3
72
8
73
4
40
0
40
0
40
0
40
0
40
1
40
1
40
1
40
1
41
1
10
955.324759526419
20
-48.9237535927649
30
0
41
1
10
955.100216862248
20
-49.1406177487107
30
0
41
1
10
954.875454184538
20
-49.3571774519397
30
0
41
1
10
954.650480947162
20
-49.5734457846339
30
0
0
SPLINE
5
19B
100
AcDbEntity
8
1
62
256
6
ByLayer
370
18
48
1
60
0
100
AcDbSpline
70
4
71
3
72
36
73
32
40
0
40
0
40
0
40
0
40
0.0624999999999997
40
0.0624999999999997
40
0.124999999999999
40
0.124999999999999
40
0.187499999999999
40
0.187499999999999
40
0.249999999999999
40
0.249999999999999
40
0.312499999999998
40
0.312499999999998
40
0.374999999999998
40
0.374999999999998
40
0.437499999999998
40
0.437499999999998
40
0.499999999999998
40
0.499999999999998
40
0.562499999999997
40
0.562499999999997
40
0.624999999999997
40
0.624999999999997
40
0.687499999999997
40
0.687499999999997
40
0.749999999999996
40
0.749999999999996
40
0.812499999999996
40
0.812499999999996
40
0.874999999999996
40
0.874999999999996
40
1
40
1
40
1
40
1
41
1
10
954.650480947162
20
-49.5734457846339
30
0
41
1
10
954.643861576875
20
-49.5798090311779
30
0
41
1
10
954.637366430348
20
-49.5860164898967
30
0
41
1
10
954.624652939671
20
-49.5980834546086
30
0
41
1
10
954.618463059238
20
-49.603915575568
30
0
41
1
10
954.60661228893
20
-49.614983391091
30
0
41
1
10
954.600927729746
20
-49.6202416918162
30
0
41
1
10
954.590108985264
20
-49.6301272896768
30
0
41
1
10
954.584937687374
20
-49.6347873942619
30
0
41
1
10
954.5754598459
20
-49.6431667953522
30
0
41
1
10
954.571164946839
20
-49.6468772491414
30
0
41
1
10
954.563583021689
20
-49.6532090003695
30
0
41
1
10
954.560298665706
20
-49.6558244300152
30
0
41
1
10
954.555121202073
20
-49.6596244183479
30
0
41
1
10
954.553186399146
20
-49.6608451052157
30
0
41
1
10
954.550748812835
20
-49.6617979895197
30
0
41
1
10
954.550292645043
20
-49.6615104606482
30
0
41
1
10
954.550807804347
20
-49.6595111126006
30
0
41
1
10
954.551788019542
20
-49.6577851270024
30
0
41
1
10
954.55512081954
20
-49.6529802150848
30
0
41
1
10
954.557424579155
20
-49.6499671137394
30
0
41
1
10
954.56312891411
20
-49.6428904928508
30
0
41
1
10
954.566560543306
20
-49.638791386938
30
0
41
1
10
954.574289091072
20
-49.6297944827542
30
0
41
1
10
954.578554403682
20
-49.6249315153755
30
0
41
1
10
954.587766553133
20
-49.6145868638112
30
0
41
1
10
954.592714336074
20
-49.609104318035
30
0
41
1
10
954.603226704996
20
-49.59758004701
30
0
41
1
10
954.608730923371
20
-49.5916047976087
30
0
41
1
10
954.625742331052
20
-49.5732843004701
30
0
41
1
10
954.637805656822
20
-49.5604794817723
30
0
41
1
10
954.650480947162
20
-49.5471762620326
30
0
0
SPLINE
5
19C
100
AcDbEntity
8
1
62
256
6
ByLayer
370
18
48
1
60
0
100
AcDbSpline
70
4
71
3
72
8
73
4
40
0
40
0
40
0
40
0
40
1
40
1
40
1
40
1
41
1
10
954.650480947162
20
-49.5471762620326
30
0
41
1
10
954.875606912156
20
-49.3108976363558
30
0
41
1
10
955.100371915989
20
-49.0741620896782
30
0
41
1
10
955.324759526419
20
-48.8369488213258
30
0
0
SPLINE
5
19D
100
AcDbEntity
8
1
62
256
6
ByLayer
370
18
48
1
60
0
100
AcDbSpline
70
4
71
3
72
8
73
4
40
0
40
0
40
0
40
0
40
1
40
1
40
1
40
1
41
1
10
955.324759526419
20
-48.8007228508732
30
0
41
1
10
955.100186818473
20
-49.013291332075
30
0
41
1
10
954.875424578534
20
-49.2255922788944
30
0
41
1
10
954.650480947162
20
-49.4376371821592
30
0
0
SPLINE
5
19E
100
AcDbEntity
8
1
62
256
6
ByLayer
370
18
48
1
60
0
100
AcDbSpline
70
4
71
3
72
41
73
37
40
0
40
0
40
0
40
0
40
0.0625000000000039
40
0.0625000000000039
40
0.125000000000008
40
0.125000000000008
40
0.187500000000012
40
0.187500000000012
40
0.250000000000016
40
0.250000000000016
40
0.312500000000019
40
0.312500000000019
40
0.343750000000026
40
0.343750000000026
40
0.375000000000032
40
0.406250000000039
40
0.406250000000039
40
0.437500000000045
40
0.437500000000045
40
0.500000000000054
40
0.500000000000054
40
0.531250000000055
40
0.531250000000055
40
0.562500000000056
40
0.562500000000056
40
0.625000000000052
40
0.625000000000052
40
0.687500000000047
40
0.687500000000047
40
0.750000000000043
40
0.750000000000043
40
0.812500000000038
40
0.812500000000038
40
0.875000000000034
40
0.875000000000034
40
1
40
1
40
1
40
1
41
1
10
954.650480947162
20
-49.4376371821592
30
0
41
1
10
954.643789827378
20
-49.4439446194434
30
0
41
1
10
954.637218955096
20
-49.450081931203
30
0
41
1
10
954.62434727948
20
-49.4619735832985
30
0
41
1
10
954.6180935358
20
-49.4676840146889
30
0
41
1
10
954.606107362141
20
-49.4784754584126
30
0
41
1
10
954.600356381956
20
-49.4835738096058
30
0
41
1
10
954.589413347495
20
-49.4930827448713
30
0
41
1
10
954.584184019677
20
-49.4975233504347
30
0
41
1
10
954.574681611266
20
-49.5053390965638
30
0
41
1
10
954.570385834347
20
-49.5087359865939
30
0
41
1
10
954.564724611599
20
-49.5129523180947
30
0
41
1
10
954.562965292556
20
-49.5142121861559
30
0
41
1
10
954.559794491274
20
-49.5163695240653
30
0
41
1
10
954.556952724985
20
-49.5181790848025
30
0
41
1
10
954.554782892432
20
-49.5192781340984
30
0
41
1
10
954.552961882831
20
-49.5200081993686
30
0
41
1
10
954.552222729554
20
-49.5201880675173
30
0
41
1
10
954.550584526142
20
-49.5201467770176
30
0
41
1
10
954.550254050918
20
-49.5193608526248
30
0
41
1
10
954.550815979738
20
-49.5171285061315
30
0
41
1
10
954.551180438818
20
-49.5162079459734
30
0
41
1
10
954.552258911481
20
-49.5140186465003
30
0
41
1
10
954.552978831786
20
-49.5127409718412
30
0
41
1
10
954.555605025028
20
-49.5084766154816
30
0
41
1
10
954.557971548925
20
-49.5050584661203
30
0
41
1
10
954.563764136901
20
-49.4972326341341
30
0
41
1
10
954.567223412479
20
-49.4927847342465
30
0
41
1
10
954.574943660529
20
-49.4831922683421
30
0
41
1
10
954.579189648214
20
-49.4780631908416
30
0
41
1
10
954.58834012936
20
-49.4672376716675
30
0
41
1
10
954.593245484313
20
-49.4615404856669
30
0
41
1
10
954.603653382715
20
-49.4496322946189
30
0
41
1
10
954.609105870788
20
-49.4434790550156
30
0
41
1
10
954.625957119466
20
-49.4246758382714
30
0
41
1
10
954.637911203953
20
-49.4116091659554
30
0
41
1
10
954.650480947162
20
-49.3980905001499
30
0
0
SPLINE
5
19F
100
AcDbEntity
8
1
62
256
6
ByLayer
370
18
48
1
60
0
100
AcDbSpline
70
4
71
3
72
8
73
4
40
0
40
0
40
0
40
0
40
1
40
1
40
1
40
1
41
1
10
954.650480947162
20
-49.3980905001499
30
0
41
1
10
954.875656072682
20
-49.1559163189284
30
0
41
1
10
955.100421849062
20
-48.9132366582302
30
0
41
1
10
955.324759526419
20
-48.6700283650048
30
0
0
SPLINE
5
1A0
100
AcDbEntity
8
1
62
256
6
ByLayer
370
18
48
1
60
0
100
AcDbSpline
70
4
71
3
72
8
73
4
40
0
40
0
40
0
40
0
40
1
40
1
40
1
40
1
41
1
10
955.324759526419
20
-48.6190832846959
30
0
41
1
10
955.100159538353
20
-48.8276408850808
30
0
41
1
10
954.87539769261
20
-49.0359656536747
30
0
41
1
10
954.650480947162
20
-49.244067599497
30
0
0
SPLINE
5
1A1
100
AcDbEntity
8
1
62
256
6
ByLayer
370
18
48
1
60
0
100
AcDbSpline
70
4
71
3
72
38
73
34
40
0
40
0
40
0
40
0
40
0.0625000000000033
40
0.0625000000000033
40
0.125000000000007
40
0.125000000000007
40
0.18750000000001
40
0.18750000000001
40
0.250000000000014
40
0.250000000000014
40
0.312500000000017
40
0.312500000000017
40
0.375000000000021
40
0.375000000000021
40
0.437500000000024
40
0.437500000000024
40
0.500000000000028
40
0.500000000000028
40
0.531250000000028
40
0.531250000000028
40
0.562500000000028
40
0.562500000000028
40
0.62500000000002
40
0.62500000000002
40
0.687500000000011
40
0.687500000000011
40
0.750000000000003
40
0.750000000000003
40
0.812499999999994
40
0.812499999999994
40
0.874999999999986
40
0.874999999999986
40
1
40
1
40
1
40
1
41
1
10
954.650480947162
20
-49.244067599497
30
0
41
1
10
954.64372845128
20
-49.2503152780741
30
0
41
1
10
954.637100409157
20
-49.2563697479733
30
0
41
1
10
954.62412368693
20
-49.2680440732018
30
0
41
1
10
954.617745477757
20
-49.2736889978756
30
0
41
1
10
954.605572354839
20
-49.2842467375692
30
0
41
1
10
954.59975373123
20
-49.2891819781868
30
0
41
1
10
954.5887269517
20
-49.2982681837826
30
0
41
1
10
954.583481442669
20
-49.3024477815667
30
0
41
1
10
954.573910177459
20
-49.3097174775066
30
0
41
1
10
954.569622162567
20
-49.3127817063955
30
0
41
1
10
954.562157771083
20
-49.3176338321132
30
0
41
1
10
954.55898747213
20
-49.3194085766197
30
0
41
1
10
954.554143460907
20
-49.3214038764115
30
0
41
1
10
954.552422427442
20
-49.3216581879013
30
0
41
1
10
954.550455117484
20
-49.3206018180877
30
0
41
1
10
954.550243884552
20
-49.3193050943986
30
0
41
1
10
954.550982658892
20
-49.316325515369
30
0
41
1
10
954.551405206045
20
-49.3151586229214
30
0
41
1
10
954.552593932277
20
-49.3124862285563
30
0
41
1
10
954.553362763968
20
-49.3109777520916
30
0
41
1
10
954.556109414206
20
-49.3060645471711
30
0
41
1
10
954.558534589433
20
-49.3022483460978
30
0
41
1
10
954.564407830725
20
-49.2936851695804
30
0
41
1
10
954.567888426679
20
-49.2888969459937
30
0
41
1
10
954.575595825129
20
-49.2787176483923
30
0
41
1
10
954.579821015287
20
-49.2733245181227
30
0
41
1
10
954.58890820448
20
-49.2620186187011
30
0
41
1
10
954.593770985792
20
-49.2561052096608
30
0
41
1
10
954.604075389043
20
-49.2438067086754
30
0
41
1
10
954.609476561968
20
-49.2374706117851
30
0
41
1
10
954.626169439039
20
-49.2181667321391
30
0
41
1
10
954.638015515148
20
-49.2048221413044
30
0
41
1
10
954.650480947162
20
-49.1910693885192
30
0
0
SPLINE
5
1A2
100
AcDbEntity
8
1
62
256
6
ByLayer
370
18
48
1
60
0
100
AcDbSpline
70
4
71
3
72
8
73
4
40
0
40
0
40
0
40
0
40
1
40
1
40
1
40
1
41
1
10
954.650480947162
20
-49.1910693885192
30
0
41
1
10
954.875710921388
20
-48.9425796328497
30
0
41
1
10
955.100477572429
20
-48.6935323780941
30
0
41
1
10
955.324759526419
20
-48.4439019058976
30
0
0
SPLINE
5
1A3
100
AcDbEntity
8
1
62
256
6
ByLayer
370
18
48
1
60
0
100
AcDbSpline
70
4
71
3
72
8
73
4
40
0
40
0
40
0
40
0
40
1
40
1
40
1
40
1
41
1
10
955.324759526419
20
-48.3780027326889
30
0
41
1
10
955.100134758695
20
-48.5828247827923
30
0
41
1
10
954.87537326867
20
-48.7874465987384
30
0
41
1
10
954.650480947162
20
-48.9918768078194
30
0
0
SPLINE
5
1A4
100
AcDbEntity
8
1
62
256
6
ByLayer
370
18
48
1
60
0
100
AcDbSpline
70
4
71
3
72
39
73
35
40
0
40
0
40
0
40
0
40
0.0624999999999712
40
0.0624999999999712
40
0.124999999999943
40
0.124999999999943
40
0.187499999999914
40
0.21874999999991
40
0.21874999999991
40
0.249999999999906
40
0.249999999999906
40
0.312499999999904
40
0.312499999999904
40
0.343749999999907
40
0.343749999999907
40
0.37499999999991
40
0.37499999999991
40
0.437499999999918
40
0.437499999999918
40
0.499999999999927
40
0.499999999999927
40
0.562499999999935
40
0.562499999999935
40
0.624999999999943
40
0.624999999999943
40
0.687499999999952
40
0.687499999999952
40
0.74999999999996
40
0.74999999999996
40
0.812499999999969
40
0.812499999999969
40
0.874999999999977
40
0.874999999999977
40
1
40
1
40
1
40
1
41
1
10
954.650480947162
20
-48.9918768078194
30
0
41
1
10
954.643649816008
20
-48.9980863998619
30
0
41
1
10
954.636939876117
20
-49.0040848981987
30
0
41
1
10
954.623794094859
20
-49.0156034769036
30
0
41
1
10
954.617329524036
20
-49.0211466660569
30
0
41
1
10
954.60500457436
20
-49.0314331456127
30
0
41
1
10
954.596170860155
20
-49.0385879655077
30
0
41
1
10
954.588043501614
20
-49.0447762501992
30
0
41
1
10
954.582799159831
20
-49.0486635998137
30
0
41
1
10
954.580261275681
20
-49.0504895324314
30
0
41
1
10
954.57307316197
20
-49.0554782834932
30
0
41
1
10
954.568796021073
20
-49.0581931833881
30
0
41
1
10
954.563246780281
20
-49.0612361765678
30
0
41
1
10
954.561536475688
20
-49.0620795181003
30
0
41
1
10
954.558494467645
20
-49.0633678275481
30
0
41
1
10
954.557153433632
20
-49.063818763974
30
0
41
1
10
954.553669051602
20
-49.0645929219418
30
0
41
1
10
954.552056552372
20
-49.0643342833391
30
0
41
1
10
954.550349770293
20
-49.0622352523391
30
0
41
1
10
954.550266748369
20
-49.0604319068588
30
0
41
1
10
954.551482464078
20
-49.0554724971617
30
0
41
1
10
954.552807090344
20
-49.0522747607941
30
0
41
1
10
954.556617305382
20
-49.0448740310564
30
0
41
1
10
954.559095608098
20
-49.0406658108682
30
0
41
1
10
954.565040094203
20
-49.0313742977486
30
0
41
1
10
954.568535454867
20
-49.0262527511263
30
0
41
1
10
954.576225971422
20
-49.015489878154
30
0
41
1
10
954.580429458384
20
-49.0098318917323
30
0
41
1
10
954.58945328218
20
-48.998040238147
30
0
41
1
10
954.594274329537
20
-48.9919060219631
30
0
41
1
10
954.604478490773
20
-48.9792047526213
30
0
41
1
10
954.60983025929
20
-48.97267768367
30
0
41
1
10
954.626371344677
20
-48.9528455608853
30
0
41
1
10
954.638114394109
20
-48.9392005548751
30
0
41
1
10
954.650480947162
20
-48.9251885618227
30
0
0
SPLINE
5
1A5
100
AcDbEntity
8
1
62
256
6
ByLayer
370
18
48
1
60
0
100
AcDbSpline
70
4
71
3
72
8
73
4
40
0
40
0
40
0
40
0
40
1
40
1
40
1
40
1
41
1
10
954.650480947162
20
-48.9251885618227
30
0
41
1
10
954.875772336775
20
-48.6699208754631
30
0
41
1
10
955.100539982182
20
-48.4140398201444
30
0
41
1
10
955.324759526419
20
-48.157516870864
30
0
0
SPLINE
5
1A6
100
AcDbEntity
8
1
62
256
6
ByLayer
370
18
48
1
60
0
100
AcDbSpline
70
4
71
3
72
8
73
4
40
0
40
0
40
0
40
0
40
1
40
1
40
1
40
1
41
1
10
955.324759526419
20
-48.076352159185
30
0
41
1
10
955.10011226246
20
-48.2777080605208
30
0
41
1
10
954.875351093927
20
-48.4788942959968
30
0
41
1
10
954.650480947162
20
-48.6799182036161
30
0
0
SPLINE
5
1A7
100
AcDbEntity
8
1
62
256
6
ByLayer
370
18
48
1
60
0
100
AcDbSpline
70
4
71
3
72
39
73
35
40
0
40
0
40
0
40
0
40
0.0624999999999996
40
0.0624999999999996
40
0.124999999999999
40
0.124999999999999
40
0.187499999999999
40
0.187499999999999
40
0.249999999999999
40
0.249999999999999
40
0.312499999999998
40
0.312499999999998
40
0.343749999999998
40
0.343749999999998
40
0.374999999999998
40
0.406249999999998
40
0.406249999999998
40
0.437499999999998
40
0.437499999999998
40
0.499999999999997
40
0.499999999999997
40
0.562499999999997
40
0.562499999999997
40
0.624999999999996
40
0.624999999999996
40
0.687499999999996
40
0.687499999999996
40
0.749999999999996
40
0.749999999999996
40
0.812499999999995
40
0.812499999999995
40
0.874999999999995
40
0.874999999999995
40
1
40
1
40
1
40
1
41
1
10
954.650480947162
20
-48.6799182036161
30
0
41
1
10
954.643565670207
20
-48.6861001535798
30
0
41
1
10
954.636767958279
20
-48.6920515537818
30
0
41
1
10
954.623440603724
20
-48.7034275935089
30
0
41
1
10
954.6168844063
20
-48.7088721754176
30
0
41
1
10
954.604398622935
20
-48.7188868920213
30
0
41
1
10
954.598434748364
20
-48.7234879620174
30
0
41
1
10
954.587153092628
20
-48.7317476409326
30
0
41
1
10
954.581791671356
20
-48.7354314199248
30
0
41
1
10
954.57220014428
20
-48.7414310137349
30
0
41
1
10
954.567937897278
20
-48.7437756283189
30
0
41
1
10
954.562446528504
20
-48.7461833400729
30
0
41
1
10
954.560777044586
20
-48.7467940813689
30
0
41
1
10
954.55782690296
20
-48.7476061378703
30
0
41
1
10
954.555244351747
20
-48.7480185535904
30
0
41
1
10
954.553393590677
20
-48.7476349748072
30
0
41
1
10
954.551913285669
20
-48.7468482588732
30
0
41
1
10
954.551357623986
20
-48.7462472908015
30
0
41
1
10
954.550279242778
20
-48.7438835683568
30
0
41
1
10
954.550321569501
20
-48.741568145711
30
0
41
1
10
954.551764791943
20
-48.7356166534175
30
0
41
1
10
954.553188119923
20
-48.7319483379158
30
0
41
1
10
954.55713693466
20
-48.723706998994
30
0
41
1
10
954.559664092804
20
-48.7191100234254
30
0
41
1
10
954.56567236527
20
-48.7090941781136
30
0
41
1
10
954.569176780373
20
-48.7036445049478
30
0
41
1
10
954.576846793474
20
-48.6922976930126
30
0
41
1
10
954.581027573093
20
-48.6863726161789
30
0
41
1
10
954.589987298539
20
-48.6740875503026
30
0
41
1
10
954.594766888769
20
-48.6677270920028
30
0
41
1
10
954.604872535492
20
-48.654609399292
30
0
41
1
10
954.610175638582
20
-48.6478831927288
30
0
41
1
10
954.626568177246
20
-48.6274949403971
30
0
41
1
10
954.638210626846
20
-48.6135273820376
30
0
41
1
10
954.650480947162
20
-48.5992317194421
30
0
0
SPLINE
5
1A8
100
AcDbEntity
8
1
62
256
6
ByLayer
370
18
48
1
60
0
100
AcDbSpline
70
4
71
3
72
8
73
4
40
0
40
0
40
0
40
0
40
1
40
1
40
1
40
1
41
1
10
954.650480947162
20
-48.5992317194421
30
0
41
1
10
954.875841381202
20
-48.3366732332196
30
0
41
1
10
955.100610162108
20
-48.0734412000358
30
0
41
1
10
955.324759526419
20
-47.8095040135449
30
0
0
SPLINE
5
1A9
100
AcDbEntity
8
1
62
256
6
ByLayer
370
18
48
1
60
0
100
AcDbSpline
70
4
71
3
72
8
73
4
40
0
40
0
40
0
40
0
40
1
40
1
40
1
40
1
41
1
10
955.324759526419
20
-47.7126781566924
30
0
41
1
10
955.100091875538
20
-47.9108350221828
30
0
41
1
10
954.875330997764
20
-48.1088507984728
30
0
41
1
10
954.650480947162
20
-48.3067316209658
30
0
0
SPLINE
5
1AA
100
AcDbEntity
8
1
62
256
6
ByLayer
370
18
48
1
60
0
100
AcDbSpline
70
4
71
3
72
37
73
33
40
0
40
0
40
0
40
0
40
0.125000000000068
40
0.125000000000068
40
0.187500000000088
40
0.187500000000088
40
0.250000000000108
40
0.250000000000108
40
0.28125000000012
40
0.28125000000012
40
0.312500000000131
40
0.312500000000131
40
0.37500000000014
40
0.37500000000014
40
0.406250000000138
40
0.406250000000138
40
0.437500000000136
40
0.468750000000134
40
0.468750000000134
40
0.500000000000132
40
0.500000000000132
40
0.562500000000123
40
0.562500000000123
40
0.625000000000113
40
0.625000000000113
40
0.750000000000084
40
0.750000000000084
40
0.812500000000066
40
0.812500000000066
40
0.875000000000047
40
0.875000000000047
40
1
40
1
40
1
40
1
41
1
10
954.650480947162
20
-48.3067316209658
30
0
41
1
10
954.636434348546
20
-48.3190934259992
30
0
41
1
10
954.622684144744
20
-48.3305755129956
30
0
41
1
10
954.603740983902
20
-48.3451515835846
30
0
41
1
10
954.597681322127
20
-48.3495918520563
30
0
41
1
10
954.586175983843
20
-48.3574618631552
30
0
41
1
10
954.58082406165
20
-48.3608228884784
30
0
41
1
10
954.573631711154
20
-48.3647965825521
30
0
41
1
10
954.571365558743
20
-48.3659483306807
30
0
41
1
10
954.56711602258
20
-48.3678793623773
30
0
41
1
10
954.565139546047
20
-48.3686536445406
30
0
41
1
10
954.559790367902
20
-48.3703431403812
30
0
41
1
10
954.55694299365
20
-48.3706534827802
30
0
41
1
10
954.55377529388
20
-48.3698649339535
30
0
41
1
10
954.552902852081
20
-48.3693868595139
30
0
41
1
10
954.551567127181
20
-48.3680365444789
30
0
41
1
10
954.550625914068
20
-48.3662932037985
30
0
41
1
10
954.550427969755
20
-48.3638090934357
30
0
41
1
10
954.550586691818
20
-48.360969398638
30
0
41
1
10
954.550847153054
20
-48.3593620344504
30
0
41
1
10
954.552128115042
20
-48.354101683841
30
0
41
1
10
954.553632975142
20
-48.3500279803571
30
0
41
1
10
954.557731407684
20
-48.3409322344708
30
0
41
1
10
954.560345942881
20
-48.3358755729774
30
0
41
1
10
954.569522298348
20
-48.3196631123407
30
0
41
1
10
954.577273902087
20
-48.3076605852992
30
0
41
1
10
954.590742460645
20
-48.2883132435705
30
0
41
1
10
954.595545182315
20
-48.2816388820649
30
0
41
1
10
954.60551471688
20
-48.2681539458291
30
0
41
1
10
954.610706360542
20
-48.2613074336325
30
0
41
1
10
954.626837296546
20
-48.2404889673631
30
0
41
1
10
954.638326658489
20
-48.2262410615863
30
0
41
1
10
954.650480947162
20
-48.2116614934356
30
0
0
SPLINE
5
1AB
100
AcDbEntity
8
1
62
256
6
ByLayer
370
18
48
1
60
0
100
AcDbSpline
70
4
71
3
72
8
73
4
40
0
40
0
40
0
40
0
40
1
40
1
40
1
40
1
41
1
10
954.650480947162
20
-48.2116614934356
30
0
41
1
10
954.875919349475
20
-47.9412388764654
30
0
41
1
10
955.100689433321
20
-47.6700776853982
30
0
41
1
10
955.324759526419
20
-47.3981429184694
30
0
0
SPLINE
5
1AC
100
AcDbEntity
8
1
62
256
6
ByLayer
370
18
48
1
60
0
100
AcDbSpline
70
4
71
3
72
8
73
4
40
0
40
0
40
0
40
0
40
1
40
1
40
1
40
1
41
1
10
955.324759526419
20
-47.2851658672758
30
0
41
1
10
955.100073465688
20
-47.4803924257773
30
0
41
1
10
954.875312850704
20
-47.6755044747955
30
0
41
1
10
954.650480947162
20
-47.8705070301807
30
0
0
SPLINE
5
1AD
100
AcDbEntity
8
1
62
256
6
ByLayer
370
18
48
1
60
0
100
AcDbSpline
70
4
71
3
72
32
73
28
40
0
40
0
40
0
40
0
40
0.124999999999988
40
0.124999999999988
40
0.187499999999991
40
0.187499999999991
40
0.249999999999995
40
0.249999999999995
40
0.312499999999998
40
0.312499999999998
40
0.375000000000002
40
0.375000000000002
40
0.437500000000006
40
0.437500000000006
40
0.500000000000009
40
0.500000000000009
40
0.562500000000013
40
0.562500000000013
40
0.625000000000017
40
0.625000000000017
40
0.750000000000021
40
0.750000000000021
40
0.812500000000007
40
0.812500000000007
40
0.874999999999993
40
0.874999999999993
40
1
40
1
40
1
40
1
41
1
10
954.650480947162
20
-47.8705070301807
30
0
41
1
10
954.636234281933
20
-47.8828635333349
30
0
41
1
10
954.6222720291
20
-47.8942370014661
30
0
41
1
10
954.603041341368
20
-47.9084037119831
30
0
41
1
10
954.596877626057
20
-47.9126751304901
30
0
41
1
10
954.585212070515
20
-47.920073970378
30
0
41
1
10
954.579867390105
20
-47.9231015656132
30
0
41
1
10
954.570260486788
20
-47.9276645223802
30
0
41
1
10
954.565983386601
20
-47.9291881051208
30
0
41
1
10
954.559020225395
20
-47.9304583778264
30
0
41
1
10
954.556271803434
20
-47.9302425924002
30
0
41
1
10
954.552281702232
20
-47.9280601592801
30
0
41
1
10
954.551108578858
20
-47.926123507339
30
0
41
1
10
954.550240329219
20
-47.9207976984599
30
0
41
1
10
954.550554317411
20
-47.9173566244684
30
0
41
1
10
954.552472664617
20
-47.9093819360959
30
0
41
1
10
954.554059334109
20
-47.9048572385083
30
0
41
1
10
954.558290820107
20
-47.8949013777098
30
0
41
1
10
954.560960907686
20
-47.8894275990721
30
0
41
1
10
954.570180192808
20
-47.8721826792514
30
0
41
1
10
954.577905931234
20
-47.8595783606285
30
0
41
1
10
954.591306663101
20
-47.8394028365457
30
0
41
1
10
954.596052720322
20
-47.8325074939987
30
0
41
1
10
954.605920165942
20
-47.8185834822323
30
0
41
1
10
954.611059464359
20
-47.8115280959758
30
0
41
1
10
954.627034217252
20
-47.7901096413232
30
0
41
1
10
954.638420721075
20
-47.7754969036418
30
0
41
1
10
954.650480947162
20
-47.7605807535667
30
0
0
SPLINE
5
1AE
100
AcDbEntity
8
1
62
256
6
ByLayer
370
18
48
1
60
0
100
AcDbSpline
70
4
71
3
72
8
73
4
40
0
40
0
40
0
40
0
40
1
40
1
40
1
40
1
41
1
10
954.650480947162
20
-47.7605807535667
30
0
41
1
10
954.876007833843
20
-47.4816479322855
30
0
41
1
10
955.100779420665
20
-47.2019060176555
30
0
41
1
10
955.324759526419
20
-46.9213162515946
30
0
0
SPLINE
5
1AF
100
AcDbEntity
8
1
62
256
6
ByLayer
370
18
48
1
60
0
100
AcDbSpline
70
4
71
3
72
8
73
4
40
0
40
0
40
0
40
0
40
1
40
1
40
1
40
1
41
1
10
955.324759526419
20
-46.7915899867111
30
0
41
1
10
955.100056943948
20
-46.9841609443879
30
0
41
1
10
954.875296565803
20
-47.1766419188758
30
0
41
1
10
954.650480947162
20
-47.3690368883817
30
0
0
SPLINE
5
1B0
100
AcDbEntity
8
1
62
256
6
ByLayer
370
18
48
1
60
0
100
AcDbSpline
70
4
71
3
72
36
73
32
40
0
40
0
40
0
40
0
40
0.062499999999981
40
0.062499999999981
40
0.124999999999962
40
0.156249999999953
40
0.156249999999953
40
0.187499999999943
40
0.187499999999943
40
0.249999999999938
40
0.249999999999938
40
0.28124999999994
40
0.28124999999994
40
0.312499999999942
40
0.343749999999943
40
0.343749999999943
40
0.374999999999945
40
0.374999999999945
40
0.437499999999942
40
0.437499999999942
40
0.499999999999939
40
0.499999999999939
40
0.562499999999937
40
0.562499999999937
40
0.624999999999934
40
0.624999999999934
40
0.749999999999956
40
0.749999999999956
40
0.874999999999978
40
0.874999999999978
40
1
40
1
40
1
40
1
41
1
10
954.650480947162
20
-47.3690368883817
30
0
41
1
10
954.643249714484
20
-47.3752253053566
30
0
41
1
10
954.636077823144
20
-47.3811471155811
30
0
41
1
10
954.622085773985
20
-47.3921897224183
30
0
41
1
10
954.611926704036
20
-47.3998182040402
30
0
41
1
10
954.602346973408
20
-47.4063145361063
30
0
41
1
10
954.596103638393
20
-47.4103653755412
30
0
41
1
10
954.59303795241
20
-47.4122597966173
30
0
41
1
10
954.584225274918
20
-47.4173888752841
30
0
41
1
10
954.578851597408
20
-47.4200840150902
30
0
41
1
10
954.571634754001
20
-47.4229062041713
30
0
41
1
10
954.569359534909
20
-47.4236437101785
30
0
41
1
10
954.565211947473
20
-47.4246546115877
30
0
41
1
10
954.561445076467
20
-47.4252136735331
30
0
41
1
10
954.558430890617
20
-47.4248788299815
30
0
41
1
10
954.555795468182
20
-47.4240938645208
30
0
41
1
10
954.554661592373
20
-47.4234699984554
30
0
41
1
10
954.551889166034
20
-47.4209566715723
30
0
41
1
10
954.550868754605
20
-47.4184523607108
30
0
41
1
10
954.550275288545
20
-47.4119933361881
30
0
41
1
10
954.550721893424
20
-47.408003794209
30
0
41
1
10
954.552842383139
20
-47.3990610459643
30
0
41
1
10
954.554507976578
20
-47.3940795165481
30
0
41
1
10
954.558867678094
20
-47.3832492981057
30
0
41
1
10
954.561578176111
20
-47.3773768504241
30
0
41
1
10
954.570835643931
20
-47.3590812450132
30
0
41
1
10
954.578535776747
20
-47.3458546061981
30
0
41
1
10
954.59631411649
20
-47.3178014872043
30
0
41
1
10
954.606131657694
20
-47.3033911391399
30
0
41
1
10
954.627227367207
20
-47.2739764494219
30
0
41
1
10
954.638512985704
20
-47.2589676907554
30
0
41
1
10
954.650480947162
20
-47.2436819286756
30
0
0
SPLINE
5
1B1
100
AcDbEntity
8
1
62
256
6
ByLayer
370
18
48
1
60
0
100
AcDbSpline
70
4
71
3
72
8
73
4
40
0
40
0
40
0
40
0
40
1
40
1
40
1
40
1
41
1
10
954.650480947162
20
-47.2436819286756
30
0
41
1
10
954.876108812168
20
-46.9555047085872
30
0
41
1
10
955.100882142788
20
-46.6664416139619
30
0
41
1
10
955.324759526419
20
-46.3764497133827
30
0
0
SPLINE
5
1B2
100
AcDbEntity
8
1
62
256
6
ByLayer
370
18
48
1
60
0
100
AcDbSpline
70
4
71
3
72
8
73
4
40
0
40
0
40
0
40
0
40
1
40
1
40
1
40
1
41
1
10
955.324759526419
20
-46.2292505270294
30
0
41
1
10
955.100042276568
20
-46.419451628107
30
0
41
1
10
954.875282095914
20
-46.6095851173217
30
0
41
1
10
954.650480947162
20
-46.7996539821708
30
0
0
SPLINE
5
1B3
100
AcDbEntity
8
1
62
256
6
ByLayer
370
18
48
1
60
0
100
AcDbSpline
70
4
71
3
72
41
73
37
40
0
40
0
40
0
40
0
40
0.0625000000000193
40
0.0625000000000193
40
0.125000000000039
40
0.125000000000039
40
0.15625000000004
40
0.15625000000004
40
0.187500000000041
40
0.187500000000041
40
0.250000000000038
40
0.250000000000038
40
0.281250000000035
40
0.281250000000035
40
0.312500000000031
40
0.343750000000028
40
0.343750000000028
40
0.375000000000024
40
0.375000000000024
40
0.437499999999999
40
0.437499999999999
40
0.468749999999986
40
0.468749999999986
40
0.499999999999973
40
0.499999999999973
40
0.562499999999978
40
0.562499999999978
40
0.624999999999982
40
0.624999999999982
40
0.687499999999986
40
0.687499999999986
40
0.749999999999991
40
0.749999999999991
40
0.874999999999995
40
0.874999999999995
40
1
40
1
40
1
40
1
41
1
10
954.650480947162
20
-46.7996539821708
30
0
41
1
10
954.643132814528
20
-46.8058668117589
30
0
41
1
10
954.635827575393
20
-46.8117909739253
30
0
41
1
10
954.621605902949
20
-46.822724983295
30
0
41
1
10
954.614716228903
20
-46.8277179573619
30
0
41
1
10
954.604769455394
20
-46.8343749033616
30
0
41
1
10
954.601518811293
20
-46.8364544297714
30
0
41
1
10
954.595162320771
20
-46.8403022424566
30
0
41
1
10
954.592053940992
20
-46.8420702349746
30
0
41
1
10
954.583171328183
20
-46.8467482580462
30
0
41
1
10
954.577766713453
20
-46.8490816564788
30
0
41
1
10
954.570540750932
20
-46.8512416986653
30
0
41
1
10
954.568299025619
20
-46.8517288580634
30
0
41
1
10
954.564232868762
20
-46.8522210534084
30
0
41
1
10
954.560556108366
20
-46.8522399818453
30
0
41
1
10
954.557650041485
20
-46.8513215483662
30
0
41
1
10
954.555132369323
20
-46.8499303994843
30
0
41
1
10
954.554071962262
20
-46.848994760041
30
0
41
1
10
954.55153650727
20
-46.8455806111736
30
0
41
1
10
954.550663532211
20
-46.8424833733728
30
0
41
1
10
954.550428156138
20
-46.8367572208227
30
0
41
1
10
954.550532237907
20
-46.8346601455085
30
0
41
1
10
954.551069752659
20
-46.830212035681
30
0
41
1
10
954.551501874434
20
-46.8278524641925
30
0
41
1
10
954.553238523168
20
-46.8204083706294
30
0
41
1
10
954.554980493115
20
-46.8149608133803
30
0
41
1
10
954.559463958018
20
-46.8032357591439
30
0
41
1
10
954.562200078768
20
-46.7969839722476
30
0
41
1
10
954.568394513364
20
-46.7840675591776
30
0
41
1
10
954.571867320086
20
-46.7773661306283
30
0
41
1
10
954.579464196195
20
-46.7635416679878
30
0
41
1
10
954.583605151617
20
-46.7563916134454
30
0
41
1
10
954.596808167912
20
-46.7345492063818
30
0
41
1
10
954.606522566076
20
-46.7196504000964
30
0
41
1
10
954.627417696416
20
-46.6893135185826
30
0
41
1
10
954.63860393047
20
-46.673873399475
30
0
41
1
10
954.650480947162
20
-46.6581809199814
30
0
0
SPLINE
5
1B4
100
AcDbEntity
8
1
62
256
6
ByLayer
370
18
48
1
60
0
100
AcDbSpline
70
4
71
3
72
8
73
4
40
0
40
0
40
0
40
0
40
1
40
1
40
1
40
1
41
1
10
954.968301270189
20
-46.23675772743
30
0
41
1
10
954.862578603669
20
-46.3774498786689
30
0
41
1
10
954.75663687714
20
-46.5179226550054
30
0
41
1
10
954.650480947162
20
-46.6581809199814
30
0
0
SPLINE
5
1B5
100
AcDbEntity
8
1
62
256
6
ByLayer
370
18
48
1
60
0
100
AcDbSpline
70
4
71
3
72
8
73
4
40
0
40
0
40
0
40
0
40
1
40
1
40
1
40
1
41
1
10
954.96830127019
20
26.2367577274229
30
0
41
1
10
954.754011173797
20
26.3786829741849
30
0
41
1
10
954.539495132129
20
26.5199241610254
30
0
41
1
10
954.324759526419
20
26.6605006074293
30
0
0
SPLINE
5
1B6
100
AcDbEntity
8
1
62
256
6
ByLayer
370
18
48
1
60
0
100
AcDbSpline
70
4
71
3
72
8
73
4
40
0
40
0
40
0
40
0
40
1
40
1
40
1
40
1
41
1
10
954.324759526409
20
-46.6605006074434
30
0
41
1
10
954.539495132121
20
-46.5199241610372
30
0
41
1
10
954.754011173793
20
-46.3786829741944
30
0
41
1
10
954.968301270189
20
-46.23675772743
30
0
0
SPLINE
5
1B7
100
AcDbEntity
8
1
62
256
6
ByLayer
370
13
48
1
60
0
100
AcDbSpline
70
4
71
1
72
4
73
2
40
0
40
0
40
1
40
1
41
1
10
953.067339719524
20
-47.7524376453096
30
0
41
1
10
952.634679439049
20
-47.9973487783913
30
0
0
SPLINE
5
1B8
100
AcDbEntity
8
1
62
256
6
ByLayer
370
13
48
1
60
0
100
AcDbSpline
70
4
71
3
72
33
73
29
40
0
40
0
40
0
40
0
40
0.0625000000000001
40
0.0625000000000001
40
0.125
40
0.125
40
0.25
40
0.25
40
0.3125
40
0.3125
40
0.34375
40
0.34375
40
0.375
40
0.375
40
0.5
40
0.5
40
0.625
40
0.625
40
0.6875
40
0.6875
40
0.75
40
0.75
40
0.8125
40
0.8125
40
0.875
40
0.9375
40
0.9375
40
1
40
1
40
1
40
1
41
1
10
953.5
20
-47.5185185185261
30
0
41
1
10
953.5
20
-47.6209765000325
30
0
41
1
10
953.498713861256
20
-47.7203473880911
30
0
41
1
10
953.49397964038
20
-47.9129168812166
30
0
41
1
10
953.490530871593
20
-48.0060752699687
30
0
41
1
10
953.47742473984
20
-48.2760579059302
30
0
41
1
10
953.465026626632
20
-48.443455236803
30
0
41
1
10
953.442317385602
20
-48.6757083163738
30
0
41
1
10
953.434056238427
20
-48.7499842775903
30
0
41
1
10
953.420757721482
20
-48.8566800287128
30
0
41
1
10
953.416173521413
20
-48.8914588379373
30
0
41
1
10
953.406721700867
20
-48.9594417300431
30
0
41
1
10
953.401854182944
20
-48.9926441531861
30
0
41
1
10
953.376873548568
20
-49.1545892798972
30
0
41
1
10
953.354826689169
20
-49.2712462259887
30
0
41
1
10
953.307637423505
20
-49.4788740627422
30
0
41
1
10
953.282491575873
20
-49.5698448524067
30
0
41
1
10
953.243072512081
20
-49.6870014539005
30
0
41
1
10
953.229644464345
20
-49.7228438783145
30
0
41
1
10
953.202338266184
20
-49.7880145506315
30
0
41
1
10
953.188459005395
20
-49.8173484520273
30
0
41
1
10
953.160338015481
20
-49.869515721011
30
0
41
1
10
953.146093724536
20
-49.8923515608643
30
0
41
1
10
953.117350089151
20
-49.9314890730188
30
0
41
1
10
953.088347664361
20
-49.9641017505542
30
0
41
1
10
953.058994229016
20
-49.9836782201384
30
0
41
1
10
953.029546622265
20
-49.9967333797486
30
0
41
1
10
953.014772986234
20
-50.0000000000036
30
0
41
1
10
953
20
-50.0000000000036
30
0
0
SPLINE
5
1B9
100
AcDbEntity
8
1
62
256
6
ByLayer
370
18
48
1
60
0
100
AcDbSpline
70
4
71
3
72
60
73
56
40
0
40
0
40
0
40
0
40
0.0160589837515258
40
0.0322264614003151
40
0.0485024041854186
40
0.0648867834173884
40
0.0813795704855195
40
0.0979807368651591
40
0.114690254125069
40
0.131508093934851
40
0.148434228072423
40
0.165468628431564
40
0.182611267029506
40
0.199862116014593
40
0.217221147673988
40
0.234688334441446
40
0.252263648905133
40
0.269947063815511
40
0.287738552093267
40
0.305638086837313
40
0.323645641332816
40
0.341761189059305
40
0.359984703698815
40
0.378316159144087
40
0.39675552950682
40
0.415302789125976
40
0.433957912576118
40
0.452720874675819
40
0.471591650496101
40
0.490570215368923
40
0.50965654489572
40
0.528850614955977
40
0.548152401715847
40
0.567561881636821
40
0.587079031484416
40
0.606703828336922
40
0.626436249594178
40
0.646276272986377
40
0.666223876582915
40
0.686279038801272
40
0.706441738415911
40
0.726711954567224
40
0.747089666770495
40
0.76757485492489
40
0.788167499322475
40
0.80886758065725
40
0.829675080034211
40
0.850589978978429
40
0.87161225944414
40
0.892741903823855
40
0.913978894957485
40
0.935323216141472
40
0.956774851137933
40
0.978333784183804
40
1
40
1
40
1
40
1
41
1
10
953
20
-45.5000000000035
30
0
41
1
10
953.000004229826
20
-45.5140102218901
30
0
41
1
10
953.000012718054
20
-45.5421253182014
30
0
41
1
10
953.000081131888
20
-45.5842020868792
30
0
41
1
10
953.00019058322
20
-45.626384148031
30
0
41
1
10
953.000345416438
20
-45.6686502190631
30
0
41
1
10
953.000544820699
20
-45.7110007535422
30
0
41
1
10
953.000789375961
20
-45.7534302849907
30
0
41
1
10
953.001079281291
20
-45.795934911563
30
0
41
1
10
953.001414834198
20
-45.8385102705305
30
0
41
1
10
953.001796300813
20
-45.881152086338
30
0
41
1
10
953.002223950901
20
-45.9238560222678
30
0
41
1
10
953.00269804827
20
-45.966617720529
30
0
41
1
10
953.003218853254
20
-46.0094327913679
30
0
41
1
10
953.003786621922
20
-46.0522968159692
30
0
41
1
10
953.004401606177
20
-46.0952053456256
30
0
41
1
10
953.005064053608
20
-46.1381539019172
30
0
41
1
10
953.005774207416
20
-46.1811379766165
30
0
41
1
10
953.006532306312
20
-46.2241530316679
30
0
41
1
10
953.00733858443
20
-46.2671944991454
30
0
41
1
10
953.008193271224
20
-46.310257781217
30
0
41
1
10
953.009096591386
20
-46.3533382501056
30
0
41
1
10
953.010048764737
20
-46.3964312480505
30
0
41
1
10
953.011050006144
20
-46.439532087269
30
0
41
1
10
953.01210052542
20
-46.4826360499158
30
0
41
1
10
953.013200527226
20
-46.5257383880438
30
0
41
1
10
953.014350210981
20
-46.5688343235628
30
0
41
1
10
953.015549770759
20
-46.6119190481988
30
0
41
1
10
953.0167993952
20
-46.6549877234518
30
0
41
1
10
953.018099267411
20
-46.6980354805539
30
0
41
1
10
953.019449564866
20
-46.7410574204259
30
0
41
1
10
953.020850459316
20
-46.7840486136344
30
0
41
1
10
953.022302116688
20
-46.8270041003467
30
0
41
1
10
953.023804696986
20
-46.8699188902869
30
0
41
1
10
953.025358354203
20
-46.9127879626899
30
0
41
1
10
953.026963236213
20
-46.9556062662554
30
0
41
1
10
953.028619484684
20
-46.998368719101
30
0
41
1
10
953.030327234974
20
-47.041070208715
30
0
41
1
10
953.032086616039
20
-47.0837055919076
30
0
41
1
10
953.033897750331
20
-47.1262696947631
30
0
41
1
10
953.035760753708
20
-47.1687573125876
30
0
41
1
10
953.03767573533
20
-47.2111632098661
30
0
41
1
10
953.039642797571
20
-47.2534821201861
30
0
41
1
10
953.041662035907
20
-47.2957087462779
30
0
41
1
10
953.043733538864
20
-47.3378377596177
30
0
41
1
10
953.045857387772
20
-47.3798638016669
30
0
41
1
10
953.048033657213
20
-47.4217814789578
30
0
41
1
10
953.050262412899
20
-47.4635853813152
30
0
41
1
10
953.052543719186
20
-47.5052700130659
30
0
41
1
10
953.054877610373
20
-47.5468300514777
30
0
41
1
10
953.057264198167
20
-47.5882593745919
30
0
41
1
10
953.059703267131
20
-47.6295547167873
30
0
41
1
10
953.062195795482
20
-47.6707019222837
30
0
41
1
10
953.064738236132
20
-47.7117276345553
30
0
41
1
10
953.066471124744
20
-47.7388452068818
30
0
41
1
10
953.067339719524
20
-47.7524376453096
30
0
0
SPLINE
5
1BA
100
AcDbEntity
8
1
62
256
6
ByLayer
370
18
48
1
60
0
100
AcDbSpline
70
4
71
1
72
4
73
2
40
0
40
0
40
1
40
1
41
1
10
953
20
-45.5000000000035
30
0
41
1
10
952.5
20
-45.9595959595995
30
0
0
SPLINE
5
1BB
100
AcDbEntity
8
1
62
256
6
ByLayer
370
18
48
1
60
0
100
AcDbSpline
70
2053
71
3
72
162
73
158
40
0
40
0
40
0
40
0
40
0.0156250000000014
40
0.0312500000000029
40
0.0468750000000043
40
0.0468750000000043
40
0.0507812500000046
40
0.0507812500000046
40
0.0546875000000049
40
0.0546875000000049
40
0.0625000000000052
40
0.0625000000000052
40
0.0781250000000052
40
0.0937500000000052
40
0.0937500000000052
40
0.101562500000005
40
0.105468750000006
40
0.105468750000006
40
0.109375000000006
40
0.109375000000006
40
0.125000000000004
40
0.140625000000003
40
0.156250000000001
40
0.156250000000001
40
0.160156250000001
40
0.160156250000001
40
0.164062500000001
40
0.164062500000001
40
0.171875000000002
40
0.171875000000002
40
0.187500000000004
40
0.203125000000006
40
0.203125000000006
40
0.210937500000007
40
0.210937500000007
40
0.218750000000009
40
0.218750000000009
40
0.234375000000011
40
0.250000000000013
40
0.265625000000015
40
0.265625000000015
40
0.269531250000015
40
0.269531250000015
40
0.273437500000016
40
0.281250000000016
40
0.281250000000016
40
0.296875000000017
40
0.312500000000017
40
0.312500000000017
40
0.320312500000018
40
0.320312500000018
40
0.328125000000018
40
0.328125000000018
40
0.343750000000019
40
0.359375000000021
40
0.359375000000021
40
0.367187500000021
40
0.371093750000021
40
0.371093750000021
40
0.375000000000021
40
0.375000000000021
40
0.390625000000024
40
0.406250000000026
40
0.421875000000029
40
0.421875000000029
40
0.425781250000029
40
0.425781250000029
40
0.42968750000003
40
0.42968750000003
40
0.437500000000031
40
0.437500000000031
40
0.453125000000033
40
0.468750000000035
40
0.468750000000035
40
0.476562500000036
40
0.480468750000037
40
0.480468750000037
40
0.484375000000037
40
0.484375000000037
40
0.500000000000039
40
0.515625000000041
40
0.531250000000043
40
0.531250000000043
40
0.535156250000044
40
0.535156250000044
40
0.539062500000044
40
0.539062500000044
40
0.546875000000045
40
0.546875000000045
40
0.562500000000046
40
0.578125000000047
40
0.578125000000047
40
0.585937500000048
40
0.589843750000048
40
0.589843750000048
40
0.593750000000048
40
0.593750000000048
40
0.609375000000046
40
0.625000000000044
40
0.640625000000042
40
0.640625000000042
40
0.648437500000041
40
0.648437500000041
40
0.65625000000004
40
0.65625000000004
40
0.671875000000037
40
0.687500000000035
40
0.687500000000035
40
0.695312500000033
40
0.695312500000033
40
0.699218750000032
40
0.699218750000032
40
0.703125000000032
40
0.718750000000028
40
0.734375000000025
40
0.734375000000025
40
0.750000000000021
40
0.750000000000021
40
0.765625000000018
40
0.765625000000018
40
0.781250000000014
40
0.796875000000011
40
0.796875000000011
40
0.80078125000001
40
0.80078125000001
40
0.804687500000009
40
0.804687500000009
40
0.812500000000009
40
0.812500000000009
40
0.828125000000009
40
0.843750000000009
40
0.843750000000009
40
0.851562500000009
40
0.85546875000001
40
0.85546875000001
40
0.85937500000001
40
0.85937500000001
40
0.87500000000001
40
0.89062500000001
40
0.90625000000001
40
0.90625000000001
40
0.910156250000009
40
0.910156250000009
40
0.914062500000009
40
0.914062500000009
40
0.921875000000008
40
0.921875000000008
40
0.937500000000007
40
0.953125000000005
40
0.953125000000005
40
0.960937500000004
40
0.960937500000004
40
0.968750000000004
40
0.968750000000004
40
0.984375000000002
40
0.984375000000002
40
1
40
1
40
1
40
1
41
1
10
948.518178440455
20
-31.384025803162
30
0
41
1
10
948.619477644665
20
-31.3840261476054
30
0
41
1
10
948.820392338594
20
-31.3917469717174
30
0
41
1
10
949.116880232838
20
-31.4257062204655
30
0
41
1
10
949.311299768393
20
-31.4631552112565
30
0
41
1
10
949.431775238065
20
-31.4912846226342
30
0
41
1
10
949.455818374073
20
-31.4971472199327
30
0
41
1
10
949.503799617195
20
-31.5093504098006
30
0
41
1
10
949.527764149224
20
-31.5156983530503
30
0
41
1
10
949.599310209471
20
-31.5354152044322
30
0
41
1
10
949.646394460704
20
-31.5494128213286
30
0
41
1
10
949.785843359362
20
-31.5939084266784
30
0
41
1
10
949.966973896821
20
-31.6598974403065
30
0
41
1
10
950.138660094942
20
-31.7389056036525
30
0
41
1
10
950.263838572071
20
-31.8030684995132
30
0
41
1
10
950.32552980556
20
-31.8363785872987
30
0
41
1
10
950.385849871238
20
-31.8715571530207
30
0
41
1
10
950.425754941817
20
-31.8954287896807
30
0
41
1
10
950.445581074682
20
-31.9075920297665
30
0
41
1
10
950.543492850654
20
-31.9691905522291
30
0
41
1
10
950.692515508084
20
-32.0727864487208
30
0
41
1
10
950.893799245964
20
-32.2426920391067
30
0
41
1
10
951.013164854394
20
-32.3655186552571
30
0
41
1
10
951.083000148002
20
-32.445324407989
30
0
41
1
10
951.09672822916
20
-32.46143787775
30
0
41
1
10
951.123700688341
20
-32.4939722772463
30
0
41
1
10
951.136949240334
20
-32.5104000768836
30
0
41
1
10
951.175739816824
20
-32.5598608573515
30
0
41
1
10
951.200405515621
20
-32.5931630671608
30
0
41
1
10
951.270884714865
20
-32.6940271927177
30
0
41
1
10
951.355492954999
20
-32.8310604995401
30
0
41
1
10
951.421653899724
20
-32.973024409954
30
0
41
1
10
951.464260944051
20
-33.0813440702347
30
0
41
1
10
951.477292269369
20
-33.117759024305
30
0
41
1
10
951.500970598081
20
-33.1912130222902
30
0
41
1
10
951.511629383508
20
-33.2283232747108
30
0
41
1
10
951.539661414614
20
-33.3393717404505
30
0
41
1
10
951.566810051206
20
-33.4873843705105
30
0
41
1
10
951.577744200799
20
-33.7092011134152
30
0
41
1
10
951.565204612687
20
-33.8569323978663
30
0
41
1
10
951.550996971125
20
-33.9492209639008
30
0
41
1
10
951.547833820671
20
-33.9676835268362
30
0
41
1
10
951.540904556563
20
-34.0043992766649
30
0
41
1
10
951.529594774501
20
-34.0592350704297
30
0
41
1
10
951.51557268668
20
-34.1133675759009
30
0
41
1
10
951.483976302413
20
-34.2207152191207
30
0
41
1
10
951.432391592386
20
-34.3614030333967
30
0
41
1
10
951.362156617035
20
-34.4973285619543
30
0
41
1
10
951.302381948289
20
-34.5974885667785
30
0
41
1
10
951.281251795148
20
-34.6306068140846
30
0
41
1
10
951.236661316963
20
-34.6961188434562
30
0
41
1
10
951.213343730581
20
-34.7283068333153
30
0
41
1
10
951.140393420658
20
-34.8232144134968
30
0
41
1
10
951.035149191982
20
-34.945350076325
30
0
41
1
10
950.914320839265
20
-35.0589786161043
30
0
41
1
10
950.817824973152
20
-35.1410361314011
30
0
41
1
10
950.768106016164
20
-35.181272668194
30
0
41
1
10
950.716149603675
20
-35.2203127158241
30
0
41
1
10
950.681009910934
20
-35.2460718841029
30
0
41
1
10
950.663165069338
20
-35.2588340314733
30
0
41
1
10
950.57307829432
20
-35.3216895450763
30
0
41
1
10
950.423217449237
20
-35.4163585330481
30
0
41
1
10
950.181799066174
20
-35.5413986694873
30
0
41
1
10
950.009809176324
20
-35.6136064002991
30
0
41
1
10
949.898775344632
20
-35.6551958262634
30
0
41
1
10
949.876391159625
20
-35.6633362717005
30
0
41
1
10
949.831264032825
20
-35.679259172455
30
0
41
1
10
949.808490566121
20
-35.6870514368643
30
0
41
1
10
949.73994294582
20
-35.7097819327683
30
0
41
1
10
949.693899767043
20
-35.7240920193548
30
0
41
1
10
949.554754436879
20
-35.7645455246884
30
0
41
1
10
949.366523391889
20
-35.8118915895695
30
0
41
1
10
949.172960821077
20
-35.8463183634713
30
0
41
1
10
949.025760809071
20
-35.8672465515371
30
0
41
1
10
948.951652973664
20
-35.8764856129518
30
0
41
1
10
948.876769244361
20
-35.8838560703951
30
0
41
1
10
948.826672255738
20
-35.8883497259486
30
0
41
1
10
948.801500991048
20
-35.8903889601118
30
0
41
1
10
948.675706861112
20
-35.8994860095013
30
0
41
1
10
948.47504273204
20
-35.907040390945
30
0
41
1
10
948.175815623597
20
-35.8979703199408
30
0
41
1
10
947.977509875044
20
-35.8783164676962
30
0
41
1
10
947.853947858977
20
-35.8616464192793
30
0
41
1
10
947.829254453544
20
-35.8580925499492
30
0
41
1
10
947.779906086535
20
-35.8505394974515
30
0
41
1
10
947.755215707595
20
-35.8465340029084
30
0
41
1
10
947.681531355187
20
-35.8338974293166
30
0
41
1
10
947.632911076027
20
-35.8246480577866
30
0
41
1
10
947.488529697373
20
-35.7944655489882
30
0
41
1
10
947.299959307353
20
-35.7477423416616
30
0
41
1
10
947.119138880288
20
-35.6881882580072
30
0
41
1
10
946.986466076143
20
-35.6386140229197
30
0
41
1
10
946.920866480501
20
-35.612597686945
30
0
41
1
10
946.856391650259
20
-35.5846969809168
30
0
41
1
10
946.813661292865
20
-35.5656719500114
30
0
41
1
10
946.79241764522
20
-35.5559438920299
30
0
41
1
10
946.687440374075
20
-35.5065172534426
30
0
41
1
10
946.526411455948
20
-35.4219906385053
30
0
41
1
10
946.305040509778
20
-35.2791832399765
30
0
41
1
10
946.170874120629
20
-35.1732019764128
30
0
41
1
10
946.075417310541
20
-35.0895157401262
30
0
41
1
10
946.044415532985
20
-35.0608664071778
30
0
41
1
10
945.984820112089
20
-35.0027760618501
30
0
41
1
10
945.956144074853
20
-34.9732679408113
30
0
41
1
10
945.873419255889
20
-34.8833692017165
30
0
41
1
10
945.771912572265
20
-34.7598448573859
30
0
41
1
10
945.687735635526
20
-34.6290004179926
30
0
41
1
10
945.631197606389
20
-34.5280451878212
30
0
41
1
10
945.613452698006
20
-34.4939223332037
30
0
41
1
10
945.588517939096
20
-34.44201412587
30
0
41
1
10
945.580482128302
20
-34.4245777614464
30
0
41
1
10
945.565059561846
20
-34.3896535038948
30
0
41
1
10
945.528078211619
20
-34.3021031074558
30
0
41
1
10
945.475439910476
20
-34.1423759319271
30
0
41
1
10
945.447962094921
20
-33.997378367141
30
0
41
1
10
945.430175999764
20
-33.8508491662793
30
0
41
1
10
945.426127938039
20
-33.7768188815196
30
0
41
1
10
945.428049858401
20
-33.6271695060965
30
0
41
1
10
945.43400707017
20
-33.5527599761047
30
0
41
1
10
945.455551128339
20
-33.4048746294313
30
0
41
1
10
945.486728701916
20
-33.2578802769295
30
0
41
1
10
945.53703023506
20
-33.1126893172848
30
0
41
1
10
945.574575825231
20
-33.0225387799099
30
0
41
1
10
945.582391005079
20
-33.0045384586454
30
0
41
1
10
945.598639664606
20
-32.9685985404257
30
0
41
1
10
945.607085122754
20
-32.9506348304446
30
0
41
1
10
945.633263658601
20
-32.897031710787
30
0
41
1
10
945.651815220052
20
-32.8617185563231
30
0
41
1
10
945.71070051899
20
-32.7570274640638
30
0
41
1
10
945.797812622618
20
-32.6207619662046
30
0
41
1
10
945.901798302582
20
-32.4911047441865
30
0
41
1
10
945.986175435408
20
-32.3964016522959
30
0
41
1
10
946.029963518456
20
-32.349686127451
30
0
41
1
10
946.076189455832
20
-32.3039477450147
30
0
41
1
10
946.107554347888
20
-32.2736758717456
30
0
41
1
10
946.123527196848
20
-32.2586356714193
30
0
41
1
10
946.204345442521
20
-32.1843846669665
30
0
41
1
10
946.340273774886
20
-32.0711051655401
30
0
41
1
10
946.563413811248
20
-31.9174099126945
30
0
41
1
10
946.724961568353
20
-31.8258352648262
30
0
41
1
10
946.830027029602
20
-31.7721247167629
30
0
41
1
10
946.851245496782
20
-31.761559188076
30
0
41
1
10
946.894097670124
20
-31.7407859751258
30
0
41
1
10
946.915724658252
20
-31.7305825203867
30
0
41
1
10
946.980869950619
20
-31.7006783902328
30
0
41
1
10
947.024769684221
20
-31.6816258584481
30
0
41
1
10
947.157851154468
20
-31.6270782057019
30
0
41
1
10
947.338972573298
20
-31.5612962284466
30
0
41
1
10
947.527335439331
20
-31.5092723873632
30
0
41
1
10
947.671356469417
20
-31.475503386815
30
0
41
1
10
947.719822425554
20
-31.465123330721
30
0
41
1
10
947.817687876681
20
-31.4461492630175
30
0
41
1
10
947.867191952112
20
-31.4375415992802
30
0
41
1
10
948.015943581596
20
-31.4146373993315
30
0
41
1
10
948.115647030864
20
-31.4031934226787
30
0
41
1
10
948.31611341194
20
-31.3878875344904
30
0
41
1
10
948.416879236245
20
-31.3840254587185
30
0
41
1
10
948.518178440455
20
-31.384025803162
30
0
0
SPLINE
5
1BC
100
AcDbEntity
8
1
62
256
6
ByLayer
370
18
48
1
60
0
100
AcDbSpline
70
2053
71
3
72
168
73
164
40
0
40
0
40
0
40
0
40
0.0156250000000004
40
0.0312500000000007
40
0.0468750000000011
40
0.0468750000000011
40
0.0507812500000013
40
0.0507812500000013
40
0.0546875000000015
40
0.0546875000000015
40
0.0625000000000023
40
0.0625000000000023
40
0.0781250000000042
40
0.0937500000000062
40
0.0937500000000062
40
0.101562500000007
40
0.105468750000007
40
0.105468750000007
40
0.109375000000008
40
0.109375000000008
40
0.12500000000001
40
0.140625000000013
40
0.156250000000015
40
0.156250000000015
40
0.160156250000016
40
0.160156250000016
40
0.164062500000016
40
0.164062500000016
40
0.171875000000017
40
0.171875000000017
40
0.187500000000018
40
0.203125000000019
40
0.203125000000019
40
0.21093750000002
40
0.21093750000002
40
0.214843750000021
40
0.214843750000021
40
0.218750000000021
40
0.234375000000023
40
0.250000000000024
40
0.265625000000025
40
0.265625000000025
40
0.269531250000025
40
0.269531250000025
40
0.273437500000025
40
0.281250000000025
40
0.281250000000025
40
0.296875000000024
40
0.312500000000024
40
0.312500000000024
40
0.316406250000024
40
0.316406250000024
40
0.320312500000023
40
0.320312500000023
40
0.328125000000023
40
0.328125000000023
40
0.343750000000022
40
0.359375000000021
40
0.359375000000021
40
0.367187500000021
40
0.371093750000021
40
0.371093750000021
40
0.375000000000021
40
0.375000000000021
40
0.390625000000019
40
0.406250000000018
40
0.421875000000016
40
0.421875000000016
40
0.425781250000016
40
0.425781250000016
40
0.429687500000016
40
0.429687500000016
40
0.437500000000015
40
0.437500000000015
40
0.453125000000015
40
0.468750000000014
40
0.468750000000014
40
0.476562500000014
40
0.480468750000013
40
0.480468750000013
40
0.484375000000013
40
0.484375000000013
40
0.500000000000013
40
0.515625000000012
40
0.531250000000011
40
0.531250000000011
40
0.535156250000011
40
0.535156250000011
40
0.539062500000011
40
0.539062500000011
40
0.546875000000011
40
0.546875000000011
40
0.56250000000001
40
0.578125000000009
40
0.578125000000009
40
0.585937500000009
40
0.589843750000009
40
0.589843750000009
40
0.593750000000009
40
0.593750000000009
40
0.609375000000009
40
0.625000000000008
40
0.640625000000008
40
0.640625000000008
40
0.644531250000008
40
0.644531250000008
40
0.648437500000007
40
0.656250000000007
40
0.656250000000007
40
0.671875000000007
40
0.687500000000007
40
0.687500000000007
40
0.695312500000007
40
0.695312500000007
40
0.699218750000007
40
0.699218750000007
40
0.703125000000007
40
0.718750000000006
40
0.734375000000006
40
0.734375000000006
40
0.742187500000005
40
0.742187500000005
40
0.750000000000005
40
0.750000000000005
40
0.765625000000005
40
0.765625000000005
40
0.781250000000004
40
0.796875000000004
40
0.796875000000004
40
0.800781250000004
40
0.800781250000004
40
0.804687500000004
40
0.804687500000004
40
0.812500000000003
40
0.812500000000003
40
0.828125000000003
40
0.843750000000003
40
0.843750000000003
40
0.851562500000003
40
0.855468750000003
40
0.855468750000003
40
0.859375000000003
40
0.859375000000003
40
0.875000000000003
40
0.890625000000003
40
0.906250000000003
40
0.906250000000003
40
0.910156250000002
40
0.910156250000002
40
0.914062500000002
40
0.914062500000002
40
0.921875000000002
40
0.921875000000002
40
0.937500000000001
40
0.953125000000001
40
0.953125000000001
40
0.960937500000001
40
0.960937500000001
40
0.968750000000001
40
0.968750000000001
40
0.984375
40
0.984375
40
1
40
1
40
1
40
1
41
1
10
948.523319373427
20
17.3778845462307
30
0
41
1
10
948.624679553853
20
17.3778841360385
30
0
41
1
10
948.825714698426
20
17.3685719024231
30
0
41
1
10
949.122376472038
20
17.3275701599142
30
0
41
1
10
949.316905664073
20
17.2822808133217
30
0
41
1
10
949.437447006687
20
17.248215413059
30
0
41
1
10
949.46150318336
20
17.2411136663823
30
0
41
1
10
949.509510218716
20
17.226326274596
30
0
41
1
10
949.533490054077
20
17.2186308374241
30
0
41
1
10
949.605055649399
20
17.1947291125966
30
0
41
1
10
949.652151183996
20
17.1777503864479
30
0
41
1
10
949.791628408115
20
17.1237375156434
30
0
41
1
10
949.972781961308
20
17.043531003992
30
0
41
1
10
950.144457576298
20
16.947162676686
30
0
41
1
10
950.269613356646
20
16.8687262892882
30
0
41
1
10
950.331289542735
20
16.8279655136408
30
0
41
1
10
950.391588487102
20
16.784844574897
30
0
41
1
10
950.431478060438
20
16.7555660468557
30
0
41
1
10
950.451294230981
20
16.74064030863
30
0
41
1
10
950.549110153919
20
16.6650398941683
30
0
41
1
10
950.697952880133
20
16.5376162291331
30
0
41
1
10
950.898888217876
20
16.3275622871303
30
0
41
1
10
951.017962292169
20
16.1748592174364
30
0
41
1
10
951.087594856073
20
16.0753262349575
30
0
41
1
10
951.10128136171
20
16.0552144735349
30
0
41
1
10
951.128168539991
20
16.0145752162903
30
0
41
1
10
951.141361835151
20
15.9940568323124
30
0
41
1
10
951.179985883291
20
15.9322319167272
30
0
41
1
10
951.204538602475
20
15.8905407260176
30
0
41
1
10
951.274672727461
20
15.7640650894227
30
0
41
1
10
951.358804468349
20
15.5916984123545
30
0
41
1
10
951.424453122838
20
15.4119351550186
30
0
41
1
10
951.466661048872
20
15.2742867616489
30
0
41
1
10
951.479556847165
20
15.2279321657205
30
0
41
1
10
951.497108337028
20
15.157678362552
30
0
41
1
10
951.502666174951
20
15.1341116762799
30
0
41
1
10
951.513147772652
20
15.0868718347863
30
0
41
1
10
951.537726181834
20
14.968674146663
30
0
41
1
10
951.567598290509
20
14.7550460990338
30
0
41
1
10
951.577669659491
20
14.4683800325179
30
0
41
1
10
951.564565158037
20
14.2760463056843
30
0
41
1
10
951.550006083582
20
14.1554462852883
30
0
41
1
10
951.546777234048
20
14.1313321929986
30
0
41
1
10
951.539718701754
20
14.0833260901185
30
0
41
1
10
951.528218243157
20
14.0115595372042
30
0
41
1
10
951.514014480701
20
13.9405119798777
30
0
41
1
10
951.482065138686
20
13.7993603796915
30
0
41
1
10
951.430037724532
20
13.6136696495935
30
0
41
1
10
951.359401877211
20
13.4329576094938
30
0
41
1
10
951.309348457217
20
13.321602191703
30
0
41
1
10
951.299041801057
20
13.2994107788354
30
0
41
1
10
951.277831519357
20
13.2551889205168
30
0
41
1
10
951.26691322036
20
13.2331301046624
30
0
41
1
10
951.233369893152
20
13.1674236514915
30
0
41
1
10
951.209989057324
20
13.1243000800129
30
0
41
1
10
951.136858509372
20
12.996929590306
30
0
41
1
10
951.031397558249
20
12.8324263940434
30
0
41
1
10
950.910383595651
20
12.678372639287
30
0
41
1
10
950.813754030468
20
12.5667912730677
30
0
41
1
10
950.763969607473
20
12.5119919355369
30
0
41
1
10
950.71194866925
20
12.458704355633
30
0
41
1
10
950.676766038356
20
12.4235189825903
30
0
41
1
10
950.658904232022
20
12.4060783532725
30
0
41
1
10
950.568782336176
20
12.3201629209653
30
0
41
1
10
950.418868960438
20
12.1903621000133
30
0
41
1
10
950.177369129785
20
12.0180101401894
30
0
41
1
10
950.00530831959
20
11.9180134935156
30
0
41
1
10
949.894220757248
20
11.8603103996498
30
0
41
1
10
949.871825353724
20
11.8490100768987
30
0
41
1
10
949.826674726055
20
11.8268957559434
30
0
41
1
10
949.803891147144
20
11.8160692280715
30
0
41
1
10
949.735331450468
20
11.7844817135136
30
0
41
1
10
949.689279001828
20
11.764575764836
30
0
41
1
10
949.550101749496
20
11.7082578604483
30
0
41
1
10
949.361817107959
20
11.6422181120199
30
0
41
1
10
949.168173937193
20
11.5940676706979
30
0
41
1
10
949.020901190633
20
11.5647739376327
30
0
41
1
10
948.946753912049
20
11.5518345276612
30
0
41
1
10
948.871825647449
20
11.5415061997714
30
0
41
1
10
948.821697778377
20
11.5352081342126
30
0
41
1
10
948.796510083805
20
11.5323494697051
30
0
41
1
10
948.670649916062
20
11.5195961058607
30
0
41
1
10
948.469879101667
20
11.5089976334094
30
0
41
1
10
948.170489122008
20
11.5217154553258
30
0
41
1
10
947.972073749113
20
11.5492748303635
30
0
41
1
10
947.848443079724
20
11.5726339558625
30
0
41
1
10
947.823735936816
20
11.5776132093533
30
0
41
1
10
947.774360086853
20
11.5881937891437
30
0
41
1
10
947.749656123276
20
11.593803953904
30
0
41
1
10
947.675945670524
20
11.6114957008365
30
0
41
1
10
947.627310225779
20
11.6244400534668
30
0
41
1
10
947.482889980228
20
11.6666557671838
30
0
41
1
10
947.294285544059
20
11.7319480078251
30
0
41
1
10
947.113466905281
20
11.8149363450943
30
0
41
1
10
946.980809588847
20
11.8838853965634
30
0
41
1
10
946.915221281519
20
11.9200395321394
30
0
41
1
10
946.850763282595
20
11.9587553276917
30
0
41
1
10
946.808045409136
20
11.9851414842116
30
0
41
1
10
946.786819706546
20
11.9986199112315
30
0
41
1
10
946.681935173315
20
12.0670624336669
30
0
41
1
10
946.521077594381
20
12.1838748563695
30
0
41
1
10
946.300021606527
20
12.3802684910136
30
0
41
1
10
946.166107617933
20
12.5252385977262
30
0
41
1
10
946.086732232887
20
12.6203392242194
30
0
41
1
10
946.071055556027
20
12.6396076656918
30
0
41
1
10
946.040228071455
20
12.6784883825219
30
0
41
1
10
945.994839631074
20
12.7372418974499
30
0
41
1
10
945.951975808339
20
12.7972739542204
30
0
41
1
10
945.869553092286
20
12.9190076004824
30
0
41
1
10
945.768453420874
20
13.0857630253012
30
0
41
1
10
945.684697522064
20
13.2612386324426
30
0
41
1
10
945.628483089663
20
13.3961513019705
30
0
41
1
10
945.610847356402
20
13.4416742064758
30
0
41
1
10
945.586078723931
20
13.5108007720098
30
0
41
1
10
945.57810714446
20
13.533976432686
30
0
41
1
10
945.5628130441
20
13.5803498519334
30
0
41
1
10
945.526149283288
20
13.6964995168368
30
0
41
1
10
945.474061237748
20
13.9074750137023
30
0
41
1
10
945.447052594994
20
14.0976301412512
30
0
41
1
10
945.434062392272
20
14.2412286021315
30
0
41
1
10
945.430945549879
20
14.2892587729167
30
0
41
1
10
945.427170561729
20
14.3856510796833
30
0
41
1
10
945.426512919358
20
14.4340534252671
30
0
41
1
10
945.428301794226
20
14.5795167396411
30
0
41
1
10
945.434476047466
20
14.6755491581424
30
0
41
1
10
945.4564370367
20
14.8657970976404
30
0
41
1
10
945.488012910285
20
15.0542277130547
30
0
41
1
10
945.538693389508
20
15.2390631183298
30
0
41
1
10
945.576474435047
20
15.3534443091478
30
0
41
1
10
945.58433663644
20
15.3762633808657
30
0
41
1
10
945.600679320305
20
15.4217862633868
30
0
41
1
10
945.609171932473
20
15.4445201706396
30
0
41
1
10
945.635463080897
20
15.5122311361556
30
0
41
1
10
945.654087171706
20
15.5567644423443
30
0
41
1
10
945.713183990032
20
15.6885821898418
30
0
41
1
10
945.800563186208
20
15.8595950649313
30
0
41
1
10
945.904800616032
20
16.0213332988961
30
0
41
1
10
945.989366065952
20
16.1391414805713
30
0
41
1
10
946.033248175977
20
16.1971703330183
30
0
41
1
10
946.079568892781
20
16.2538684817067
30
0
41
1
10
946.110997245864
20
16.2913687165035
30
0
41
1
10
946.126993111469
20
16.3099769244505
30
0
41
1
10
946.207903819164
20
16.4017607301866
30
0
41
1
10
946.343976604546
20
16.5414058976384
30
0
41
1
10
946.567331375963
20
16.7299884853741
30
0
41
1
10
946.729033041648
20
16.84187863887
30
0
41
1
10
946.834201069514
20
16.9073918521166
30
0
41
1
10
946.855440369826
20
16.9202730803755
30
0
41
1
10
946.898334934293
20
16.9455882118272
30
0
41
1
10
946.919968776171
20
16.9580084559925
30
0
41
1
10
946.985142902003
20
16.994399587107
30
0
41
1
10
947.029062681518
20
17.0175652176669
30
0
41
1
10
947.162207247456
20
17.0838417464756
30
0
41
1
10
947.343420759661
20
17.1636384100475
30
0
41
1
10
947.531896712669
20
17.226597607052
30
0
41
1
10
947.676012591629
20
17.2674348997757
30
0
41
1
10
947.724511839732
20
17.2799817559738
30
0
41
1
10
947.822447648153
20
17.3029091103915
30
0
41
1
10
947.871984610041
20
17.3133049878897
30
0
41
1
10
948.020807766436
20
17.3409558231414
30
0
41
1
10
948.120561890061
20
17.3547623272453
30
0
41
1
10
948.321136182508
20
17.3732267918016
30
0
41
1
10
948.421959193001
20
17.3778849564229
30
0
41
1
10
948.523319373427
20
17.3778845462307
30
0
0
SPLINE
5
1BD
100
AcDbEntity
8
1
62
256
6
ByLayer
370
18
48
1
60
0
100
AcDbSpline
70
4
71
3
72
73
73
69
40
0
40
0
40
0
40
0
40
0.0072551004619907
40
0.0144295071023327
40
0.0215232199205036
40
0.028536238916006
40
0.0354685640883683
40
0.0423201954371454
40
0.0490911329619192
40
0.0557813766622998
40
0.0623909265379261
40
0.0689197825884668
40
0.0753679448136212
40
0.0817354132131205
40
0.0880221877867287
40
0.0942282685342437
40
0.100353655455499
40
0.106398348550363
40
0.112362347818746
40
0.118245653260592
40
0.124048264875891
40
0.129770182664674
40
0.135411406627016
40
0.140971936763039
40
0.146451773072914
40
0.151850915556862
40
0.15716936421516
40
0.162407119048137
40
0.167564180056185
40
0.172640547239755
40
0.177636220599366
40
0.182551200135602
40
0.187385485849124
40
0.192139077740667
40
0.19681197581105
40
0.201404180061177
40
0.205915690492043
40
0.210346507104744
40
0.214696629900479
40
0.218966058880557
40
0.223154794046408
40
0.22726283539959
40
0.231290182941798
40
0.235236836674874
40
0.239102796600819
40
0.242888062721808
40
0.246592635040198
40
0.25021651355855
40
0.319371511053398
40
0.384081764985226
40
0.444347268179435
40
0.500168019677259
40
0.568614711272616
40
0.633031942127169
40
0.69341977985814
40
0.749778312432915
40
0.783132011447204
40
0.81509283614738
40
0.845660820481362
40
0.874836003492918
40
0.891286772939423
40
0.907507443990015
40
0.923498026708547
40
0.93925853160065
40
0.954788969639875
40
0.970089352295799
40
0.98515969156427
40
1
40
1
40
1
40
1
41
1
10
953
20
-50.0000000000036
30
0
41
1
10
952.999289015233
20
-49.9999795891018
30
0
41
1
10
952.997874953525
20
-49.9999389943155
30
0
41
1
10
952.995764752016
20
-49.9996134188636
30
0
41
1
10
952.993677559099
20
-49.9991022129666
30
0
41
1
10
952.991613307383
20
-49.9983934125854
30
0
41
1
10
952.989572014625
20
-49.997498844543
30
0
41
1
10
952.987553676153
20
-49.9964239701068
30
0
41
1
10
952.985558293202
20
-49.995175828037
30
0
41
1
10
952.983585865452
20
-49.9937609427176
30
0
41
1
10
952.981636392993
20
-49.9921858748389
30
0
41
1
10
952.979709875807
20
-49.9904570763504
30
0
41
1
10
952.977806313904
20
-49.9885809285538
30
0
41
1
10
952.975925707289
20
-49.986563732003
30
0
41
1
10
952.974068055968
20
-49.9844117090903
30
0
41
1
10
952.972233359945
20
-49.9821310032996
30
0
41
1
10
952.970421619226
20
-49.9797276793406
30
0
41
1
10
952.968632833818
20
-49.9772077230563
30
0
41
1
10
952.966867003728
20
-49.9745770413939
30
0
41
1
10
952.965124128962
20
-49.9718414623636
30
0
41
1
10
952.963404209528
20
-49.9690067350043
30
0
41
1
10
952.961707245433
20
-49.9660785293517
30
0
41
1
10
952.960033236686
20
-49.9630624364092
30
0
41
1
10
952.958382183296
20
-49.9599639681217
30
0
41
1
10
952.956754085271
20
-49.9567885573525
30
0
41
1
10
952.955148942621
20
-49.9535415578623
30
0
41
1
10
952.953566755357
20
-49.9502282442914
30
0
41
1
10
952.95200752349
20
-49.9468538121436
30
0
41
1
10
952.950471247031
20
-49.9434233777729
30
0
41
1
10
952.948957925993
20
-49.9399419783726
30
0
41
1
10
952.94746756039
20
-49.9364145719661
30
0
41
1
10
952.946000150234
20
-49.9328460374
30
0
41
1
10
952.944555695542
20
-49.9292411743394
30
0
41
1
10
952.94313419633
20
-49.9256047032646
30
0
41
1
10
952.941735652613
20
-49.92194126547
30
0
41
1
10
952.940360064413
20
-49.9182554230646
30
0
41
1
10
952.939007431747
20
-49.9145516589742
30
0
41
1
10
952.937677754637
20
-49.9108343769445
30
0
41
1
10
952.936371033107
20
-49.9071079015469
30
0
41
1
10
952.935087267177
20
-49.9033764781846
30
0
41
1
10
952.933826456891
20
-49.8996442731
30
0
41
1
10
952.932588602213
20
-49.8959153733865
30
0
41
1
10
952.931373703409
20
-49.8921937869865
30
0
41
1
10
952.930181759658
20
-49.8884834427491
30
0
41
1
10
952.929012774092
20
-49.884788190271
30
0
41
1
10
952.927866735549
20
-49.8811118005324
30
0
41
1
10
952.926743684565
20
-49.8774579636563
30
0
41
1
10
952.919003558754
20
-49.8519368313252
30
0
41
1
10
952.90494132071
20
-49.7993484073444
30
0
41
1
10
952.884630878974
20
-49.7076994941433
30
0
41
1
10
952.865228247639
20
-49.6072483114694
30
0
41
1
10
952.844844064178
20
-49.490438673687
30
0
41
1
10
952.823218609789
20
-49.3554004958077
30
0
41
1
10
952.800070396966
20
-49.2000649687967
30
0
41
1
10
952.77730836678
20
-49.0394999632213
30
0
41
1
10
952.757430302108
20
-48.894922665297
30
0
41
1
10
952.740568630677
20
-48.7705630778129
30
0
41
1
10
952.726834060263
20
-48.6684619745329
30
0
41
1
10
952.713221990901
20
-48.5670639749201
30
0
41
1
10
952.701480362593
20
-48.4798483322248
30
0
41
1
10
952.691642438263
20
-48.4072207621074
30
0
41
1
10
952.683723256722
20
-48.3490435582436
30
0
41
1
10
952.67573493099
20
-48.2906899142816
30
0
41
1
10
952.667677209779
20
-48.2322024524444
30
0
41
1
10
952.659551489631
20
-48.1736307365143
30
0
41
1
10
952.651352557728
20
-48.1149957704381
30
0
41
1
10
952.643099475187
20
-48.0564194911868
30
0
41
1
10
952.637471690748
20
-48.0169378033646
30
0
41
1
10
952.634679439049
20
-47.9973487783913
30
0
0
SPLINE
5
1BE
100
AcDbEntity
8
1
62
256
6
ByLayer
370
18
48
1
60
0
100
AcDbSpline
70
4
71
3
72
50
73
46
40
0
40
0
40
0
40
0
40
0.0181351142116154
40
0.0362060647335766
40
0.0542128565257435
40
0.0721554946011878
40
0.0900339840269487
40
0.107848329924809
40
0.125598537472078
40
0.1432846119024
40
0.160906558506562
40
0.178464382633325
40
0.195958089690273
40
0.213387685144673
40
0.230753174524345
40
0.248054563418563
40
0.265291857478958
40
0.282465062420444
40
0.29957418402216
40
0.316619228128437
40
0.333600200649764
40
0.350517107563794
40
0.367369954916355
40
0.384158748822484
40
0.40088349546748
40
0.41754420110798
40
0.434140872073051
40
0.450673514765307
40
0.467142135662041
40
0.48354674131639
40
0.499887338358506
40
0.537540012503111
40
0.574895341602099
40
0.611953411877292
40
0.648714311642532
40
0.685178131371249
40
0.721344963766744
40
0.75721490383533
40
0.792788048962464
40
0.828064498992014
40
0.863044356308823
40
0.897727725924733
40
0.932114715568233
40
0.966205435777926
40
1
40
1
40
1
40
1
41
1
10
952.634679439049
20
-47.9973487783913
30
0
41
1
10
952.633219795752
20
-47.9871025043027
30
0
41
1
10
952.630305673509
20
-47.9666462083786
30
0
41
1
10
952.626014309213
20
-47.9357251716122
30
0
41
1
10
952.621791301524
20
-47.9047027280509
30
0
41
1
10
952.61764177024
20
-47.8735605781932
30
0
41
1
10
952.613564350814
20
-47.8423068229802
30
0
41
1
10
952.609559406911
20
-47.8109425136897
30
0
41
1
10
952.605626841602
20
-47.779470567022
30
0
41
1
10
952.601766680708
20
-47.7478933890901
30
0
41
1
10
952.597978917337
20
-47.7162135086365
30
0
41
1
10
952.594263553317
20
-47.684433408268
30
0
41
1
10
952.590620588149
20
-47.652555569421
30
0
41
1
10
952.587050021958
20
-47.6205824603692
30
0
41
1
10
952.583551854698
20
-47.5885165394106
30
0
41
1
10
952.580126086371
20
-47.5563602540096
30
0
41
1
10
952.576772716966
20
-47.5241160410188
30
0
41
1
10
952.573491746475
20
-47.4917863266121
30
0
41
1
10
952.570283174888
20
-47.4593735262965
30
0
41
1
10
952.567147002197
20
-47.4268800449031
30
0
41
1
10
952.564083228394
20
-47.3943082765845
30
0
41
1
10
952.561091853467
20
-47.3616606048104
30
0
41
1
10
952.55817287741
20
-47.3289394023654
30
0
41
1
10
952.555326300206
20
-47.2961470313448
30
0
41
1
10
952.552552121874
20
-47.2632858431575
30
0
41
1
10
952.549850342296
20
-47.2303581785045
30
0
41
1
10
952.547220961862
20
-47.1973663674523
30
0
41
1
10
952.544663979083
20
-47.1643127291532
30
0
41
1
10
952.542179399435
20
-47.131199572881
30
0
41
1
10
952.539767202549
20
-47.098029194185
30
0
41
1
10
952.536407215017
20
-47.0503159108202
30
0
41
1
10
952.532242420112
20
-46.9878367953674
30
0
41
1
10
952.527472990286
20
-46.9102245909999
30
0
41
1
10
952.523084320788
20
-46.8322836775385
30
0
41
1
10
952.519076366885
20
-46.7540381461554
30
0
41
1
10
952.51544913883
20
-46.6755118379342
30
0
41
1
10
952.512202636843
20
-46.5967283526352
30
0
41
1
10
952.50933684702
20
-46.5177110889589
30
0
41
1
10
952.506851820974
20
-46.4384830772044
30
0
41
1
10
952.504747365185
20
-46.3590676016024
30
0
41
1
10
952.503024190401
20
-46.2794859060822
30
0
41
1
10
952.501679674862
20
-46.1997656497931
30
0
41
1
10
952.500723475639
20
-46.1199097524341
30
0
41
1
10
952.500120012322
20
-46.0400111773632
30
0
41
1
10
952.50003988759
20
-45.9863229588735
30
0
41
1
10
952.5
20
-45.9595959595995
30
0
0
SPLINE
5
1BF
100
AcDbEntity
8
SK1
62
256
6
ByLayer
370
18
48
1
60
0
100
AcDbSpline
70
4
71
2
72
6
73
3
40
0
40
0
40
0
40
1
40
1
40
1
41
1
10
-57.9999999999999
20
34.6181755422317
30
0
41
1
10
-59.0000000184052
20
34.040899650239
30
0
41
1
10
-59.9999999999999
20
33.4636240941155
30
0
0
SPLINE
5
1C0
100
AcDbEntity
8
SK1
62
256
6
ByLayer
370
18
48
1
60
0
100
AcDbSpline
70
4
71
2
72
6
73
3
40
0
40
0
40
0
40
1
40
1
40
1
41
1
10
-60.0000000000001
20
-33.463624270945
30
0
41
1
10
-59.0000000184071
20
-34.0408998263443
30
0
41
1
10
-58.0000000000001
20
-34.6181757176365
30
0
0
SPLINE
5
1C1
100
AcDbEntity
8
SK1
62
256
6
ByLayer
370
18
48
1
60
0
100
AcDbSpline
70
4
71
3
72
11
73
7
40
0
40
0
40
0
40
0
40
0.238883862180892
40
0.497413574887387
40
0.757381157998943
40
1
40
1
40
1
40
1
41
1
10
-0.394913799811434
20
-35.8653896963417
30
0
41
1
10
-0.369683193050832
20
-35.8663180573075
30
0
41
1
10
-0.321111484140317
20
-35.8763682715858
30
0
41
1
10
-0.255176566703568
20
-35.9195944489529
30
0
41
1
10
-0.211247740473596
20
-35.9855826520851
30
0
41
1
10
-0.200957281154615
20
-36.0346194146338
30
0
41
1
10
-0.200000000000131
20
-36.0602771366802
30
0
0
SPLINE
5
1C2
100
AcDbEntity
8
SK1
62
256
6
ByLayer
370
18
48
1
60
0
100
AcDbSpline
70
4
71
3
72
11
73
7
40
0
40
0
40
0
40
0
40
0.242618842122764
40
0.502586425289053
40
0.761116137943224
40
1
40
1
40
1
40
1
41
1
10
-0.199999999999818
20
36.060276958058
30
0
41
1
10
-0.200957281151574
20
36.0346192359749
30
0
41
1
10
-0.211247740470355
20
35.9855824733589
30
0
41
1
10
-0.255176566689812
20
35.9195942701279
30
0
41
1
10
-0.321111484128352
20
35.8763680926841
30
0
41
1
10
-0.369683193047621
20
35.8663178783903
30
0
41
1
10
-0.39491379981115
20
35.8653895174204
30
0
0
SPLINE
5
1C3
100
AcDbEntity
8
SK1
62
256
6
ByLayer
370
18
48
1
60
0
100
AcDbSpline
70
4
71
2
72
6
73
3
40
0
40
0
40
0
40
1
40
1
40
1
41
1
10
-0.39491379981115
20
35.8653762243039
30
0
41
1
10
-1.1949768888756
20
35.8452785780294
30
0
41
1
10
-1.99503997793917
20
35.8251809317473
30
0
0
SPLINE
5
1C4
100
AcDbEntity
8
SK1
62
256
6
ByLayer
370
18
48
1
60
0
100
AcDbSpline
70
4
71
2
72
6
73
3
40
0
40
0
40
0
40
1
40
1
40
1
41
1
10
-1.99503997793943
20
-35.8251811094741
30
0
41
1
10
-1.19497688887586
20
-35.8452787557246
30
0
41
1
10
-0.394913799811434
20
-35.8653764019675
30
0
0
SPLINE
5
1C5
100
AcDbEntity
8
SK1
62
256
6
ByLayer
370
18
48
1
60
0
100
AcDbSpline
70
4
71
3
72
13
73
9
40
0
40
0
40
0
40
0
40
0.239471162860123
40
0.368379894974465
40
0.500021131905154
40
0.631658853855645
40
0.760557894165859
40
1
40
1
40
1
40
1
41
1
10
-1.99503997793917
20
35.8251942148273
30
0
41
1
10
-2.02111001788324
20
35.8247924479739
30
0
41
1
10
-2.05884008786538
20
35.8309639254268
30
0
41
1
10
-2.10627671849542
20
35.8540046625366
30
0
41
1
10
-2.13886340553941
20
35.8791686789068
30
0
41
1
10
-2.16563563428861
20
35.9104461500348
30
0
41
1
10
-2.19103262331009
20
35.9566591505759
30
0
41
1
10
-2.19909176796341
20
35.9940272211736
30
0
41
1
10
-2.19999999999987
20
36.0200816554225
30
0
0
SPLINE
5
1C6
100
AcDbEntity
8
SK1
62
256
6
ByLayer
370
18
48
1
60
0
100
AcDbSpline
70
4
71
3
72
13
73
9
40
0
40
0
40
0
40
0
40
0.239442105709448
40
0.368341145979431
40
0.499978867915451
40
0.631620104860488
40
0.760528837014914
40
1
40
1
40
1
40
1
41
1
10
-2.20000000000013
20
-36.0200818341074
30
0
41
1
10
-2.19909176796173
20
-35.9940273998955
30
0
41
1
10
-2.19103262330839
20
-35.9566593293522
30
0
41
1
10
-2.16563563428642
20
-35.9104463288838
30
0
41
1
10
-2.1388634055364
20
-35.8791688578038
30
0
41
1
10
-2.10627671849207
20
-35.854004841473
30
0
41
1
10
-2.05884008785986
20
-35.830964104399
30
0
41
1
10
-2.02111001788052
20
-35.8247926269554
30
0
41
1
10
-1.99503997793943
20
-35.82519439381
30
0
0
SPLINE
5
1C7
100
AcDbEntity
8
SK1
62
256
6
ByLayer
370
18
48
1
60
0
100
AcDbSpline
70
4
71
2
72
6
73
3
40
0
40
0
40
0
40
1
40
1
40
1
41
1
10
-2.19999999999987
20
35.9985719120492
30
0
41
1
10
-30.1000000035744
20
35.2981890859066
30
0
41
1
10
-57.9999999999999
20
34.597800310042
30
0
0
SPLINE
5
1C8
100
AcDbEntity
8
SK1
62
256
6
ByLayer
370
18
48
1
60
0
100
AcDbSpline
70
4
71
2
72
6
73
3
40
0
40
0
40
0
40
1
40
1
40
1
41
1
10
-58.0000000000001
20
-34.5978000890186
30
0
41
1
10
-30.1000000035745
20
-35.2981888603888
30
0
41
1
10
-2.20000000000013
20
-35.9985716822015
30
0
0
SPLINE
5
1C9
100
AcDbEntity
8
1
62
256
6
ByLayer
370
18
48
1
60
0
100
AcDbSpline
70
4
71
3
72
9
73
5
40
0
40
0
40
0
40
0
40
0.49037629229538
40
1
40
1
40
1
40
1
41
1
10
952.938958324597
20
-12.5243817961056
30
0
41
1
10
952.948882516924
20
-12.7273755674283
30
0
41
1
10
952.969155908769
20
-13.1292003182732
30
0
41
1
10
952.989517205353
20
-13.5010147660761
30
0
41
1
10
952.999903499253
20
-13.6810115912708
30
0
0
LINE
5
94
100
AcDbEntity
8
SK4
62
256
6
ByLayer
370
18
48
0.05
60
0
100
AcDbLine
10
4
20
0
30
0
11
944
21
0
31
0
39
0
210
0
220
0
230
1
0
LINE
5
96
100
AcDbEntity
8
81
62
256
6
ByLayer
370
18
48
1
60
0
100
AcDbLine
10
955
20
-10
30
0
11
960
21
-10
31
0
39
0
210
0
220
0
230
1
0
LINE
5
97
100
AcDbEntity
8
4
62
256
6
ByLayer
370
18
48
0.05
60
0
100
AcDbLine
10
944
20
-10
30
0
11
955
21
-10
31
0
39
0
210
0
220
0
230
1
0
LINE
5
99
100
AcDbEntity
8
80
62
256
6
ByLayer
370
18
48
1
60
0
100
AcDbLine
10
0
20
0
30
0
11
-5
21
0
31
0
39
0
210
0
220
0
230
1
0
LINE
5
9A
100
AcDbEntity
8
SK1
62
256
6
ByLayer
370
18
48
1
60
0
100
AcDbLine
10
-0.2
20
-6.815135
30
0
11
-0.2
21
-37.983485
31
0
39
0
210
0
220
0
230
1
0
LINE
5
9C
100
AcDbEntity
8
SK1
62
256
6
ByLayer
370
18
48
1
60
0
100
AcDbLine
10
-0.2
20
37.983485
30
0
11
-0.2
21
6.815135
31
0
39
0
210
0
220
0
230
1
0
LINE
5
9D
100
AcDbEntity
8
SK1
62
256
6
ByLayer
370
13
48
1
60
0
100
AcDbLine
10
-1.307107
20
4.605927
30
0
11
-1.307107
21
-4.605926
31
0
39
0
210
0
220
0
230
1
0
LINE
5
9E
100
AcDbEntity
8
1
62
256
6
ByLayer
370
13
48
1
60
0
100
AcDbLine
10
13.355662
20
47.532474
30
0
11
13.355662
21
15.513346
31
0
39
0
210
0
220
0
230
1
0
LINE
5
A0
100
AcDbEntity
8
1
62
256
6
ByLayer
370
13
48
1
60
0
100
AcDbLine
10
13.788675
20
47.699112
30
0
11
13.788675
21
14.993155
31
0
39
0
210
0
220
0
230
1
0
LINE
5
A1
100
AcDbEntity
8
1
62
256
6
ByLayer
370
13
48
1
60
0
100
AcDbLine
10
18.211325
20
-14.993155
30
0
11
18.211325
21
-47.699112
31
0
39
0
210
0
220
0
230
1
0
LINE
5
A2
100
AcDbEntity
8
1
62
256
6
ByLayer
370
13
48
1
60
0
100
AcDbLine
10
18.644338
20
-15.513346
30
0
11
18.644338
21
-47.532474
31
0
39
0
210
0
220
0
230
1
0
LINE
5
A3
100
AcDbEntity
8
1
62
256
6
ByLayer
370
13
48
1
60
0
100
AcDbLine
10
13.355662
20
-15.513346
30
0
11
13.355662
21
-47.532474
31
0
39
0
210
0
220
0
230
1
0
LINE
5
A4
100
AcDbEntity
8
1
62
256
6
ByLayer
370
13
48
1
60
0
100
AcDbLine
10
13.788675
20
-14.993155
30
0
11
13.788675
21
-47.699112
31
0
39
0
210
0
220
0
230
1
0
LINE
5
A5
100
AcDbEntity
8
1
62
256
6
ByLayer
370
13
48
1
60
0
100
AcDbLine
10
18.211325
20
47.699112
30
0
11
18.211325
21
14.993155
31
0
39
0
210
0
220
0
230
1
0
LINE
5
A6
100
AcDbEntity
8
1
62
256
6
ByLayer
370
13
48
1
60
0
100
AcDbLine
10
18.644338
20
47.532474
30
0
11
18.644338
21
15.513346
31
0
39
0
210
0
220
0
230
1
0
LINE
5
A7
100
AcDbEntity
8
1
62
256
6
ByLayer
370
18
48
1
60
0
100
AcDbLine
10
944
20
49.8
30
0
11
944
21
-49.8
31
0
39
0
210
0
220
0
230
1
0
LINE
5
A8
100
AcDbEntity
8
1
62
256
6
ByLayer
370
18
48
1
60
0
100
AcDbLine
10
0
20
-49.7
30
0
11
0
21
49.7
31
0
39
0
210
0
220
0
230
1
0
LINE
5
A9
100
AcDbEntity
8
1
62
256
6
ByLayer
370
13
48
1
60
0
100
AcDbLine
10
943.8
20
50
30
0
11
943.8
21
-50
31
0
39
0
210
0
220
0
230
1
0
LINE
5
AA
100
AcDbEntity
8
1
62
256
6
ByLayer
370
18
48
1
60
0
100
AcDbLine
10
0.3
20
-50
30
0
11
0.3
21
50
31
0
39
0
210
0
220
0
230
1
0
LINE
5
AB
100
AcDbEntity
8
1
62
256
6
ByLayer
370
18
48
1
60
0
100
AcDbLine
10
18.211325
20
14.993155
30
0
11
13.788675
21
14.993155
31
0
39
0
210
0
220
0
230
1
0
LINE
5
AC
100
AcDbEntity
8
1
62
256
6
ByLayer
370
18
48
1
60
0
100
AcDbLine
10
13.788675
20
47.699112
30
0
11
18.211325
21
47.699112
31
0
39
0
210
0
220
0
230
1
0
LINE
5
AD
100
AcDbEntity
8
1
62
256
6
ByLayer
370
18
48
1
60
0
100
AcDbLine
10
13.788675
20
-14.993155
30
0
11
18.211325
21
-14.993155
31
0
39
0
210
0
220
0
230
1
0
LINE
5
AE
100
AcDbEntity
8
1
62
256
6
ByLayer
370
18
48
1
60
0
100
AcDbLine
10
18.211325
20
-47.699112
30
0
11
13.788675
21
-47.699112
31
0
39
0
210
0
220
0
230
1
0
LINE
5
AF
100
AcDbEntity
8
1
62
256
6
ByLayer
370
18
48
1
60
0
100
AcDbLine
10
947.989892
20
11.579392
30
0
11
948.183809
21
12.17485
31
0
39
0
210
0
220
0
230
1
0
LINE
5
B0
100
AcDbEntity
8
1
62
256
6
ByLayer
370
18
48
1
60
0
100
AcDbLine
10
946.464729
20
12.267897
30
0
11
948.183809
21
12.17485
31
0
39
0
210
0
220
0
230
1
0
LINE
5
B1
100
AcDbEntity
8
1
62
256
6
ByLayer
370
18
48
1
60
0
100
AcDbLine
10
948.183809
20
12.17485
30
0
11
948.554722
21
11.546391
31
0
39
0
210
0
220
0
230
1
0
LINE
5
B2
100
AcDbEntity
8
1
62
256
6
ByLayer
370
18
48
1
60
0
100
AcDbLine
10
948.78803
20
-32.034245
30
0
11
949.255643
21
-34.371066
31
0
39
0
210
0
220
0
230
1
0
LINE
5
B3
100
AcDbEntity
8
1
62
256
6
ByLayer
370
18
48
1
60
0
100
AcDbLine
10
947.173103
20
-32.672769
30
0
11
947.536563
21
-34.489103
31
0
39
0
210
0
220
0
230
1
0
LINE
5
B4
100
AcDbEntity
8
1
62
256
6
ByLayer
370
18
48
1
60
0
100
AcDbLine
10
946.689518
20
-33.362792
30
0
11
947.561553
21
-32.118444
31
0
39
0
210
0
220
0
230
1
0
LINE
5
B5
100
AcDbEntity
8
1
62
256
6
ByLayer
370
18
48
1
60
0
100
AcDbLine
10
947.561553
20
-32.118444
30
0
11
949.280633
21
-32.000407
31
0
39
0
210
0
220
0
230
1
0
LINE
5
B6
100
AcDbEntity
8
1
62
256
6
ByLayer
370
18
48
1
60
0
100
AcDbLine
10
949.280633
20
-32.000407
30
0
11
950.127678
21
-33.126717
31
0
39
0
210
0
220
0
230
1
0
LINE
5
B7
100
AcDbEntity
8
1
62
256
6
ByLayer
370
18
48
1
60
0
100
AcDbLine
10
950.127678
20
-33.126717
30
0
11
949.255643
21
-34.371066
31
0
39
0
210
0
220
0
230
1
0
LINE
5
B8
100
AcDbEntity
8
1
62
256
6
ByLayer
370
18
48
1
60
0
100
AcDbLine
10
949.255643
20
-34.371066
30
0
11
947.536563
21
-34.489103
31
0
39
0
210
0
220
0
230
1
0
LINE
5
B9
100
AcDbEntity
8
1
62
256
6
ByLayer
370
18
48
1
60
0
100
AcDbLine
10
947.536563
20
-34.489103
30
0
11
946.689518
21
-33.362792
31
0
39
0
210
0
220
0
230
1
0
LINE
5
BA
100
AcDbEntity
8
1
62
256
6
ByLayer
370
18
48
1
60
0
100
AcDbLine
10
955.32476
20
28.945246
30
0
11
955.32476
21
28.98873
31
0
39
0
210
0
220
0
230
1
0
LINE
5
BB
100
AcDbEntity
8
1
62
256
6
ByLayer
370
18
48
1
60
0
100
AcDbLine
10
955.32476
20
-48.98873
30
0
11
955.32476
21
-48.945246
31
0
39
0
210
0
220
0
230
1
0
LINE
5
BC
100
AcDbEntity
8
1
62
256
6
ByLayer
370
13
48
1
60
0
100
AcDbLine
10
954.650481
20
-49.652087
30
0
11
954.650481
21
-49.638928
31
0
39
0
210
0
220
0
230
1
0
LINE
5
BD
100
AcDbEntity
8
1
62
256
6
ByLayer
370
13
48
1
60
0
100
AcDbLine
10
954.650481
20
29.638928
30
0
11
954.650481
21
29.652087
31
0
39
0
210
0
220
0
230
1
0
LINE
5
BE
100
AcDbEntity
8
1
62
256
6
ByLayer
370
18
48
1
60
0
100
AcDbLine
10
955.32476
20
-48.923754
30
0
11
955.32476
21
-48.836869
31
0
39
0
210
0
220
0
230
1
0
LINE
5
BF
100
AcDbEntity
8
1
62
256
6
ByLayer
370
18
48
1
60
0
100
AcDbLine
10
955.32476
20
28.836869
30
0
11
955.32476
21
28.923754
31
0
39
0
210
0
220
0
230
1
0
LINE
5
C0
100
AcDbEntity
8
1
62
256
6
ByLayer
370
13
48
1
60
0
100
AcDbLine
10
954.650481
20
29.547142
30
0
11
954.650481
21
29.573446
31
0
39
0
210
0
220
0
230
1
0
LINE
5
C1
100
AcDbEntity
8
1
62
256
6
ByLayer
370
13
48
1
60
0
100
AcDbLine
10
954.650481
20
-49.573446
30
0
11
954.650481
21
-49.547142
31
0
39
0
210
0
220
0
230
1
0
LINE
5
C2
100
AcDbEntity
8
1
62
256
6
ByLayer
370
18
48
1
60
0
100
AcDbLine
10
955.32476
20
-48.800723
30
0
11
955.32476
21
-48.669949
31
0
39
0
210
0
220
0
230
1
0
LINE
5
C3
100
AcDbEntity
8
1
62
256
6
ByLayer
370
18
48
1
60
0
100
AcDbLine
10
955.32476
20
28.669949
30
0
11
955.32476
21
28.800723
31
0
39
0
210
0
220
0
230
1
0
LINE
5
C4
100
AcDbEntity
8
1
62
256
6
ByLayer
370
13
48
1
60
0
100
AcDbLine
10
954.650481
20
-49.437637
30
0
11
954.650481
21
-49.398037
31
0
39
0
210
0
220
0
230
1
0
LINE
5
C5
100
AcDbEntity
8
1
62
256
6
ByLayer
370
13
48
1
60
0
100
AcDbLine
10
954.650481
20
29.398037
30
0
11
954.650481
21
29.437637
31
0
39
0
210
0
220
0
230
1
0
LINE
5
C6
100
AcDbEntity
8
1
62
256
6
ByLayer
370
18
48
1
60
0
100
AcDbLine
10
955.32476
20
28.443763
30
0
11
955.32476
21
28.619083
31
0
39
0
210
0
220
0
230
1
0
LINE
5
C7
100
AcDbEntity
8
1
62
256
6
ByLayer
370
18
48
1
60
0
100
AcDbLine
10
955.32476
20
-48.619083
30
0
11
955.32476
21
-48.443763
31
0
39
0
210
0
220
0
230
1
0
LINE
5
C8
100
AcDbEntity
8
1
62
256
6
ByLayer
370
13
48
1
60
0
100
AcDbLine
10
954.650481
20
-49.244068
30
0
11
954.650481
21
-49.190871
31
0
39
0
210
0
220
0
230
1
0
LINE
5
C9
100
AcDbEntity
8
1
62
256
6
ByLayer
370
13
48
1
60
0
100
AcDbLine
10
954.650481
20
29.190871
30
0
11
954.650481
21
29.244068
31
0
39
0
210
0
220
0
230
1
0
LINE
5
CA
100
AcDbEntity
8
1
62
256
6
ByLayer
370
18
48
1
60
0
100
AcDbLine
10
955.32476
20
28.157444
30
0
11
955.32476
21
28.378003
31
0
39
0
210
0
220
0
230
1
0
LINE
5
CB
100
AcDbEntity
8
1
62
256
6
ByLayer
370
18
48
1
60
0
100
AcDbLine
10
955.32476
20
-48.378003
30
0
11
955.32476
21
-48.157444
31
0
39
0
210
0
220
0
230
1
0
LINE
5
CC
100
AcDbEntity
8
1
62
256
6
ByLayer
370
13
48
1
60
0
100
AcDbLine
10
954.650481
20
-48.991877
30
0
11
954.650481
21
-48.92486
31
0
39
0
210
0
220
0
230
1
0
LINE
5
CD
100
AcDbEntity
8
1
62
256
6
ByLayer
370
13
48
1
60
0
100
AcDbLine
10
954.650481
20
28.92486
30
0
11
954.650481
21
28.991877
31
0
39
0
210
0
220
0
230
1
0
LINE
5
CE
100
AcDbEntity
8
1
62
256
6
ByLayer
370
18
48
1
60
0
100
AcDbLine
10
955.32476
20
-48.076352
30
0
11
955.32476
21
-47.808628
31
0
39
0
210
0
220
0
230
1
0
LINE
5
CF
100
AcDbEntity
8
1
62
256
6
ByLayer
370
18
48
1
60
0
100
AcDbLine
10
955.32476
20
27.808628
30
0
11
955.32476
21
28.076352
31
0
39
0
210
0
220
0
230
1
0
LINE
5
D0
100
AcDbEntity
8
1
62
256
6
ByLayer
370
13
48
1
60
0
100
AcDbLine
10
954.650481
20
-48.679918
30
0
11
954.650481
21
-48.598932
31
0
39
0
210
0
220
0
230
1
0
LINE
5
D1
100
AcDbEntity
8
1
62
256
6
ByLayer
370
13
48
1
60
0
100
AcDbLine
10
954.650481
20
28.598932
30
0
11
954.650481
21
28.679918
31
0
39
0
210
0
220
0
230
1
0
LINE
5
D2
100
AcDbEntity
8
1
62
256
6
ByLayer
370
18
48
1
60
0
100
AcDbLine
10
955.32476
20
-47.712678
30
0
11
955.32476
21
-47.398013
31
0
39
0
210
0
220
0
230
1
0
LINE
5
D3
100
AcDbEntity
8
1
62
256
6
ByLayer
370
18
48
1
60
0
100
AcDbLine
10
955.32476
20
27.398013
30
0
11
955.32476
21
27.712678
31
0
39
0
210
0
220
0
230
1
0
LINE
5
D4
100
AcDbEntity
8
1
62
256
6
ByLayer
370
13
48
1
60
0
100
AcDbLine
10
954.650481
20
-48.306732
30
0
11
954.650481
21
-48.210965
31
0
39
0
210
0
220
0
230
1
0
LINE
5
D5
100
AcDbEntity
8
1
62
256
6
ByLayer
370
13
48
1
60
0
100
AcDbLine
10
954.650481
20
28.210965
30
0
11
954.650481
21
28.306732
31
0
39
0
210
0
220
0
230
1
0
LINE
5
D6
100
AcDbEntity
8
1
62
256
6
ByLayer
370
18
48
1
60
0
100
AcDbLine
10
955.32476
20
-47.285166
30
0
11
955.32476
21
-46.92047
31
0
39
0
210
0
220
0
230
1
0
LINE
5
D7
100
AcDbEntity
8
1
62
256
6
ByLayer
370
18
48
1
60
0
100
AcDbLine
10
955.32476
20
26.92047
30
0
11
955.32476
21
27.285166
31
0
39
0
210
0
220
0
230
1
0
LINE
5
D8
100
AcDbEntity
8
1
62
256
6
ByLayer
370
13
48
1
60
0
100
AcDbLine
10
954.650481
20
-47.870507
30
0
11
954.650481
21
-47.760446
31
0
39
0
210
0
220
0
230
1
0
LINE
5
D9
100
AcDbEntity
8
1
62
256
6
ByLayer
370
13
48
1
60
0
100
AcDbLine
10
954.650481
20
27.760446
30
0
11
954.650481
21
27.870507
31
0
39
0
210
0
220
0
230
1
0
LINE
5
DA
100
AcDbEntity
8
1
62
256
6
ByLayer
370
18
48
1
60
0
100
AcDbLine
10
955.32476
20
-46.79159
30
0
11
955.32476
21
-46.375385
31
0
39
0
210
0
220
0
230
1
0
LINE
5
DB
100
AcDbEntity
8
1
62
256
6
ByLayer
370
18
48
1
60
0
100
AcDbLine
10
955.32476
20
26.375385
30
0
11
955.32476
21
26.79159
31
0
39
0
210
0
220
0
230
1
0
LINE
5
DC
100
AcDbEntity
8
1
62
256
6
ByLayer
370
13
48
1
60
0
100
AcDbLine
10
954.650481
20
-47.369037
30
0
11
954.650481
21
-47.242916
31
0
39
0
210
0
220
0
230
1
0
LINE
5
DD
100
AcDbEntity
8
1
62
256
6
ByLayer
370
13
48
1
60
0
100
AcDbLine
10
954.650481
20
27.242916
30
0
11
954.650481
21
27.369037
31
0
39
0
210
0
220
0
230
1
0
LINE
5
DE
100
AcDbEntity
8
1
62
256
6
ByLayer
370
18
48
1
60
0
100
AcDbLine
10
955.32476
20
-46.229251
30
0
11
955.32476
21
-35.999016
31
0
39
0
210
0
220
0
230
1
0
LINE
5
DF
100
AcDbEntity
8
1
62
256
6
ByLayer
370
18
48
1
60
0
100
AcDbLine
10
955.32476
20
15.999016
30
0
11
955.32476
21
26.229251
31
0
39
0
210
0
220
0
230
1
0
LINE
5
E0
100
AcDbEntity
8
1
62
256
6
ByLayer
370
13
48
1
60
0
100
AcDbLine
10
954.650481
20
-46.799654
30
0
11
954.650481
21
-46.657055
31
0
39
0
210
0
220
0
230
1
0
LINE
5
E1
100
AcDbEntity
8
1
62
256
6
ByLayer
370
13
48
1
60
0
100
AcDbLine
10
954.650481
20
26.657055
30
0
11
954.650481
21
26.799654
31
0
39
0
210
0
220
0
230
1
0
LINE
5
E2
100
AcDbEntity
8
1
62
256
6
ByLayer
370
18
48
1
60
0
100
AcDbLine
10
955.32476
20
26.37645
30
0
11
955.32476
21
26.229251
31
0
39
0
210
0
220
0
230
1
0
LINE
5
E3
100
AcDbEntity
8
1
62
256
6
ByLayer
370
18
48
1
60
0
100
AcDbLine
10
955.32476
20
26.921316
30
0
11
955.32476
21
26.79159
31
0
39
0
210
0
220
0
230
1
0
LINE
5
E4
100
AcDbEntity
8
1
62
256
6
ByLayer
370
18
48
1
60
0
100
AcDbLine
10
955.32476
20
27.398143
30
0
11
955.32476
21
27.285166
31
0
39
0
210
0
220
0
230
1
0
LINE
5
E5
100
AcDbEntity
8
1
62
256
6
ByLayer
370
18
48
1
60
0
100
AcDbLine
10
955.32476
20
27.809504
30
0
11
955.32476
21
27.712678
31
0
39
0
210
0
220
0
230
1
0
LINE
5
E6
100
AcDbEntity
8
1
62
256
6
ByLayer
370
18
48
1
60
0
100
AcDbLine
10
955.32476
20
28.157517
30
0
11
955.32476
21
28.076352
31
0
39
0
210
0
220
0
230
1
0
LINE
5
E7
100
AcDbEntity
8
1
62
256
6
ByLayer
370
18
48
1
60
0
100
AcDbLine
10
955.32476
20
28.443902
30
0
11
955.32476
21
28.378003
31
0
39
0
210
0
220
0
230
1
0
LINE
5
E8
100
AcDbEntity
8
1
62
256
6
ByLayer
370
18
48
1
60
0
100
AcDbLine
10
955.32476
20
28.670028
30
0
11
955.32476
21
28.619083
31
0
39
0
210
0
220
0
230
1
0
LINE
5
E9
100
AcDbEntity
8
1
62
256
6
ByLayer
370
18
48
1
60
0
100
AcDbLine
10
955.32476
20
28.836949
30
0
11
955.32476
21
28.800723
31
0
39
0
210
0
220
0
230
1
0
LINE
5
EA
100
AcDbEntity
8
1
62
256
6
ByLayer
370
18
48
1
60
0
100
AcDbLine
10
955.32476
20
28.945425
30
0
11
955.32476
21
28.923754
31
0
39
0
210
0
220
0
230
1
0
LINE
5
EB
100
AcDbEntity
8
1
62
256
6
ByLayer
370
18
48
1
60
0
100
AcDbLine
10
955.32476
20
28.995943
30
0
11
955.32476
21
28.98873
31
0
39
0
210
0
220
0
230
1
0
LINE
5
EC
100
AcDbEntity
8
1
62
256
6
ByLayer
370
18
48
1
60
0
100
AcDbLine
10
955.32476
20
-48.98873
30
0
11
955.32476
21
-48.995943
31
0
39
0
210
0
220
0
230
1
0
LINE
5
ED
100
AcDbEntity
8
1
62
256
6
ByLayer
370
18
48
1
60
0
100
AcDbLine
10
955.32476
20
-48.923754
30
0
11
955.32476
21
-48.945425
31
0
39
0
210
0
220
0
230
1
0
LINE
5
EE
100
AcDbEntity
8
1
62
256
6
ByLayer
370
18
48
1
60
0
100
AcDbLine
10
955.32476
20
-48.800723
30
0
11
955.32476
21
-48.836949
31
0
39
0
210
0
220
0
230
1
0
LINE
5
EF
100
AcDbEntity
8
1
62
256
6
ByLayer
370
18
48
1
60
0
100
AcDbLine
10
955.32476
20
-48.619083
30
0
11
955.32476
21
-48.670028
31
0
39
0
210
0
220
0
230
1
0
LINE
5
F0
100
AcDbEntity
8
1
62
256
6
ByLayer
370
18
48
1
60
0
100
AcDbLine
10
955.32476
20
-48.378003
30
0
11
955.32476
21
-48.443902
31
0
39
0
210
0
220
0
230
1
0
LINE
5
F1
100
AcDbEntity
8
1
62
256
6
ByLayer
370
18
48
1
60
0
100
AcDbLine
10
955.32476
20
-48.076352
30
0
11
955.32476
21
-48.157517
31
0
39
0
210
0
220
0
230
1
0
LINE
5
F2
100
AcDbEntity
8
1
62
256
6
ByLayer
370
18
48
1
60
0
100
AcDbLine
10
955.32476
20
-47.712678
30
0
11
955.32476
21
-47.809504
31
0
39
0
210
0
220
0
230
1
0
LINE
5
F3
100
AcDbEntity
8
1
62
256
6
ByLayer
370
18
48
1
60
0
100
AcDbLine
10
955.32476
20
-47.285166
30
0
11
955.32476
21
-47.398143
31
0
39
0
210
0
220
0
230
1
0
LINE
5
F4
100
AcDbEntity
8
1
62
256
6
ByLayer
370
18
48
1
60
0
100
AcDbLine
10
955.32476
20
-46.79159
30
0
11
955.32476
21
-46.921316
31
0
39
0
210
0
220
0
230
1
0
LINE
5
F5
100
AcDbEntity
8
1
62
256
6
ByLayer
370
18
48
1
60
0
100
AcDbLine
10
955.32476
20
-46.229251
30
0
11
955.32476
21
-46.37645
31
0
39
0
210
0
220
0
230
1
0
LINE
5
F6
100
AcDbEntity
8
1
62
256
6
ByLayer
370
18
48
1
60
0
100
AcDbLine
10
954.968301
20
-46.236758
30
0
11
954.968301
21
-35.999874
31
0
39
0
210
0
220
0
230
1
0
LINE
5
F7
100
AcDbEntity
8
1
62
256
6
ByLayer
370
18
48
1
60
0
100
AcDbLine
10
954.968301
20
15.999874
30
0
11
954.968301
21
26.236758
31
0
39
0
210
0
220
0
230
1
0
LINE
5
F8
100
AcDbEntity
8
1
62
256
6
ByLayer
370
18
48
1
60
0
100
AcDbLine
10
954.32476
20
30
30
0
11
954.32476
21
26.660501
31
0
39
0
210
0
220
0
230
1
0
LINE
5
F9
100
AcDbEntity
8
1
62
256
6
ByLayer
370
18
48
1
60
0
100
AcDbLine
10
954.32476
20
-50
30
0
11
954.32476
21
-46.660501
31
0
39
0
210
0
220
0
230
1
0
LINE
5
FA
100
AcDbEntity
8
1
62
256
6
ByLayer
370
13
48
1
60
0
100
AcDbLine
10
953.5
20
30
30
0
11
953.5
21
-47.518519
31
0
39
0
210
0
220
0
230
1
0
LINE
5
FB
100
AcDbEntity
8
1
62
256
6
ByLayer
370
18
48
1
60
0
100
AcDbLine
10
953
20
-45.5
30
0
11
953
21
49.5
31
0
39
0
210
0
220
0
230
1
0
LINE
5
FC
100
AcDbEntity
8
1
62
256
6
ByLayer
370
13
48
1
60
0
100
AcDbLine
10
944.4
20
50
30
0
11
944.4
21
-50
31
0
39
0
210
0
220
0
230
1
0
LINE
5
FD
100
AcDbEntity
8
1
62
256
6
ByLayer
370
18
48
1
60
0
100
AcDbLine
10
952.5
20
50
30
0
11
952.5
21
-45.959596
31
0
39
0
210
0
220
0
230
1
0
LINE
5
FE
100
AcDbEntity
8
1
62
256
6
ByLayer
370
18
48
1
60
0
100
AcDbLine
10
962.434561
20
16
30
0
11
953.9905
21
16
31
0
39
0
210
0
220
0
230
1
0
LINE
5
FF
100
AcDbEntity
8
1
62
256
6
ByLayer
370
18
48
1
60
0
100
AcDbLine
10
953.9905
20
16
30
0
11
953.9905
21
-36
31
0
39
0
210
0
220
0
230
1
0
LINE
5
100
100
AcDbEntity
8
1
62
256
6
ByLayer
370
18
48
1
60
0
100
AcDbLine
10
962.434561
20
-36
30
0
11
953.9905
21
-36
31
0
39
0
210
0
220
0
230
1
0
LINE
5
101
100
AcDbEntity
8
1
62
256
6
ByLayer
370
18
48
1
60
0
100
AcDbLine
10
968.4905
20
-30.786801
30
0
11
968.4905
21
10.786801
31
0
39
0
210
0
220
0
230
1
0
LINE
5
102
100
AcDbEntity
8
1
62
256
6
ByLayer
370
18
48
1
60
0
100
AcDbLine
10
969.4905
20
9.513103
30
0
11
969.4905
21
-29.513103
31
0
39
0
210
0
220
0
230
1
0
LINE
5
103
100
AcDbEntity
8
1
62
256
6
ByLayer
370
18
48
1
60
0
100
AcDbLine
10
0
20
-49.7
30
0
11
0.3
21
-50
31
0
39
0
210
0
220
0
230
1
0
LINE
5
104
100
AcDbEntity
8
1
62
256
6
ByLayer
370
18
48
1
60
0
100
AcDbLine
10
0.3
20
50
30
0
11
0
21
49.7
31
0
39
0
210
0
220
0
230
1
0
LINE
5
105
100
AcDbEntity
8
1
62
256
6
ByLayer
370
18
48
1
60
0
100
AcDbLine
10
943.8
20
50
30
0
11
0.3
21
50
31
0
39
0
210
0
220
0
230
1
0
LINE
5
106
100
AcDbEntity
8
1
62
256
6
ByLayer
370
18
48
1
60
0
100
AcDbLine
10
0.3
20
-50
30
0
11
943.8
21
-50
31
0
39
0
210
0
220
0
230
1
0
LINE
5
107
100
AcDbEntity
8
1
62
256
6
ByLayer
370
18
48
1
60
0
100
AcDbLine
10
967.933249
20
16.631445
30
0
11
967.671059
21
16.654654
31
0
39
0
210
0
220
0
230
1
0
LINE
5
108
100
AcDbEntity
8
1
62
256
6
ByLayer
370
18
48
1
60
0
100
AcDbLine
10
970.894372
20
13.074803
30
0
11
970.898696
21
13.337982
31
0
39
0
210
0
220
0
230
1
0
LINE
5
109
100
AcDbEntity
8
1
62
256
6
ByLayer
370
18
48
1
60
0
100
AcDbLine
10
968.490256
20
10.787113
30
0
11
970.826699
21
12.890855
31
0
39
0
210
0
220
0
230
1
0
LINE
5
10A
100
AcDbEntity
8
1
62
256
6
ByLayer
370
18
48
1
60
0
100
AcDbLine
10
967.481046
20
16.606579
30
0
11
964.696662
21
14.099508
31
0
39
0
210
0
220
0
230
1
0
LINE
5
10B
100
AcDbEntity
8
1
62
256
6
ByLayer
370
18
48
1
60
0
100
AcDbLine
10
954.55213
20
29.77263
30
0
11
954.32476
21
30
31
0
39
0
210
0
220
0
230
1
0
LINE
5
10C
100
AcDbEntity
8
1
62
256
6
ByLayer
370
18
48
1
60
0
100
AcDbLine
10
954.32476
20
-50
30
0
11
954.55213
21
-49.77263
31
0
39
0
210
0
220
0
230
1
0
LINE
5
10D
100
AcDbEntity
8
1
62
256
6
ByLayer
370
18
48
1
60
0
100
AcDbLine
10
953
20
-50
30
0
11
954.32476
21
-50
31
0
39
0
210
0
220
0
230
1
0
LINE
5
10E
100
AcDbEntity
8
1
62
256
6
ByLayer
370
18
48
1
60
0
100
AcDbLine
10
954.32476
20
30
30
0
11
953.5
21
30
31
0
39
0
210
0
220
0
230
1
0
LINE
5
10F
100
AcDbEntity
8
1
62
256
6
ByLayer
370
18
48
1
60
0
100
AcDbLine
10
953
20
49.5
30
0
11
952.5
21
50
31
0
39
0
210
0
220
0
230
1
0
LINE
5
110
100
AcDbEntity
8
1
62
256
6
ByLayer
370
18
48
1
60
0
100
AcDbLine
10
952.5
20
50
30
0
11
944.4
21
50
31
0
39
0
210
0
220
0
230
1
0
LINE
5
111
100
AcDbEntity
8
1
62
256
6
ByLayer
370
18
48
1
60
0
100
AcDbLine
10
944.4
20
-50
30
0
11
953.02
21
-50
31
0
39
0
210
0
220
0
230
1
0
LINE
5
112
100
AcDbEntity
8
1
62
256
6
ByLayer
370
18
48
1
60
0
100
AcDbLine
10
970.982434
20
-33.242738
30
0
11
970.97811
21
-32.979558
31
0
39
0
210
0
220
0
230
1
0
LINE
5
113
100
AcDbEntity
8
1
62
256
6
ByLayer
370
18
48
1
60
0
100
AcDbLine
10
967.754797
20
-36.55941
30
0
11
968.016987
21
-36.536201
31
0
39
0
210
0
220
0
230
1
0
LINE
5
114
100
AcDbEntity
8
1
62
256
6
ByLayer
370
18
48
1
60
0
100
AcDbLine
10
964.79397
20
-34.016483
30
0
11
967.564784
21
-36.511335
31
0
39
0
210
0
220
0
230
1
0
LINE
5
115
100
AcDbEntity
8
1
62
256
6
ByLayer
370
18
48
1
60
0
100
AcDbLine
10
970.910437
20
-32.795611
30
0
11
968.56889
21
-30.687273
31
0
39
0
210
0
220
0
230
1
0
LINE
5
116
100
AcDbEntity
8
SK2
62
256
6
ByLayer
370
18
48
1
60
0
100
AcDbLine
10
-66.6
20
-50
30
0
11
-66.6
21
50
31
0
39
0
210
0
220
0
230
1
0
LINE
5
118
100
AcDbEntity
8
SK2
62
256
6
ByLayer
370
18
48
1
60
0
100
AcDbLine
10
-1.2875
20
50
30
0
11
-68.6
21
50
31
0
39
0
210
0
220
0
230
1
0
LINE
5
119
100
AcDbEntity
8
SK2
62
256
6
ByLayer
370
18
48
1
60
0
100
AcDbLine
10
-1.2875
20
-50
30
0
11
-68.6
21
-50
31
0
39
0
210
0
220
0
230
1
0
LINE
5
11A
100
AcDbEntity
8
1
62
256
6
ByLayer
370
18
48
1
60
1
100
AcDbLine
10
-66.6
20
50
30
0
11
-66.139216
21
46.500002
31
0
39
0
210
0
220
0
230
1
0
LINE
5
11B
100
AcDbEntity
8
1
62
256
6
ByLayer
370
18
48
1
60
1
100
AcDbLine
10
-66.139216
20
46.500002
30
0
11
-67.060784
21
46.499998
31
0
39
0
210
0
220
0
230
1
0
LINE
5
11C
100
AcDbEntity
8
1
62
256
6
ByLayer
370
18
48
1
60
1
100
AcDbLine
10
-67.060784
20
46.499998
30
0
11
-66.6
21
50
31
0
39
0
210
0
220
0
230
1
0
LINE
5
11D
100
AcDbEntity
8
1
62
256
6
ByLayer
370
18
48
1
60
1
100
AcDbLine
10
-66.6
20
-50
30
0
11
-67.060784
21
-46.500002
31
0
39
0
210
0
220
0
230
1
0
LINE
5
11E
100
AcDbEntity
8
1
62
256
6
ByLayer
370
18
48
1
60
1
100
AcDbLine
10
-67.060784
20
-46.500002
30
0
11
-66.139216
21
-46.499998
31
0
39
0
210
0
220
0
230
1
0
LINE
5
11F
100
AcDbEntity
8
1
62
256
6
ByLayer
370
18
48
1
60
1
100
AcDbLine
10
-66.139216
20
-46.499998
30
0
11
-66.6
21
-50
31
0
39
0
210
0
220
0
230
1
0
LINE
5
120
100
AcDbEntity
8
SK2
62
256
6
ByLayer
370
18
48
1
60
0
100
AcDbLine
10
991.73317
20
-50
30
0
11
991.73317
21
50
31
0
39
0
210
0
220
0
230
1
0
LINE
5
121
100
AcDbEntity
8
SK2
62
256
6
ByLayer
370
18
48
1
60
0
100
AcDbLine
10
945.3875
20
50
30
0
11
993.73317
21
50
31
0
39
0
210
0
220
0
230
1
0
LINE
5
122
100
AcDbEntity
8
SK2
62
256
6
ByLayer
370
18
48
1
60
0
100
AcDbLine
10
945.3875
20
-50
30
0
11
993.73317
21
-50
31
0
39
0
210
0
220
0
230
1
0
LINE
5
123
100
AcDbEntity
8
1
62
256
6
ByLayer
370
18
48
1
60
1
100
AcDbLine
10
991.73317
20
50
30
0
11
992.193954
21
46.500002
31
0
39
0
210
0
220
0
230
1
0
LINE
5
124
100
AcDbEntity
8
1
62
256
6
ByLayer
370
18
48
1
60
1
100
AcDbLine
10
992.193954
20
46.500002
30
0
11
991.272387
21
46.499998
31
0
39
0
210
0
220
0
230
1
0
LINE
5
125
100
AcDbEntity
8
1
62
256
6
ByLayer
370
18
48
1
60
1
100
AcDbLine
10
991.272387
20
46.499998
30
0
11
991.73317
21
50
31
0
39
0
210
0
220
0
230
1
0
LINE
5
126
100
AcDbEntity
8
1
62
256
6
ByLayer
370
18
48
1
60
1
100
AcDbLine
10
991.73317
20
-50
30
0
11
991.272387
21
-46.500002
31
0
39
0
210
0
220
0
230
1
0
LINE
5
127
100
AcDbEntity
8
1
62
256
6
ByLayer
370
18
48
1
60
1
100
AcDbLine
10
991.272387
20
-46.500002
30
0
11
992.193954
21
-46.499998
31
0
39
0
210
0
220
0
230
1
0
LINE
5
128
100
AcDbEntity
8
1
62
256
6
ByLayer
370
18
48
1
60
1
100
AcDbLine
10
992.193954
20
-46.499998
30
0
11
991.73317
21
-50
31
0
39
0
210
0
220
0
230
1
0
LINE
5
129
100
AcDbEntity
8
SK2
62
256
6
ByLayer
370
13
48
1
60
0
100
AcDbLine
10
980.10817
20
30
30
0
11
980.10817
21
-50
31
0
39
0
210
0
220
0
230
1
0
LINE
5
12A
100
AcDbEntity
8
SK2
62
256
6
ByLayer
370
13
48
1
60
0
100
AcDbLine
10
955.91226
20
-50
30
0
11
982.10817
21
-50
31
0
39
0
210
0
220
0
230
1
0
LINE
5
12B
100
AcDbEntity
8
SK2
62
256
6
ByLayer
370
13
48
1
60
0
100
AcDbLine
10
955.91226
20
30
30
0
11
982.10817
21
30
31
0
39
0
210
0
220
0
230
1
0
LINE
5
12C
100
AcDbEntity
8
1
62
256
6
ByLayer
370
18
48
1
60
1
100
AcDbLine
10
980.10817
20
-50
30
0
11
979.647387
21
-46.500002
31
0
39
0
210
0
220
0
230
1
0
LINE
5
12D
100
AcDbEntity
8
1
62
256
6
ByLayer
370
18
48
1
60
1
100
AcDbLine
10
979.647387
20
-46.500002
30
0
11
980.568954
21
-46.499998
31
0
39
0
210
0
220
0
230
1
0
LINE
5
12E
100
AcDbEntity
8
1
62
256
6
ByLayer
370
18
48
1
60
1
100
AcDbLine
10
980.568954
20
-46.499998
30
0
11
980.10817
21
-50
31
0
39
0
210
0
220
0
230
1
0
LINE
5
12F
100
AcDbEntity
8
1
62
256
6
ByLayer
370
18
48
1
60
1
100
AcDbLine
10
980.10817
20
30
30
0
11
980.568954
21
26.500002
31
0
39
0
210
0
220
0
230
1
0
LINE
5
130
100
AcDbEntity
8
1
62
256
6
ByLayer
370
18
48
1
60
1
100
AcDbLine
10
980.568954
20
26.500002
30
0
11
979.647387
21
26.499998
31
0
39
0
210
0
220
0
230
1
0
LINE
5
131
100
AcDbEntity
8
1
62
256
6
ByLayer
370
18
48
1
60
1
100
AcDbLine
10
979.647387
20
26.499998
30
0
11
980.10817
21
30
31
0
39
0
210
0
220
0
230
1
0
LINE
5
132
100
AcDbEntity
8
SK2
62
256
6
ByLayer
370
18
48
1
60
0
100
AcDbLine
10
0
20
55.600025
30
0
11
955
21
55.600025
31
0
39
0
210
0
220
0
230
1
0
LINE
5
133
100
AcDbEntity
8
SK2
62
256
6
ByLayer
370
18
48
1
60
0
100
AcDbLine
10
955
20
51.5875
30
0
11
955
21
57.600025
31
0
39
0
210
0
220
0
230
1
0
LINE
5
134
100
AcDbEntity
8
SK2
62
256
6
ByLayer
370
18
48
1
60
0
100
AcDbLine
10
0
20
51.2875
30
0
11
0
21
57.600025
31
0
39
0
210
0
220
0
230
1
0
LINE
5
135
100
AcDbEntity
8
1
62
256
6
ByLayer
370
18
48
1
60
1
100
AcDbLine
10
955
20
55.600025
30
0
11
951.500002
21
55.139241
31
0
39
0
210
0
220
0
230
1
0
LINE
5
136
100
AcDbEntity
8
1
62
256
6
ByLayer
370
18
48
1
60
1
100
AcDbLine
10
951.500002
20
55.139241
30
0
11
951.499998
21
56.060809
31
0
39
0
210
0
220
0
230
1
0
LINE
5
137
100
AcDbEntity
8
1
62
256
6
ByLayer
370
18
48
1
60
1
100
AcDbLine
10
951.499998
20
56.060809
30
0
11
955
21
55.600025
31
0
39
0
210
0
220
0
230
1
0
LINE
5
138
100
AcDbEntity
8
1
62
256
6
ByLayer
370
18
48
1
60
1
100
AcDbLine
10
0
20
55.600025
30
0
11
3.499998
21
56.060809
31
0
39
0
210
0
220
0
230
1
0
LINE
5
139
100
AcDbEntity
8
1
62
256
6
ByLayer
370
18
48
1
60
1
100
AcDbLine
10
3.499998
20
56.060809
30
0
11
3.500002
21
55.139241
31
0
39
0
210
0
220
0
230
1
0
LINE
5
13A
100
AcDbEntity
8
1
62
256
6
ByLayer
370
18
48
1
60
1
100
AcDbLine
10
3.500002
20
55.139241
30
0
11
0
21
55.600025
31
0
39
0
210
0
220
0
230
1
0
LINE
5
1CE
100
AcDbEntity
8
1
62
256
6
ByLayer
370
18
48
1
60
1
100
AcDbLine
10
-66.6
20
50
30
0
11
-66.139216
21
46.500002
31
0
39
0
210
0
220
0
230
1
0
LINE
5
1CF
100
AcDbEntity
8
1
62
256
6
ByLayer
370
18
48
1
60
1
100
AcDbLine
10
-66.139216
20
46.500002
30
0
11
-67.060784
21
46.499998
31
0
39
0
210
0
220
0
230
1
0
LINE
5
1D0
100
AcDbEntity
8
1
62
256
6
ByLayer
370
18
48
1
60
1
100
AcDbLine
10
-67.060784
20
46.499998
30
0
11
-66.6
21
50
31
0
39
0
210
0
220
0
230
1
0
LINE
5
1D2
100
AcDbEntity
8
1
62
256
6
ByLayer
370
18
48
1
60
1
100
AcDbLine
10
-66.6
20
-50
30
0
11
-67.060784
21
-46.500002
31
0
39
0
210
0
220
0
230
1
0
LINE
5
1D3
100
AcDbEntity
8
1
62
256
6
ByLayer
370
18
48
1
60
1
100
AcDbLine
10
-67.060784
20
-46.500002
30
0
11
-66.139216
21
-46.499998
31
0
39
0
210
0
220
0
230
1
0
LINE
5
1D4
100
AcDbEntity
8
1
62
256
6
ByLayer
370
18
48
1
60
1
100
AcDbLine
10
-66.139216
20
-46.499998
30
0
11
-66.6
21
-50
31
0
39
0
210
0
220
0
230
1
0
LINE
5
1D8
100
AcDbEntity
8
1
62
256
6
ByLayer
370
18
48
1
60
1
100
AcDbLine
10
991.73317
20
50
30
0
11
992.193954
21
46.500002
31
0
39
0
210
0
220
0
230
1
0
LINE
5
1D9
100
AcDbEntity
8
1
62
256
6
ByLayer
370
18
48
1
60
1
100
AcDbLine
10
992.193954
20
46.500002
30
0
11
991.272387
21
46.499998
31
0
39
0
210
0
220
0
230
1
0
LINE
5
1DA
100
AcDbEntity
8
1
62
256
6
ByLayer
370
18
48
1
60
1
100
AcDbLine
10
991.272387
20
46.499998
30
0
11
991.73317
21
50
31
0
39
0
210
0
220
0
230
1
0
LINE
5
1DC
100
AcDbEntity
8
1
62
256
6
ByLayer
370
18
48
1
60
1
100
AcDbLine
10
991.73317
20
-50
30
0
11
991.272387
21
-46.500002
31
0
39
0
210
0
220
0
230
1
0
LINE
5
1DD
100
AcDbEntity
8
1
62
256
6
ByLayer
370
18
48
1
60
1
100
AcDbLine
10
991.272387
20
-46.500002
30
0
11
992.193954
21
-46.499998
31
0
39
0
210
0
220
0
230
1
0
LINE
5
1DE
100
AcDbEntity
8
1
62
256
6
ByLayer
370
18
48
1
60
1
100
AcDbLine
10
992.193954
20
-46.499998
30
0
11
991.73317
21
-50
31
0
39
0
210
0
220
0
230
1
0
LINE
5
1E4
100
AcDbEntity
8
1
62
256
6
ByLayer
370
18
48
1
60
1
100
AcDbLine
10
980.10817
20
-50
30
0
11
979.647387
21
-46.500002
31
0
39
0
210
0
220
0
230
1
0
LINE
5
1E5
100
AcDbEntity
8
1
62
256
6
ByLayer
370
18
48
1
60
1
100
AcDbLine
10
979.647387
20
-46.500002
30
0
11
980.568954
21
-46.499998
31
0
39
0
210
0
220
0
230
1
0
LINE
5
1E6
100
AcDbEntity
8
1
62
256
6
ByLayer
370
18
48
1
60
1
100
AcDbLine
10
980.568954
20
-46.499998
30
0
11
980.10817
21
-50
31
0
39
0
210
0
220
0
230
1
0
LINE
5
1E8
100
AcDbEntity
8
1
62
256
6
ByLayer
370
18
48
1
60
1
100
AcDbLine
10
980.10817
20
30
30
0
11
980.568954
21
26.500002
31
0
39
0
210
0
220
0
230
1
0
LINE
5
1E9
100
AcDbEntity
8
1
62
256
6
ByLayer
370
18
48
1
60
1
100
AcDbLine
10
980.568954
20
26.500002
30
0
11
979.647387
21
26.499998
31
0
39
0
210
0
220
0
230
1
0
LINE
5
1EA
100
AcDbEntity
8
1
62
256
6
ByLayer
370
18
48
1
60
1
100
AcDbLine
10
979.647387
20
26.499998
30
0
11
980.10817
21
30
31
0
39
0
210
0
220
0
230
1
0
LINE
5
1ED
100
AcDbEntity
8
1
62
256
6
ByLayer
370
18
48
1
60
1
100
AcDbLine
10
955
20
55.600025
30
0
11
951.500002
21
55.139241
31
0
39
0
210
0
220
0
230
1
0
LINE
5
1EE
100
AcDbEntity
8
1
62
256
6
ByLayer
370
18
48
1
60
1
100
AcDbLine
10
951.500002
20
55.139241
30
0
11
951.499998
21
56.060809
31
0
39
0
210
0
220
0
230
1
0
LINE
5
1EF
100
AcDbEntity
8
1
62
256
6
ByLayer
370
18
48
1
60
1
100
AcDbLine
10
951.499998
20
56.060809
30
0
11
955
21
55.600025
31
0
39
0
210
0
220
0
230
1
0
LINE
5
1F1
100
AcDbEntity
8
1
62
256
6
ByLayer
370
18
48
1
60
1
100
AcDbLine
10
0
20
55.600025
30
0
11
3.499998
21
56.060809
31
0
39
0
210
0
220
0
230
1
0
LINE
5
1F2
100
AcDbEntity
8
1
62
256
6
ByLayer
370
18
48
1
60
1
100
AcDbLine
10
3.499998
20
56.060809
30
0
11
3.500002
21
55.139241
31
0
39
0
210
0
220
0
230
1
0
LINE
5
1F3
100
AcDbEntity
8
1
62
256
6
ByLayer
370
18
48
1
60
1
100
AcDbLine
10
3.500002
20
55.139241
30
0
11
0
21
55.600025
31
0
39
0
210
0
220
0
230
1
0
MTEXT
5
1CA
100
AcDbEntity
8
SK2
62
256
6
ByLayer
370
18
48
1
60
0
100
AcDbMText
10
-68.164634
20
-5.400922
30
0
210
0
220
0
230
1
1
%%c
40
3.5
41
0
44
1.084337
50
90
71
7
72
5
7
iso_b_vert
0
MTEXT
5
1CD
100
AcDbEntity
8
SK2
62
256
6
ByLayer
370
18
48
1
60
0
100
AcDbMText
10
-68.164634
20
1.571734
30
0
210
0
220
0
230
1
1
\W0.6217;100
40
3.5
41
0
44
1.084337
50
90
71
7
72
5
7
iso_b_vert
0
MTEXT
5
1D6
100
AcDbEntity
8
SK2
62
256
6
ByLayer
370
18
48
1
60
0
100
AcDbMText
10
990.168537
20
-5.400922
30
0
210
0
220
0
230
1
1
%%c
40
3.5
41
0
44
1.084337
50
90
71
7
72
5
7
iso_b_vert
0
MTEXT
5
1D7
100
AcDbEntity
8
SK2
62
256
6
ByLayer
370
18
48
1
60
0
100
AcDbMText
10
990.168537
20
1.571734
30
0
210
0
220
0
230
1
1
\W0.6217;100
40
3.5
41
0
44
1.084337
50
90
71
7
72
5
7
iso_b_vert
0
MTEXT
5
1E0
100
AcDbEntity
8
SK2
62
256
6
ByLayer
370
18
48
1
60
0
100
AcDbMText
10
977.887287
20
-3.377034
30
0
210
0
220
0
230
1
1
\W1.1313;{\H1.88x;)}
40
3.5
41
0
44
1.084337
50
90
71
7
72
5
7
iso_b_vert
0
MTEXT
5
1E1
100
AcDbEntity
8
SK2
62
256
6
ByLayer
370
18
48
1
60
0
100
AcDbMText
10
977.887287
20
-18.757966
30
0
210
0
220
0
230
1
1
\W1.1313;{\H1.88x;(}
40
3.5
41
0
44
1.084337
50
90
71
7
72
5
7
iso_b_vert
0
MTEXT
5
1E2
100
AcDbEntity
8
SK2
62
256
6
ByLayer
370
18
48
1
60
0
100
AcDbMText
10
977.887287
20
-14.530622
30
0
210
0
220
0
230
1
1
%%c
40
3.5
41
0
44
1.084337
50
90
71
7
72
5
7
iso_b_vert
0
MTEXT
5
1E3
100
AcDbEntity
8
SK2
62
256
6
ByLayer
370
18
48
1
60
0
100
AcDbMText
10
977.887287
20
-7.557966
30
0
210
0
220
0
230
1
1
\W0.6740;80
40
3.5
41
0
44
1.084337
50
90
71
7
72
5
7
iso_b_vert
0
MTEXT
5
1EC
100
AcDbEntity
8
SK2
62
256
6
ByLayer
370
18
48
1
60
0
100
AcDbMText
10
474.287301
20
56.632659
30
0
210
0
220
0
230
1
1
\W0.7138;955
40
3.5
41
0
44
1.084337
50
0
71
7
72
5
7
iso_b_vert
0
MTEXT
5
1F5
100
AcDbEntity
8
SK6
62
256
6
ByLayer
370
18
48
1
60
0
100
AcDbMText
10
430.888322
20
-76.164985
30
0
210
0
220
0
230
1
1
\W0.7403;HT30D-C10 100 955L80
40
3.5
41
0
44
1.084337
50
0
71
7
72
5
7
iso_b_vert
0
HATCH
5
1D1
100
AcDbEntity
8
SK2
62
256
6
ByLayer
370
13
48
1
60
0
100
AcDbHatch
10
0
20
0
30
0
210
0
220
0
230
1
2
ANSI31
70
0
71
0
91
1
92
5
93
3
72
1
10
-66.6000000000004
20
49.9999999999965
11
-66.1392162584476
21
46.5000016925497
72
1
10
-66.1392162584476
20
46.5000016925497
11
-67.0607837415531
21
46.4999983074433
72
1
10
-67.0607837415531
20
46.4999983074433
11
-66.6000000000004
21
49.9999999999965
97
0
75
0
76
1
52
0
41
0.0062
77
0
78
1
53
45
43
0
44
0
45
-0.0139193969876572
46
0.0139193969876572
79
0
47
0
98
1
10
0
20
0
0
HATCH
5
1D5
100
AcDbEntity
8
SK2
62
256
6
ByLayer
370
13
48
1
60
0
100
AcDbHatch
10
0
20
0
30
0
210
0
220
0
230
1
2
ANSI31
70
0
71
0
91
1
92
5
93
3
72
1
10
-66.6000000000004
20
-50.0000000000035
11
-67.0607837415531
21
-46.5000016925567
72
1
10
-67.0607837415531
20
-46.5000016925567
11
-66.1392162584476
21
-46.4999983074503
72
1
10
-66.1392162584476
20
-46.4999983074503
11
-66.6000000000004
21
-50.0000000000035
97
0
75
0
76
1
52
0
41
0.0062
77
0
78
1
53
45
43
0
44
0
45
-0.0139193969876572
46
0.0139193969876572
79
0
47
0
98
1
10
0
20
0
0
HATCH
5
1DB
100
AcDbEntity
8
SK2
62
256
6
ByLayer
370
13
48
1
60
0
100
AcDbHatch
10
0
20
0
30
0
210
0
220
0
230
1
2
ANSI31
70
0
71
0
91
1
92
5
93
3
72
1
10
991.733170336775
20
49.9999999999965
11
992.193954078328
21
46.5000016925497
72
1
10
992.193954078328
20
46.5000016925497
11
991.272386595223
21
46.4999983074433
72
1
10
991.272386595223
20
46.4999983074433
11
991.733170336775
21
49.9999999999965
97
0
75
0
76
1
52
0
41
0.0062
77
0
78
1
53
45
43
0
44
0
45
-0.0139193969876572
46
0.0139193969876572
79
0
47
0
98
1
10
0
20
0
0
HATCH
5
1DF
100
AcDbEntity
8
SK2
62
256
6
ByLayer
370
13
48
1
60
0
100
AcDbHatch
10
0
20
0
30
0
210
0
220
0
230
1
2
ANSI31
70
0
71
0
91
1
92
5
93
3
72
1
10
991.733170336775
20
-50.0000000000035
11
991.272386595223
21
-46.5000016925567
72
1
10
991.272386595223
20
-46.5000016925567
11
992.193954078328
21
-46.4999983074503
72
1
10
992.193954078328
20
-46.4999983074503
11
991.733170336775
21
-50.0000000000035
97
0
75
0
76
1
52
0
41
0.0062
77
0
78
1
53
45
43
0
44
0
45
-0.0139193969876572
46
0.0139193969876572
79
0
47
0
98
1
10
0
20
0
0
HATCH
5
1E7
100
AcDbEntity
8
SK2
62
256
6
ByLayer
370
13
48
1
60
0
100
AcDbHatch
10
0
20
0
30
0
210
0
220
0
230
1
2
ANSI31
70
0
71
0
91
1
92
5
93
3
72
1
10
980.108170336775
20
-50.0000000000036
11
979.647386595223
21
-46.5000016925568
72
1
10
979.647386595223
20
-46.5000016925568
11
980.568954078328
21
-46.4999983074504
72
1
10
980.568954078328
20
-46.4999983074504
11
980.108170336775
21
-50.0000000000036
97
0
75
0
76
1
52
0
41
0.0062
77
0
78
1
53
45
43
0
44
0
45
-0.0139193969876572
46
0.0139193969876572
79
0
47
0
98
1
10
0
20
0
0
HATCH
5
1EB
100
AcDbEntity
8
SK2
62
256
6
ByLayer
370
13
48
1
60
0
100
AcDbHatch
10
0
20
0
30
0
210
0
220
0
230
1
2
ANSI31
70
0
71
0
91
1
92
5
93
3
72
1
10
980.108170336775
20
29.9999999999964
11
980.568954078328
21
26.5000016925496
72
1
10
980.568954078328
20
26.5000016925496
11
979.647386595223
21
26.4999983074432
72
1
10
979.647386595223
20
26.4999983074432
11
980.108170336775
21
29.9999999999964
97
0
75
0
76
1
52
0
41
0.0062
77
0
78
1
53
45
43
0
44
0
45
-0.0139193969876572
46
0.0139193969876572
79
0
47
0
98
1
10
0
20
0
0
HATCH
5
1F0
100
AcDbEntity
8
SK2
62
256
6
ByLayer
370
13
48
1
60
0
100
AcDbHatch
10
0
20
0
30
0
210
0
220
0
230
1
2
ANSI31
70
0
71
0
91
1
92
5
93
3
72
1
10
955
20
55.6000249999965
11
951.500001692554
21
55.1392412584437
72
1
10
951.500001692554
20
55.1392412584437
11
951.499998307447
21
56.0608087415494
72
1
10
951.499998307447
20
56.0608087415494
11
955
21
55.6000249999965
97
0
75
0
76
1
52
0
41
0.0062
77
0
78
1
53
45
43
0
44
0
45
-0.0139193969876572
46
0.0139193969876572
79
0
47
0
98
1
10
0
20
0
0
HATCH
5
1F4
100
AcDbEntity
8
SK2
62
256
6
ByLayer
370
13
48
1
60
0
100
AcDbHatch
10
0
20
0
30
0
210
0
220
0
230
1
2
ANSI31
70
0
71
0
91
1
92
5
93
3
72
1
10
0
20
55.6000249999965
11
3.49999830744682
21
56.0608087415494
72
1
10
3.49999830744682
20
56.0608087415494
11
3.50000169255318
21
55.1392412584437
72
1
10
3.50000169255318
20
55.1392412584437
11
0
21
55.6000249999965
97
0
75
0
76
1
52
0
41
0.0062
77
0
78
1
53
45
43
0
44
0
45
-0.0139193969876572
46
0.0139193969876572
79
0
47
0
98
1
10
0
20
0
0
ENDSEC
0
SECTION
2
OBJECTS
0
DICTIONARY
5
264
330
0
100
AcDbDictionary
280
0
281
1
3
ACAD_GROUP
350
265
3
ACAD_MLINESTYLE
350
266
0
DICTIONARY
5
265
330
0
100
AcDbDictionary
280
0
281
1
0
DICTIONARY
5
266
330
0
100
AcDbDictionary
280
0
281
1
3
Standard
350
18
0
MLINESTYLE
5
18
330
266
100
AcDbMlineStyle
2
Standard
70
0
3

62
256
51
90
52
90
71
2
49
-0.5
62
256
6
ByLayer
49
0.5
62
256
6
ByLayer
0
RASTERVARIABLES
5
252
330

100
AcDbRasterVariables
90
0
70
1
71
1
72
1
0
ENDSEC
0
EOF
