0
SECTION
2
HEADER
9
$ACADVER
1
AC1015
9
$DWGCODEPAGE
3
ANSI_1252
9
$HANDSEED
5
273
9
$ANGBASE
50
0
9
$ANGDIR
70
0
9
$ATTMODE
70
1
9
$AUNITS
70
0
9
$AUPREC
70
0
9
$CECOLOR
62
256
9
$CELTSCALE
40
1
9
$CELTYPE
6
ByLayer
9
$CELWEIGHT
370
18
9
$CLAYER
8
0
9
$CMLJUST
70
0
9
$CMLSCALE
40
1
9
$CMLSTYLE
2
Standard
9
$DIMSTYLE
2
Standard
9
$TEXTSIZE
40
0.2
9
$TEXTSTYLE
7
Standard
9
$LUNITS
70
2
9
$LUPREC
70
4
9
$EXTNAMES
290
1
9
$INSUNITS
70
4
9
$LTSCALE
40
1
9
$LWDISPLAY
290
1
9
$PDMODE
70
0
9
$PDSIZE
40
0
9
$PLINEGEN
70
0
0
ENDSEC
0
SECTION
2
CLASSES
0
CLASS
1
RASTERVARIABLES
2
AcDbRasterVariables
3
ISM
90
0
280
0
281
0
0
ENDSEC
0
SECTION
2
TABLES
0
TABLE
2
VPORT
5
269
100
AcDbSymbolTable
0
VPORT
5
1
100
AcDbSymbolTableRecord
100
AcDbViewportTableRecord
2
*Active
70
0
10
0
20
0
11
1
21
1
12
-1
22
1
13
0
23
0
14
0.5
24
0.5
15
10
25
10
16
0
26
0
36
1
17
0
27
0
37
0
0
ENDTAB
0
TABLE
2
LTYPE
5
26a
100
AcDbSymbolTable
0
LTYPE
5
14
100
AcDbSymbolTableRecord
100
AcDbLinetypeTableRecord
70
0
2
ByBlock
3

72
65
73
0
40
0
0
LTYPE
5
15
100
AcDbSymbolTableRecord
100
AcDbLinetypeTableRecord
70
0
2
ByLayer
3

72
65
73
0
40
0
0
LTYPE
5
16
100
AcDbSymbolTableRecord
100
AcDbLinetypeTableRecord
70
0
2
Continuous
3
Solid line
72
65
73
0
40
0
0
LTYPE
5
6E
100
AcDbSymbolTableRecord
100
AcDbLinetypeTableRecord
70
0
2
CENTER
3
____ _ ____ _ ____ _ ____
72
65
73
4
40
47.5
49
22
74
0
49
-8.5
74
0
49
8.5
74
0
49
-8.5
74
0
0
LTYPE
5
6F
100
AcDbSymbolTableRecord
100
AcDbLinetypeTableRecord
70
0
2
DASHED
3
__ __ __ __ __ __ __ __ __
72
65
73
2
40
25.72
49
12.86
74
0
49
-12.86
74
0
0
ENDTAB
0
TABLE
2
LAYER
5
26b
100
AcDbSymbolTable
0
LAYER
5
10
100
AcDbSymbolTableRecord
100
AcDbLayerTableRecord
2
0
70
0
62
7
6
Continuous
290
1
370
-3
390
0
0
LAYER
5
71
100
AcDbSymbolTableRecord
100
AcDbLayerTableRecord
2
2
70
0
62
7
6
Continuous
290
1
370
-3
390
0
0
LAYER
5
91
100
AcDbSymbolTableRecord
100
AcDbLayerTableRecord
2
81
70
0
62
-3
6
Continuous
290
1
370
-3
390
0
0
LAYER
5
93
100
AcDbSymbolTableRecord
100
AcDbLayerTableRecord
2
80
70
0
62
-6
6
Continuous
290
1
370
-3
390
0
0
LAYER
5
98
100
AcDbSymbolTableRecord
100
AcDbLayerTableRecord
2
4
70
0
62
-2
6
CENTER
290
1
370
-3
390
0
0
LAYER
5
9F
100
AcDbSymbolTableRecord
100
AcDbLayerTableRecord
2
1
70
0
62
4
6
Continuous
290
1
370
-3
390
0
0
LAYER
5
255
100
AcDbSymbolTableRecord
100
AcDbLayerTableRecord
2
SK4
70
0
62
2
6
CENTER
290
1
370
-3
390
0
0
LAYER
5
256
100
AcDbSymbolTableRecord
100
AcDbLayerTableRecord
2
SK1
70
0
62
4
6
Continuous
290
1
370
-3
390
0
0
LAYER
5
257
100
AcDbSymbolTableRecord
100
AcDbLayerTableRecord
2
SK2
70
0
62
7
6
Continuous
290
1
370
-3
390
0
0
LAYER
5
258
100
AcDbSymbolTableRecord
100
AcDbLayerTableRecord
2
SK6
70
0
62
5
6
Continuous
290
1
370
-3
390
0
0
ENDTAB
0
TABLE
2
STYLE
5
26c
100
AcDbSymbolTable
0
STYLE
5
11
100
AcDbSymbolTableRecord
100
AcDbTextStyleTableRecord
2
Standard
3
txt
70
0
71
0
40
0
41
1
42
0
50
0
0
STYLE
5
1CD
100
AcDbSymbolTableRecord
100
AcDbTextStyleTableRecord
2
iso_b_vert
3
simplex.shx
70
0
71
0
40
0
41
1
42
0
50
0
0
STYLE
5
1CE
100
AcDbSymbolTableRecord
100
AcDbTextStyleTableRecord
2
DWGDirectTextStyle
3
simplex
70
0
71
0
40
0
41
1
42
0
50
0
0
ENDTAB
0
TABLE
2
DIMSTYLE
5
26d
100
AcDbSymbolTable
100
AcDbDimStyleTable
0
DIMSTYLE
105
27
100
AcDbSymbolTableRecord
100
AcDbDimStyleTableRecord
2
Standard
70
0
3
<>
41
0.18
42
0.0625
44
0.18
140
0.18
147
0.09
73
0
74
0
77
1
271
2
275
0
278
52
280
0
340
11
0
ENDTAB
0
TABLE
2
VIEW
5
26e
100
AcDbSymbolTable
0
ENDTAB
0
TABLE
2
UCS
5
26f
100
AcDbSymbolTable
0
ENDTAB
0
TABLE
2
APPID
5
270
100
AcDbSymbolTable
0
APPID
5
12
100
AcDbSymbolTableRecord
100
AcDbRegAppTableRecord
2
ACAD
70
0
0
APPID
5
251
100
AcDbSymbolTableRecord
100
AcDbRegAppTableRecord
2
ACAD_MLEADERVER
70
0
0
ENDTAB
0
TABLE
2
BLOCK_RECORD
5
271
100
AcDbSymbolTable
0
BLOCK_RECORD
5
1F
100
AcDbSymbolTableRecord
100
AcDbBlockTableRecord
2
*Model_Space
340
0
70
0
0
BLOCK_RECORD
5
1B
100
AcDbSymbolTableRecord
100
AcDbBlockTableRecord
2
*Paper_Space
340
0
70
0
0
BLOCK_RECORD
5
23
100
AcDbSymbolTableRecord
100
AcDbBlockTableRecord
2
*Paper_Space0
340
0
70
0
0
ENDTAB
0
ENDSEC
0
SECTION
2
BLOCKS
0
BLOCK
5
20
100
AcDbEntity
8
0
100
AcDbBlockBegin
2
*Model_Space
70
0
10
0
20
0
30
0
3
*Model_Space
0
ENDBLK
5
21
100
AcDbEntity
8
0
100
AcDbBlockEnd
0
BLOCK
5
1C
100
AcDbEntity
8
0
100
AcDbBlockBegin
2
*Paper_Space
70
0
10
0
20
0
30
0
3
*Paper_Space
0
ENDBLK
5
1D
100
AcDbEntity
8
0
100
AcDbBlockEnd
0
BLOCK
5
24
100
AcDbEntity
8
0
100
AcDbBlockBegin
2
*Paper_Space0
70
0
10
0
20
0
30
0
3
*Paper_Space0
0
ENDBLK
5
25
100
AcDbEntity
8
0
100
AcDbBlockEnd
0
ENDSEC
0
SECTION
2
ENTITIES
0
ARC
5
13C
100
AcDbEntity
8
SK1
62
256
6
ByLayer
370
18
48
1
60
0
100
AcDbCircle
39
0
10
-0.6
20
38.9
30
0
40
0.999999999999997
210
0
220
0
230
1
100
AcDbArc
50
293.578178
51
306.869898
0
ARC
5
13D
100
AcDbEntity
8
SK1
62
256
6
ByLayer
370
18
48
1
60
0
100
AcDbCircle
39
0
10
-0.6
20
-38.9
30
0
40
0.999999999999997
210
0
220
0
230
1
100
AcDbArc
50
53.130102
51
66.421822
0
ARC
5
13E
100
AcDbEntity
8
1
62
256
6
ByLayer
370
18
48
1
60
0
100
AcDbCircle
39
0
10
943.8
20
-49.8
30
0
40
0.2
210
0
220
0
230
1
100
AcDbArc
50
270
51
360
0
ARC
5
13F
100
AcDbEntity
8
1
62
256
6
ByLayer
370
18
48
1
60
0
100
AcDbCircle
39
0
10
943.8
20
49.8
30
0
40
0.2
210
0
220
0
230
1
100
AcDbArc
50
360
51
90
0
ARC
5
140
100
AcDbEntity
8
1
62
256
6
ByLayer
370
18
48
1
60
0
100
AcDbCircle
39
0
10
953.5
20
-30.5
30
0
40
0.5
210
0
220
0
230
1
100
AcDbArc
50
90
51
180
0
ARC
5
141
100
AcDbEntity
8
1
62
256
6
ByLayer
370
18
48
1
60
0
100
AcDbCircle
39
0
10
944.4
20
-49.6
30
0
40
0.4
210
0
220
0
230
1
100
AcDbArc
50
180
51
270
0
ARC
5
142
100
AcDbEntity
8
1
62
256
6
ByLayer
370
18
48
1
60
0
100
AcDbCircle
39
0
10
944.4
20
49.6
30
0
40
0.4
210
0
220
0
230
1
100
AcDbArc
50
90
51
180
0
ELLIPSE
5
143
100
AcDbEntity
8
1
62
256
6
ByLayer
370
13
48
1
60
0
100
AcDbEllipse
10
948.347663
20
32.940243
30
0
11
-2.54945757591368
21
0.51016278638916
31
0
210
0
220
0
230
1
40
0.783734
41
-1.58261221881362
42
1.02621050383951
0
ELLIPSE
5
144
100
AcDbEntity
8
1
62
256
6
ByLayer
370
13
48
1
60
0
100
AcDbEllipse
10
948.347663
20
32.940243
30
0
11
-2.54945757591368
21
0.51016278638916
31
0
210
0
220
0
230
1
40
0.783734
41
3.02544171095878
42
3.12977676157117
0
ELLIPSE
5
145
100
AcDbEntity
8
1
62
256
6
ByLayer
370
13
48
1
60
0
100
AcDbEllipse
10
947.311774
20
-10.832701
30
0
11
2.85254805373878
21
0.928961571385549
31
0
210
0
220
0
230
1
40
0.919296
41
-2.43353350974996
42
-0.740607768546757
0
ELLIPSE
5
146
100
AcDbEntity
8
1
62
256
6
ByLayer
370
13
48
1
60
0
100
AcDbEllipse
10
948.408598
20
33.244755
30
0
11
-2.94168181836194
21
0.588649368910572
31
0
210
0
220
0
230
1
40
0.783734
41
-1.58261221881353
42
0.210746312534153
0
ELLIPSE
5
147
100
AcDbEntity
8
1
62
256
6
ByLayer
370
13
48
1
60
0
100
AcDbEllipse
10
947.250839
20
-10.64559
30
0
11
2.47220831324027
21
0.805100028534142
31
0
210
0
220
0
230
1
40
0.919296
41
-2.38029824048723
42
-0.793695775653896
0
ELLIPSE
5
148
100
AcDbEntity
8
1
62
256
6
ByLayer
370
18
48
1
60
0
100
AcDbEllipse
10
-7.094011
20
0
30
0
11
23.4185446994553
21
49.354372881876
31
0
210
0
220
0
230
1
40
0.341999
41
-1.09444724969933
42
-0.154598522698909
0
ELLIPSE
5
149
100
AcDbEntity
8
1
62
256
6
ByLayer
370
18
48
1
60
0
100
AcDbEllipse
10
39.094011
20
0
30
0
11
23.4185446994528
21
-49.3543728818726
31
0
210
0
220
0
230
1
40
0.341999
41
-2.98699413089088
42
-2.04714540389041
0
ELLIPSE
5
14A
100
AcDbEntity
8
1
62
256
6
ByLayer
370
18
48
1
60
0
100
AcDbEllipse
10
39.094011
20
0
30
0
11
23.4185446994518
21
49.3543728818713
31
0
210
0
220
0
230
1
40
0.341999
41
2.04714540389039
42
2.98699413089088
0
ELLIPSE
5
14B
100
AcDbEntity
8
1
62
256
6
ByLayer
370
18
48
1
60
0
100
AcDbEllipse
10
-7.094011
20
0
30
0
11
23.418544699454
21
-49.3543728818744
31
0
210
0
220
0
230
1
40
0.341999
41
0.154598522698912
42
1.09444724969936
0
ELLIPSE
5
14C
100
AcDbEntity
8
1
62
256
6
ByLayer
370
18
48
1
60
0
100
AcDbEllipse
10
969.381175
20
-14.782739
30
0
11
1.53900039462538
21
1.709233098598
31
0
210
0
220
0
230
1
40
0.258819
41
-2.8703352233831
42
-0.271354208577139
0
ELLIPSE
5
14D
100
AcDbEntity
8
1
62
256
6
ByLayer
370
18
48
1
60
0
100
AcDbEllipse
10
969.23761
20
-14.653473
30
0
11
-1.67282651589715
21
-1.85786206369348
31
0
210
0
220
0
230
1
40
0.258819
41
0
42
-3.14159198189577
0
ELLIPSE
5
14E
100
AcDbEntity
8
1
62
256
6
ByLayer
370
18
48
1
60
0
100
AcDbEllipse
10
974.884955
20
10
30
0
11
38.0494835302702
21
39.322369680609
31
0
210
0
220
0
230
1
40
0.192684
41
-2.09405060562553
42
-1.93293084433424
0
ELLIPSE
5
14F
100
AcDbEntity
8
1
62
256
6
ByLayer
370
18
48
1
60
0
100
AcDbEllipse
10
974.884955
20
10
30
0
11
38.0494836410119
21
-39.3223698301501
31
0
210
0
220
0
230
1
40
0.192684
41
1.93293084578459
42
2.09405060661843
0
ELLIPSE
5
150
100
AcDbEntity
8
1
62
256
6
ByLayer
370
18
48
1
60
0
100
AcDbEllipse
10
441.621575
20
-500.407003
30
0
11
549.210188143839
21
528.064812588566
31
0
210
0
220
0
230
1
40
0.048597
41
-0.336580701529477
42
-0.330148394597355
0
ELLIPSE
5
151
100
AcDbEntity
8
1
62
256
6
ByLayer
370
18
48
1
60
0
100
AcDbEllipse
10
441.404706
20
520.608613
30
0
11
549.427216948916
21
-528.266941011314
31
0
210
0
220
0
230
1
40
0.048589
41
0.33008519214974
42
0.336516176969771
0
ELLIPSE
5
152
100
AcDbEntity
8
1
62
256
6
ByLayer
370
18
48
1
60
0
100
AcDbEllipse
10
948.408598
20
33.244755
30
0
11
-2.45140151530161
21
0.490541140758809
31
0
210
0
220
0
230
1
40
0.783734
41
-2.97763668157406
42
0
0
ELLIPSE
5
153
100
AcDbEntity
8
1
62
256
6
ByLayer
370
18
48
1
60
0
100
AcDbEllipse
10
948.408598
20
33.244755
30
0
11
-2.45140151530161
21
0.490541140758809
31
0
210
0
220
0
230
1
40
0.783734
41
0
42
1.22964307288572
0
ELLIPSE
5
154
100
AcDbEntity
8
1
62
256
6
ByLayer
370
18
48
1
60
0
100
AcDbEllipse
10
948.408598
20
33.244755
30
0
11
-2.45140151530161
21
0.490541140758809
31
0
210
0
220
0
230
1
40
0.783734
41
2.64551979927459
42
-2.97763668157406
0
ELLIPSE
5
155
100
AcDbEntity
8
1
62
256
6
ByLayer
370
18
48
1
60
0
100
AcDbEllipse
10
948.408598
20
33.244755
30
0
11
-2.45140151530161
21
0.490541140758809
31
0
210
0
220
0
230
1
40
0.783734
41
-1.41523321204195
42
0
0
ELLIPSE
5
156
100
AcDbEntity
8
1
62
256
6
ByLayer
370
18
48
1
60
0
100
AcDbEllipse
10
948.408598
20
33.244755
30
0
11
-2.45140151530161
21
0.490541140758809
31
0
210
0
220
0
230
1
40
0.783734
41
0
42
1.22576630849048
0
ELLIPSE
5
157
100
AcDbEntity
8
1
62
256
6
ByLayer
370
18
48
1
60
0
100
AcDbEllipse
10
948.408598
20
33.244755
30
0
11
-2.45140151530161
21
0.490541140758809
31
0
210
0
220
0
230
1
40
0.783734
41
2.62986164423463
42
-1.41523321204195
0
ELLIPSE
5
158
100
AcDbEntity
8
1
62
256
6
ByLayer
370
18
48
1
60
0
100
AcDbEllipse
10
948.408598
20
33.244755
30
0
11
-2.99070984866797
21
0.598460191725747
31
0
210
0
220
0
230
1
40
0.783734
41
-1.41523319886605
42
0
0
ELLIPSE
5
159
100
AcDbEntity
8
1
62
256
6
ByLayer
370
18
48
1
60
0
100
AcDbEllipse
10
948.408598
20
33.244755
30
0
11
-2.99070984866797
21
0.598460191725747
31
0
210
0
220
0
230
1
40
0.783734
41
-2.99270548193113
42
-1.41523319886609
0
ELLIPSE
5
15A
100
AcDbEntity
8
1
62
256
6
ByLayer
370
18
48
1
60
0
100
AcDbEllipse
10
953.676371
20
10
30
0
11
2.44921270764594E-15
21
40.0000000000193
31
0
210
0
220
0
230
1
40
0.013091
41
-2.7182201118619
42
-0.423372541727942
0
ELLIPSE
5
15B
100
AcDbEntity
8
1
62
256
6
ByLayer
370
18
48
1
60
0
100
AcDbEllipse
10
970.325199
20
9.999553
30
0
11
16.2612160110516
21
-36.5460257469453
31
0
210
0
220
0
230
1
40
0.999994
41
3.13446827457689
42
-3.13686796887878
0
ELLIPSE
5
15C
100
AcDbEntity
8
1
62
256
6
ByLayer
370
18
48
1
60
0
100
AcDbEllipse
10
970.325222
20
10.000499
30
0
11
16.2623024477838
21
36.5456042524137
31
0
210
0
220
0
230
1
40
0.999993
41
3.13689707061802
42
-3.13443918121901
0
ELLIPSE
5
15D
100
AcDbEntity
8
1
62
256
6
ByLayer
370
18
48
1
60
0
100
AcDbEllipse
10
947.311774
20
-10.832701
30
0
11
2.37712337811565
21
0.77413464282129
31
0
210
0
220
0
230
1
40
0.919296
41
-2.43502313576661
42
-0.733654225924195
0
ELLIPSE
5
15E
100
AcDbEntity
8
1
62
256
6
ByLayer
370
13
48
1
60
0
100
AcDbEllipse
10
953.5
20
47.9875
30
0
11
-0.5
21
1.83758715709137E-15
31
0
210
0
220
0
230
1
40
0.937963
41
0.525006744938458
42
1.5707963267949
0
ELLIPSE
5
15F
100
AcDbEntity
8
1
62
256
6
ByLayer
370
18
48
1
60
0
100
AcDbEllipse
10
947.311774
20
-10.832701
30
0
11
2.90009052130109
21
0.944444264241974
31
0
210
0
220
0
230
1
40
0.919296
41
-2.4251077699919
42
-0.754565890579378
0
ELLIPSE
5
160
100
AcDbEntity
8
1
62
256
6
ByLayer
370
18
48
1
60
0
100
AcDbEllipse
10
947.311774
20
-10.832701
30
0
11
2.37712337811565
21
0.77413464282129
31
0
210
0
220
0
230
1
40
0.919296
41
-2.43458254014474
42
-0.733017603346195
0
ELLIPSE
5
161
100
AcDbEntity
8
1
62
256
6
ByLayer
370
18
48
1
60
0
100
AcDbEllipse
10
969.297437
20
34.877983
30
0
11
-1.53900039462537
21
1.70923309859801
31
0
210
0
220
0
230
1
40
0.258819
41
-2.8703352233831
42
-0.271354208577136
0
ELLIPSE
5
162
100
AcDbEntity
8
1
62
256
6
ByLayer
370
18
48
1
60
0
100
AcDbEllipse
10
969.153872
20
34.748717
30
0
11
1.67282651589714
21
-1.85786206369349
31
0
210
0
220
0
230
1
40
0.258819
41
0
42
-3.14159198189577
0
POINT
5
70
100
AcDbEntity
8
2
62
256
6
ByLayer
370
18
48
1
60
0
100
AcDbPoint
10
944
20
0
30
0
39
0
210
0
220
0
230
1
50
360
0
POINT
5
72
100
AcDbEntity
8
2
62
256
6
ByLayer
370
18
48
1
60
0
100
AcDbPoint
10
953.175
20
26
30
0
39
0
210
0
220
0
230
1
50
360
0
POINT
5
73
100
AcDbEntity
8
2
62
256
6
ByLayer
370
18
48
1
60
0
100
AcDbPoint
10
885
20
0
30
0
39
0
210
0
220
0
230
1
50
360
0
POINT
5
74
100
AcDbEntity
8
2
62
256
6
ByLayer
370
18
48
1
60
0
100
AcDbPoint
10
615
20
0
30
0
39
0
210
0
220
0
230
1
50
360
0
POINT
5
75
100
AcDbEntity
8
2
62
256
6
ByLayer
370
18
48
1
60
0
100
AcDbPoint
10
962.980596
20
29.190275
30
0
39
0
210
0
220
0
230
1
50
360
0
POINT
5
76
100
AcDbEntity
8
2
62
256
6
ByLayer
370
70
48
1
60
0
100
AcDbPoint
10
953.9905
20
10
30
0
39
0
210
0
220
0
230
1
50
360
0
POINT
5
77
100
AcDbEntity
8
2
62
256
6
ByLayer
370
70
48
1
60
0
100
AcDbPoint
10
965.074238
20
-10.904756
30
0
39
0
210
0
220
0
230
1
50
360
0
POINT
5
78
100
AcDbEntity
8
2
62
256
6
ByLayer
370
18
48
1
60
0
100
AcDbPoint
10
961.6905
20
10
30
0
39
0
210
0
220
0
230
1
50
360
0
POINT
5
79
100
AcDbEntity
8
2
62
256
6
ByLayer
370
70
48
1
60
0
100
AcDbPoint
10
964.9905
20
31
30
0
39
0
210
0
220
0
230
1
50
360
0
POINT
5
7A
100
AcDbEntity
8
2
62
256
6
ByLayer
370
18
48
1
60
0
100
AcDbPoint
10
963.064334
20
-9.09503
30
0
39
0
210
0
220
0
230
1
50
360
0
POINT
5
7B
100
AcDbEntity
8
2
62
256
6
ByLayer
370
70
48
1
60
0
100
AcDbPoint
10
962.9905
20
10
30
0
39
0
210
0
220
0
230
1
50
360
0
POINT
5
7C
100
AcDbEntity
8
2
62
256
6
ByLayer
370
18
48
1
60
0
100
AcDbPoint
10
953.175
20
-6
30
0
39
0
210
0
220
0
230
1
50
360
0
POINT
5
7D
100
AcDbEntity
8
2
62
256
6
ByLayer
370
18
48
1
60
0
100
AcDbPoint
10
962.825
20
10
30
0
39
0
210
0
220
0
230
1
50
360
0
POINT
5
7E
100
AcDbEntity
8
2
62
256
6
ByLayer
370
18
48
1
60
0
100
AcDbPoint
10
954.325
20
10
30
0
39
0
210
0
220
0
230
1
50
360
0
POINT
5
7F
100
AcDbEntity
8
2
62
256
6
ByLayer
370
18
48
1
60
0
100
AcDbPoint
10
954.325
20
10
30
0
39
0
210
0
220
0
230
1
50
360
0
POINT
5
80
100
AcDbEntity
8
2
62
256
6
ByLayer
370
18
48
1
60
0
100
AcDbPoint
10
919
20
0
30
0
39
0
210
0
220
0
230
1
50
360
0
POINT
5
81
100
AcDbEntity
8
2
62
256
6
ByLayer
370
18
48
1
60
0
100
AcDbPoint
10
948.825
20
21
30
0
39
0
210
0
220
0
230
1
50
360
0
POINT
5
82
100
AcDbEntity
8
2
62
256
6
ByLayer
370
18
48
1
60
0
100
AcDbPoint
10
953.175
20
26
30
0
39
0
210
0
220
0
230
1
50
360
0
POINT
5
83
100
AcDbEntity
8
2
62
256
6
ByLayer
370
18
48
1
60
0
100
AcDbPoint
10
948.5
20
31.5
30
0
39
0
210
0
220
0
230
1
50
360
0
POINT
5
84
100
AcDbEntity
8
2
62
256
6
ByLayer
370
18
48
1
60
0
100
AcDbPoint
10
950.325
20
10
30
0
39
0
210
0
220
0
230
1
50
360
0
POINT
5
85
100
AcDbEntity
8
2
62
256
6
ByLayer
370
18
48
1
60
0
100
AcDbPoint
10
944
20
0
30
0
39
0
210
0
220
0
230
1
50
360
0
POINT
5
86
100
AcDbEntity
8
2
62
256
6
ByLayer
370
18
48
1
60
0
100
AcDbPoint
10
948.5
20
-14.75
30
0
39
0
210
0
220
0
230
1
50
360
0
POINT
5
87
100
AcDbEntity
8
2
62
256
6
ByLayer
370
18
48
1
60
0
100
AcDbPoint
10
944
20
0
30
0
39
0
210
0
220
0
230
1
50
360
0
POINT
5
88
100
AcDbEntity
8
2
62
256
6
ByLayer
370
18
48
1
60
0
100
AcDbPoint
10
948.825
20
-1
30
0
39
0
210
0
220
0
230
1
50
360
0
POINT
5
89
100
AcDbEntity
8
2
62
256
6
ByLayer
370
18
48
1
60
0
100
AcDbPoint
10
953.175
20
-6
30
0
39
0
210
0
220
0
230
1
50
360
0
POINT
5
8A
100
AcDbEntity
8
2
62
256
6
ByLayer
370
50
48
1
60
0
100
AcDbPoint
10
924
20
0
30
0
39
0
210
0
220
0
230
1
50
360
0
POINT
5
8B
100
AcDbEntity
8
2
62
256
6
ByLayer
370
18
48
1
60
0
100
AcDbPoint
10
952.825
20
10
30
0
39
0
210
0
220
0
230
1
50
360
0
POINT
5
8C
100
AcDbEntity
8
2
62
256
6
ByLayer
370
18
48
1
60
0
100
AcDbPoint
10
919
20
0
30
0
39
0
210
0
220
0
230
1
50
360
0
POINT
5
8D
100
AcDbEntity
8
2
62
256
6
ByLayer
370
18
48
1
60
0
100
AcDbPoint
10
923.5
20
0
30
0
39
0
210
0
220
0
230
1
50
360
0
POINT
5
8E
100
AcDbEntity
8
2
62
256
6
ByLayer
370
18
48
1
60
0
100
AcDbPoint
10
938
20
0
30
0
39
0
210
0
220
0
230
1
50
360
0
POINT
5
8F
100
AcDbEntity
8
2
62
256
6
ByLayer
370
18
48
1
60
0
100
AcDbPoint
10
953.9905
20
10
30
0
39
0
210
0
220
0
230
1
50
360
0
POINT
5
90
100
AcDbEntity
8
81
62
256
6
ByLayer
370
18
48
1
60
0
100
AcDbPoint
10
955
20
10
30
0
39
0
210
0
220
0
230
1
50
360
0
POINT
5
92
100
AcDbEntity
8
80
62
256
6
ByLayer
370
18
48
1
60
0
100
AcDbPoint
10
0
20
0
30
0
39
0
210
0
220
0
230
1
50
360
0
SPLINE
5
163
100
AcDbEntity
8
SK1
62
256
6
ByLayer
370
18
48
1
60
0
100
AcDbSpline
70
4
71
3
72
55
73
51
40
0
40
0
40
0
40
0
40
0.0021426980493596
40
0.0298014061085151
40
0.0574601141676708
40
0.0851188222268263
40
0.112777530285982
40
0.140436238345137
40
0.168094946404293
40
0.195753654463449
40
0.223412362522604
40
0.25107107058176
40
0.278729778640916
40
0.306388486700071
40
0.334047194759227
40
0.361705902818382
40
0.389364610877538
40
0.403193964907116
40
0.417023318936693
40
0.430852672966271
40
0.444682026995849
40
0.458511381025427
40
0.472340735055005
40
0.486170089084582
40
0.493084766099371
40
0.49999944311416
40
0.506914120128949
40
0.513828797143738
40
0.527658151173316
40
0.541487505202894
40
0.555316859232471
40
0.569146213262049
40
0.582975567291627
40
0.596804921321205
40
0.610634275350783
40
0.638292983409938
40
0.665951691469094
40
0.693610399528249
40
0.721269107587405
40
0.748927815646561
40
0.776586523705716
40
0.804245231764872
40
0.831903939824027
40
0.859562647883183
40
0.887221355942338
40
0.914880064001494
40
0.94253877206065
40
0.970197480119805
40
0.997856188178961
40
1
40
1
40
1
40
1
41
1
10
-60.0000000000001
20
-33.4636353472019
30
0
41
1
10
-60.0000000000001
20
-33.4633418379616
30
0
41
1
10
-60.0000000000001
20
-33.4548082731146
30
0
41
1
10
-60.0000000000001
20
-33.3205056815015
30
0
41
1
10
-60.0000000000001
20
-32.8505413890955
30
0
41
1
10
-60.0000000000001
20
-32.1329294130155
30
0
41
1
10
-60.0000000000001
20
-31.1885173778895
30
0
41
1
10
-60.0000000000001
20
-30.033383709577
30
0
41
1
10
-60.0000000000001
20
-28.6802027696426
30
0
41
1
10
-60.0000000000001
20
-27.1391563014212
30
0
41
1
10
-60.0000000000001
20
-25.4186126805196
30
0
41
1
10
-60.0000000000001
20
-23.5255321087807
30
0
41
1
10
-60.0000000000001
20
-21.4658195107746
30
0
41
1
10
-60.0000000000001
20
-19.2446308945637
30
0
41
1
10
-60.0000000000001
20
-16.8668253225732
30
0
41
1
10
-60.0000000000001
20
-14.3374601373515
30
0
41
1
10
-60
20
-12.1145030090861
30
0
41
1
10
-60
20
-10.2537713764772
30
0
41
1
10
-60
20
-8.83314461375005
30
0
41
1
10
-60
20
-7.38364733925624
30
0
41
1
10
-60
20
-5.91000562514989
30
0
41
1
10
-60
20
-4.4200428506075
30
0
41
1
10
-60
20
-2.92703470265559
30
0
41
1
10
-60
20
-1.70333091645796
30
0
41
1
10
-60
20
-0.720500335383463
30
0
41
1
10
-60
20
-1.53638666E-08
30
0
41
1
10
-60
20
0.720500611729165
30
0
41
1
10
-60
20
1.70333122668194
30
0
41
1
10
-60
20
2.92703464210848
30
0
41
1
10
-60
20
4.42004263163022
30
0
41
1
10
-60
20
5.9100059937137
30
0
41
1
10
-60
20
7.38364757350564
30
0
41
1
10
-60
20
8.83314440595325
30
0
41
1
10
-60
20
10.2537717697711
30
0
41
1
10
-59.9999999999999
20
12.1145025622944
30
0
41
1
10
-59.9999999999999
20
14.3374601761271
30
0
41
1
10
-59.9999999999999
20
16.8668255987006
30
0
41
1
10
-59.9999999999999
20
19.244630869401
30
0
41
1
10
-59.9999999999999
20
21.4658194114311
30
0
41
1
10
-59.9999999999999
20
23.5255322928728
30
0
41
1
10
-59.9999999999999
20
25.4186124925266
30
0
41
1
10
-59.9999999999999
20
27.1391563797825
30
0
41
1
10
-59.9999999999999
20
28.6802025797168
30
0
41
1
10
-59.9999999999999
20
30.0333837103401
30
0
41
1
10
-59.9999999999999
20
31.1885173679486
30
0
41
1
10
-59.9999999999999
20
32.1329288173201
30
0
41
1
10
-59.9999999999999
20
32.8505413389775
30
0
41
1
10
-59.9999999999999
20
33.3205059792771
30
0
41
1
10
-59.9999999999999
20
33.4548110525457
30
0
41
1
10
-59.9999999999999
20
33.4633423457965
30
0
41
1
10
-59.9999999999999
20
33.4636356524895
30
0
0
SPLINE
5
164
100
AcDbEntity
8
SK1
62
256
6
ByLayer
370
18
48
1
60
0
100
AcDbSpline
70
4
71
3
72
35
73
31
40
0
40
0
40
0
40
0
40
0.249999999999997
40
0.249999999999997
40
0.374999999999998
40
0.374999999999998
40
0.499999999999999
40
0.499999999999999
40
0.624999999999999
40
0.624999999999999
40
0.687500000000001
40
0.687500000000001
40
0.750000000000002
40
0.750000000000002
40
0.812500000000004
40
0.812500000000004
40
0.843750000000004
40
0.843750000000004
40
0.875000000000005
40
0.875000000000005
40
0.906250000000006
40
0.906250000000006
40
0.921875000000006
40
0.921875000000006
40
0.937500000000007
40
0.937500000000007
40
0.953125000000007
40
0.953125000000007
40
0.968750000000008
40
1
40
1
40
1
40
1
41
1
10
-0.200000000000017
20
-6.81513478724611
30
0
41
1
10
-0.200338559745831
20
-6.75019455649687
30
0
41
1
10
-0.202015290054646
20
-6.68521895117203
30
0
41
1
10
-0.207341087389409
20
-6.58770581547981
30
0
41
1
10
-0.209590420526951
20
-6.55519323641431
30
0
41
1
10
-0.215316946322531
20
-6.4901547060374
30
0
41
1
10
-0.218787497090688
20
-6.45762862829321
30
0
41
1
10
-0.227462754000754
20
-6.39257019354176
30
0
41
1
10
-0.23263600663239
20
-6.36013139183518
30
0
41
1
10
-0.242440199067005
20
-6.31178890673766
30
0
41
1
10
-0.246061015445633
20
-6.29569872196828
30
0
41
1
10
-0.254247154374525
20
-6.26378985464163
30
0
41
1
10
-0.258796103956485
20
-6.24800183842427
30
0
41
1
10
-0.26928915316779
20
-6.21693652516302
30
0
41
1
10
-0.275203088231365
20
-6.20164812034517
30
0
41
1
10
-0.285975269686759
20
-6.17941326237553
30
0
41
1
10
-0.289887109237753
20
-6.1721194929425
30
0
41
1
10
-0.298743534933749
20
-6.15791144208123
30
0
41
1
10
-0.303619948323529
20
-6.15109580779926
30
0
41
1
10
-0.314768934999933
20
-6.13864094702626
30
0
41
1
10
-0.32096631649344
20
-6.13307709934361
30
0
41
1
10
-0.331608689070237
20
-6.12677507307677
30
0
41
1
10
-0.335424941304297
20
-6.12501830371843
30
0
41
1
10
-0.343229294830081
20
-6.12257787152618
30
0
41
1
10
-0.347325836481844
20
-6.12186429918972
30
0
41
1
10
-0.355452660466
20
-6.12159300997945
30
0
41
1
10
-0.359469499195768
20
-6.12201356674984
30
0
41
1
10
-0.367420535136233
20
-6.12384711124531
30
0
41
1
10
-0.378768531813392
20
-6.12796735398592
30
0
41
1
10
-0.388797444116932
20
-6.13511490508347
30
0
41
1
10
-0.39491379981132
20
-6.1404895479867
30
0
0
SPLINE
5
165
100
AcDbEntity
8
SK1
62
256
6
ByLayer
370
18
48
1
60
0
100
AcDbSpline
70
4
71
3
72
38
73
34
40
0
40
0
40
0
40
0
40
0.0156250000000012
40
0.0156250000000012
40
0.0312500000000023
40
0.0312500000000023
40
0.0468750000000035
40
0.0468750000000035
40
0.0625000000000046
40
0.0625000000000046
40
0.0781250000000058
40
0.0781250000000058
40
0.093750000000007
40
0.093750000000007
40
0.125000000000007
40
0.125000000000007
40
0.156250000000007
40
0.156250000000007
40
0.187500000000006
40
0.187500000000006
40
0.250000000000006
40
0.250000000000006
40
0.312500000000005
40
0.312500000000005
40
0.375000000000005
40
0.375000000000005
40
0.500000000000004
40
0.500000000000004
40
0.625000000000003
40
0.625000000000003
40
0.750000000000002
40
0.750000000000002
40
1
40
1
40
1
40
1
41
1
10
-0.394913799811263
20
6.14048931519881
30
0
41
1
10
-0.391859175197254
20
6.13780511628147
30
0
41
1
10
-0.388686559823725
20
6.13529574333785
30
0
41
1
10
-0.382033424453482
20
6.13073337924817
30
0
41
1
10
-0.37852947079017
20
6.12866765624966
30
0
41
1
10
-0.37121101952664
20
6.12522181033523
30
0
41
1
10
-0.367433379654869
20
6.12385483366967
30
0
41
1
10
-0.359574524938068
20
6.12203263759289
30
0
41
1
10
-0.35547204290279
20
6.12159560817219
30
0
41
1
10
-0.34738263983391
20
6.12185872817406
30
0
41
1
10
-0.343285185316574
20
6.12256411001283
30
0
41
1
10
-0.335452839534213
20
6.1250054440053
30
0
41
1
10
-0.331693726093022
20
6.1267288459369
30
0
41
1
10
-0.320936929416774
20
6.13308563425852
30
0
41
1
10
-0.314749234501505
20
6.13865828268484
30
0
41
1
10
-0.303586892285011
20
6.15113696370872
30
0
41
1
10
-0.298759657726578
20
6.15789253941819
30
0
41
1
10
-0.289962437596159
20
6.17199129036317
30
0
41
1
10
-0.285990787434173
20
6.17937676918206
30
0
41
1
10
-0.275088323518133
20
6.20189327718197
30
0
41
1
10
-0.269151523758893
20
6.21729962361047
30
0
41
1
10
-0.258638343325884
20
6.24851404682823
30
0
41
1
10
-0.254096489237071
20
6.2643324397734
30
0
41
1
10
-0.245933915331676
20
6.29623991319608
30
0
41
1
10
-0.242319543002253
20
6.31233859574394
30
0
41
1
10
-0.232501591303219
20
6.36088659443806
30
0
41
1
10
-0.227355749960736
20
6.39329057484417
30
0
41
1
10
-0.218731591997454
20
6.45813108693864
30
0
41
1
10
-0.21527619678875
20
6.49056858627654
30
0
41
1
10
-0.209571318882297
20
6.555459254276
30
0
41
1
10
-0.207328217206253
20
6.58791268903786
30
0
41
1
10
-0.202014906793778
20
6.68528329279224
30
0
41
1
10
-0.200338479334306
20
6.75020990600598
30
0
41
1
10
-0.199999999999989
20
6.81513476249575
30
0
0
SPLINE
5
166
100
AcDbEntity
8
SK1
62
256
6
ByLayer
370
13
48
1
60
0
100
AcDbSpline
70
4
71
3
72
27
73
23
40
0
40
0
40
0
40
0
40
0.0125014890832862
40
0.0431281922471557
40
0.0737548954110251
40
0.104381598574895
40
0.135008301738764
40
0.196261708066503
40
0.257515114394242
40
0.318768520721981
40
0.38002192704972
40
0.441275333377459
40
0.502528739705197
40
0.563782146032936
40
0.625035552360675
40
0.686288958688414
40
0.747542365016153
40
0.808795771343892
40
0.870049177671631
40
0.93130258399937
40
0.992555990327109
40
1
40
1
40
1
40
1
41
1
10
-0.39491379981132
20
-6.14048954798812
30
0
41
1
10
-0.39491379981132
20
-6.36440300196199
30
0
41
1
10
-0.39491379981132
20
-7.13289945093021
30
0
41
1
10
-0.39491379981132
20
-8.42331075216447
30
0
41
1
10
-0.39491379981132
20
-9.98816040557102
30
0
41
1
10
-0.394913799811349
20
-11.5102859417502
30
0
41
1
10
-0.394913799811349
20
-13.4834575653737
30
0
41
1
10
-0.394913799811349
20
-15.8428434722906
30
0
41
1
10
-0.394913799811349
20
-18.5056011360314
30
0
41
1
10
-0.394913799811377
20
-20.9993892841997
30
0
41
1
10
-0.394913799811377
20
-23.3230322455299
30
0
41
1
10
-0.394913799811377
20
-25.4742063724191
30
0
41
1
10
-0.394913799811405
20
-27.449451757043
30
0
41
1
10
-0.394913799811405
20
-29.2440107058567
30
0
41
1
10
-0.394913799811405
20
-30.8516499008688
30
0
41
1
10
-0.394913799811405
20
-32.2643689271589
30
0
41
1
10
-0.394913799811405
20
-33.4720135663698
30
0
41
1
10
-0.394913799811434
20
-34.4615411736756
30
0
41
1
10
-0.394913799811434
20
-35.2159258037197
30
0
41
1
10
-0.394913799811434
20
-35.7124173230212
30
0
41
1
10
-0.394913799811434
20
-35.8588061300948
30
0
41
1
10
-0.394913799811434
20
-35.8655011584241
30
0
41
1
10
-0.394913799811434
20
-35.8653758447551
30
0
0
SPLINE
5
167
100
AcDbEntity
8
SK1
62
256
6
ByLayer
370
18
48
1
60
0
100
AcDbSpline
70
4
71
3
72
44
73
40
40
0
40
0
40
0
40
0
40
0.0312499999999969
40
0.0312499999999969
40
0.0468749999999956
40
0.0468749999999956
40
0.0624999999999944
40
0.0781249999999932
40
0.0781249999999932
40
0.0859374999999929
40
0.0859374999999929
40
0.0937499999999926
40
0.109374999999992
40
0.109374999999992
40
0.124999999999992
40
0.124999999999992
40
0.156249999999991
40
0.156249999999991
40
0.18749999999999
40
0.18749999999999
40
0.218749999999989
40
0.218749999999989
40
0.249999999999988
40
0.249999999999988
40
0.312499999999988
40
0.312499999999988
40
0.374999999999987
40
0.374999999999987
40
0.437499999999987
40
0.437499999999987
40
0.499999999999987
40
0.499999999999987
40
0.62499999999999
40
0.62499999999999
40
0.749999999999993
40
0.749999999999993
40
0.874999999999997
40
0.874999999999997
40
1
40
1
40
1
40
1
41
1
10
-0.39491379981132
20
-6.14048954798812
30
0
41
1
10
-0.411320296904194
20
-6.15490647656026
30
0
41
1
10
-0.428692575635296
20
-6.16812049444115
30
0
41
1
10
-0.456847871703985
20
-6.18533833468359
30
0
41
1
10
-0.466645793041778
20
-6.190662165194
30
0
41
1
10
-0.486679220255837
20
-6.20001925474503
30
0
41
1
10
-0.507195340378559
20
-6.20812819851409
30
0
41
1
10
-0.528819088976064
20
-6.21337534589202
30
0
41
1
10
-0.545522979159642
20
-6.21605544304009
30
0
41
1
10
-0.551173881687731
20
-6.21673571501583
30
0
41
1
10
-0.562387828318549
20
-6.21763160756586
30
0
41
1
10
-0.579171588290023
20
-6.21829610951232
30
0
41
1
10
-0.595845611378707
20
-6.21695442895037
30
0
41
1
10
-0.617982640268394
20
-6.21342877796661
30
0
41
1
10
-0.629092493063609
20
-6.21075953330535
30
0
41
1
10
-0.661178894788975
20
-6.20061034113303
30
0
41
1
10
-0.681215510343293
20
-6.19103427162474
30
0
41
1
10
-0.719340518859042
20
-6.16783435052412
30
0
41
1
10
-0.736840009746544
20
-6.15457756836202
30
0
41
1
10
-0.769702703210783
20
-6.12594888888395
30
0
41
1
10
-0.785070378501985
20
-6.11054891190958
30
0
41
1
10
-0.814264246961585
20
-6.07816953792792
30
0
41
1
10
-0.827902203448076
20
-6.06139145953347
30
0
41
1
10
-0.866591379680074
20
-6.00998831052675
30
0
41
1
10
-0.889552422423549
20
-5.97421011732268
30
0
41
1
10
-0.93205245088015
20
-5.90079746755288
30
0
41
1
10
-0.951550604545673
20
-5.8631417358763
30
0
41
1
10
-0.988106509998431
20
-5.78648090037512
30
0
41
1
10
-1.00516682254644
20
-5.7474209945816
30
0
41
1
10
-1.03715984705502
20
-5.66894819794635
30
0
41
1
10
-1.0521344144392
20
-5.62944051499005
30
0
41
1
10
-1.09469182958466
20
-5.51026258495523
30
0
41
1
10
-1.11994311520161
20
-5.42994544157921
30
0
41
1
10
-1.1662622239964
20
-5.2680431737038
30
0
41
1
10
-1.18730158957433
20
-5.18645153904424
30
0
41
1
10
-1.22623577285506
20
-5.02222827252785
30
0
41
1
10
-1.24411971327538
20
-4.93959396507074
30
0
41
1
10
-1.27738506598777
20
-4.77341902800811
30
0
41
1
10
-1.2927621929098
20
-4.68987741371876
30
0
41
1
10
-1.30710678118655
20
-4.60592606074874
30
0
0
SPLINE
5
168
100
AcDbEntity
8
SK1
62
256
6
ByLayer
370
18
48
1
60
0
100
AcDbSpline
70
4
71
3
72
29
73
25
40
0
40
0
40
0
40
0
40
0.125
40
0.125
40
0.25
40
0.25
40
0.3125
40
0.3125
40
0.34375
40
0.34375
40
0.375
40
0.375
40
0.5
40
0.5
40
0.625
40
0.625
40
0.75
40
0.75
40
0.78125
40
0.78125
40
0.8125
40
0.875
40
0.875
40
1
40
1
40
1
40
1
41
1
10
-1.30710678118655
20
-4.60592606074869
30
0
41
1
10
-1.37081125400846
20
-4.23309718755536
30
0
41
1
10
-1.42988244415665
20
-3.85762223498023
30
0
41
1
10
-1.53601697125637
20
-3.10046674502002
30
0
41
1
10
-1.58309608481946
20
-2.71879180004015
30
0
41
1
10
-1.6418538836833
20
-2.14065366130035
30
0
41
1
10
-1.65945940647146
20
-1.94700181642941
30
0
41
1
10
-1.68249845293482
20
-1.65497671689536
30
0
41
1
10
-1.68961870290613
20
-1.55733947190663
30
0
41
1
10
-1.70266427629372
20
-1.36168548678421
30
0
41
1
10
-1.70857393117737
20
-1.2639093425509
30
0
41
1
10
-1.73495061568829
20
-0.775288794588619
30
0
41
1
10
-1.7457641954185
20
-0.385233065375189
30
0
41
1
10
-1.74561737258446
20
0.393133285396345
30
0
41
1
10
-1.73466515643025
20
0.781444423561027
30
0
41
1
10
-1.69273604411049
20
1.55642983746571
30
0
41
1
10
-1.66186877360201
20
1.94311068769235
30
0
41
1
10
-1.61291274879554
20
2.42556605138475
30
0
41
1
10
-1.60259660498775
20
2.52208429114984
30
0
41
1
10
-1.58103161178599
20
2.714623369474
30
0
41
1
10
-1.54729100893732
20
3.0026557867829
30
0
41
1
10
-1.50965797271613
20
3.28847396604806
30
0
41
1
10
-1.42991858386861
20
3.85743979515036
30
0
41
1
10
-1.37079534340222
20
4.23319113014099
30
0
41
1
10
-1.30710678118652
20
4.60592664169553
30
0
0
SPLINE
5
169
100
AcDbEntity
8
SK1
62
256
6
ByLayer
370
18
48
1
60
0
100
AcDbSpline
70
4
71
3
72
52
73
48
40
0
40
0
40
0
40
0
40
0.124999999999997
40
0.124999999999997
40
0.249999999999993
40
0.249999999999993
40
0.312499999999993
40
0.312499999999993
40
0.374999999999993
40
0.374999999999993
40
0.499999999999988
40
0.499999999999988
40
0.562499999999987
40
0.562499999999987
40
0.624999999999986
40
0.624999999999986
40
0.687499999999985
40
0.687499999999985
40
0.718749999999985
40
0.718749999999985
40
0.749999999999985
40
0.749999999999985
40
0.781249999999984
40
0.781249999999984
40
0.812499999999984
40
0.812499999999984
40
0.828124999999985
40
0.828124999999985
40
0.843749999999986
40
0.843749999999986
40
0.859374999999988
40
0.859374999999988
40
0.874999999999989
40
0.89062499999999
40
0.89062499999999
40
0.898437499999991
40
0.898437499999991
40
0.906249999999991
40
0.921874999999992
40
0.921874999999992
40
0.937499999999993
40
0.937499999999993
40
0.968749999999995
40
0.968749999999995
40
0.984374999999998
40
0.984374999999998
40
1
40
1
40
1
40
1
41
1
10
-1.30710678118652
20
4.60592664169553
30
0
41
1
10
-1.29275891091695
20
4.68989714720857
30
0
41
1
10
-1.27736962638437
20
4.77350841426141
30
0
41
1
10
-1.24404820493325
20
4.9399397228791
30
0
41
1
10
-1.22612064508869
20
5.02276061332566
30
0
41
1
10
-1.19681208321498
20
5.14631322592794
30
0
41
1
10
-1.18663768174733
20
5.18738396050338
30
0
41
1
10
-1.16535505328312
20
5.26927678319413
30
0
41
1
10
-1.15423917443448
20
5.31012638756459
30
0
41
1
10
-1.11931731285438
20
5.43201276986741
30
0
41
1
10
-1.09398428792127
20
5.51239595526584
30
0
41
1
10
-1.05148525648869
20
5.63117963544465
30
0
41
1
10
-1.03656113937748
20
5.67047297182705
30
0
41
1
10
-1.00477875230897
20
5.74831460023262
30
0
41
1
10
-0.98792647788153
20
5.78686496693513
30
0
41
1
10
-0.951618923970926
20
5.86299160032428
30
0
41
1
10
-0.932180037806262
20
5.90057354452273
30
0
41
1
10
-0.900153001667064
20
5.95590061943511
30
0
41
1
10
-0.888962127258139
20
5.9742145038457
30
0
41
1
10
-0.865496992525976
20
6.01015344582646
30
0
41
1
10
-0.853252514704224
20
6.02774095695474
30
0
41
1
10
-0.827458831985751
20
6.06194863274374
30
0
41
1
10
-0.813913312977633
20
6.07857148158422
30
0
41
1
10
-0.785075891824761
20
6.11052946629451
30
0
41
1
10
-0.769793584513906
20
6.12587159294549
30
0
41
1
10
-0.744972277821574
20
6.14749176791878
30
0
41
1
10
-0.736378832912976
20
6.15445714630403
30
0
41
1
10
-0.718692978023824
20
6.16759076245791
30
0
41
1
10
-0.709571748065656
20
6.17378612133842
30
0
41
1
10
-0.690657240434462
20
6.18528091245651
30
0
41
1
10
-0.680808653574928
20
6.19060634315309
30
0
41
1
10
-0.660548602982999
20
6.20002330412603
30
0
41
1
10
-0.63986137796212
20
6.20815612202625
30
0
41
1
10
-0.618206929166234
20
6.21338279886066
30
0
41
1
10
-0.601549235398664
20
6.21605069297289
30
0
41
1
10
-0.595894684359621
20
6.21673259001068
30
0
41
1
10
-0.584623491536121
20
6.2176327300308
30
0
41
1
10
-0.567784303200085
20
6.2182961509402
30
0
41
1
10
-0.55114318445527
20
6.21694745395433
30
0
41
1
10
-0.529123888329934
20
6.21343336489906
30
0
41
1
10
-0.518101951885455
20
6.21078160435087
30
0
41
1
10
-0.486210164870357
20
6.20067411916989
30
0
41
1
10
-0.466388186231001
20
6.19116060030751
30
0
41
1
10
-0.438186505727458
20
6.17393188540939
30
0
41
1
10
-0.429090292917067
20
6.16771263779106
30
0
41
1
10
-0.411568394116813
20
6.15460321336286
30
0
41
1
10
-0.403113287056044
20
6.14769447379137
30
0
41
1
10
-0.394913799811263
20
6.14048931519875
30
0
0
SPLINE
5
16A
100
AcDbEntity
8
SK1
62
256
6
ByLayer
370
13
48
1
60
0
100
AcDbSpline
70
4
71
3
72
27
73
23
40
0
40
0
40
0
40
0
40
0.007462141524883
40
0.0687144286208753
40
0.129966715716868
40
0.19121900281286
40
0.252471289908852
40
0.313723577004844
40
0.374975864100837
40
0.436228151196829
40
0.497480438292821
40
0.558732725388814
40
0.619985012484806
40
0.681237299580798
40
0.74248958667679
40
0.803741873772783
40
0.864994160868775
40
0.895620304416771
40
0.926246447964767
40
0.956872591512763
40
0.987498735060759
40
1
40
1
40
1
40
1
41
1
10
-0.39491379981115
20
35.865374719571
30
0
41
1
10
-0.39491379981115
20
35.8655045632687
30
0
41
1
10
-0.39491379981115
20
35.8588269020892
30
0
41
1
10
-0.39491379981115
20
35.7124176199326
30
0
41
1
10
-0.39491379981115
20
35.2159257001026
30
0
41
1
10
-0.39491379981115
20
34.4615405790489
30
0
41
1
10
-0.394913799811178
20
33.4720136264138
30
0
41
1
10
-0.394913799811178
20
32.2643688967805
30
0
41
1
10
-0.394913799811178
20
30.8516497262062
30
0
41
1
10
-0.394913799811178
20
29.2440107893824
30
0
41
1
10
-0.394913799811178
20
27.4494515900979
30
0
41
1
10
-0.394913799811206
20
25.4742065689819
30
0
41
1
10
-0.394913799811206
20
23.3230321121426
30
0
41
1
10
-0.394913799811206
20
20.9993893665863
30
0
41
1
10
-0.394913799811235
20
18.505601336728
30
0
41
1
10
-0.394913799811235
20
15.8428433477203
30
0
41
1
10
-0.394913799811235
20
13.4834574083321
30
0
41
1
10
-0.394913799811235
20
11.510286218877
30
0
41
1
10
-0.394913799811263
20
9.98816027318446
30
0
41
1
10
-0.394913799811263
20
8.42331104678902
30
0
41
1
10
-0.394913799811263
20
7.13289939289211
30
0
41
1
10
-0.394913799811263
20
6.36440284602151
30
0
41
1
10
-0.394913799811263
20
6.14048931519881
30
0
0
SPLINE
5
16B
100
AcDbEntity
8
SK1
62
256
6
ByLayer
370
13
48
1
60
0
100
AcDbSpline
70
4
71
3
72
55
73
51
40
0
40
0
40
0
40
0
40
0.0031236546832976
40
0.0307298455977895
40
0.0583360365122814
40
0.0859422274267733
40
0.113548418341265
40
0.141154609255757
40
0.168760800170249
40
0.196366991084741
40
0.223973181999233
40
0.251579372913725
40
0.279185563828217
40
0.306791754742709
40
0.334397945657201
40
0.362004136571693
40
0.389610327486185
40
0.403413422943431
40
0.417216518400676
40
0.431019613857922
40
0.444822709315168
40
0.458625804772414
40
0.47242890022966
40
0.486231995686906
40
0.493133543415529
40
0.500035091144152
40
0.506936638872775
40
0.513838186601398
40
0.527641282058644
40
0.54144437751589
40
0.555247472973136
40
0.569050568430382
40
0.582853663887628
40
0.596656759344874
40
0.61045985480212
40
0.638066045716612
40
0.665672236631104
40
0.693278427545596
40
0.720884618460088
40
0.74849080937458
40
0.776097000289071
40
0.803703191203563
40
0.831309382118055
40
0.858915573032547
40
0.886521763947039
40
0.914127954861531
40
0.941734145776023
40
0.969340336690515
40
0.996946527605007
40
1
40
1
40
1
40
1
41
1
10
-1.99503997793917
20
35.8251941572268
30
0
41
1
10
-1.99503997793917
20
35.8252016726465
30
0
41
1
10
-1.99503997793917
20
35.8180403151217
30
0
41
1
10
-1.99503997793917
20
35.6723836848468
30
0
41
1
10
-1.99503997793917
20
35.1763357577499
30
0
41
1
10
-1.99503997793917
20
34.4225661075322
30
0
41
1
10
-1.99503997793917
20
33.4337942626939
30
0
41
1
10
-1.99503997793917
20
32.2270284220684
30
0
41
1
10
-1.99503997793917
20
30.8153057523624
30
0
41
1
10
-1.9950399779392
20
29.2087813923734
30
0
41
1
10
-1.9950399779392
20
27.4154610031465
30
0
41
1
10
-1.9950399779392
20
25.4415911921648
30
0
41
1
10
-1.9950399779392
20
23.2919475472126
30
0
41
1
10
-1.99503997793923
20
20.970019599504
30
0
41
1
10
-1.99503997793923
20
18.4781727978132
30
0
41
1
10
-1.99503997793923
20
15.8176474286293
30
0
41
1
10
-1.99503997793926
20
13.4605449192125
30
0
41
1
10
-1.99503997793926
20
11.4892556686531
30
0
41
1
10
-1.99503997793926
20
9.96882852636497
30
0
41
1
10
-1.99503997793926
20
8.40590997758017
30
0
41
1
10
-1.99503997793928
20
6.80062156131368
30
0
41
1
10
-1.99503997793928
20
5.15362303649027
30
0
41
1
10
-1.99503997793928
20
3.46682572646461
30
0
41
1
10
-1.99503997793928
20
2.03246205572793
30
0
41
1
10
-1.99503997793928
20
0.872327198701271
30
0
41
1
10
-1.99503997793928
20
1.87858404E-08
30
0
41
1
10
-1.99503997793931
20
-0.872327145714451
30
0
41
1
10
-1.99503997793931
20
-2.03246197307198
30
0
41
1
10
-1.99503997793931
20
-3.46682565849329
30
0
41
1
10
-1.99503997793931
20
-5.15362300763576
30
0
41
1
10
-1.99503997793931
20
-6.80062160559305
30
0
41
1
10
-1.99503997793934
20
-8.40590968396612
30
0
41
1
10
-1.99503997793934
20
-9.96882866001368
30
0
41
1
10
-1.99503997793934
20
-11.489255389582
30
0
41
1
10
-1.99503997793934
20
-13.4605450811038
30
0
41
1
10
-1.99503997793937
20
-15.8176475504657
30
0
41
1
10
-1.99503997793937
20
-18.4781725958541
30
0
41
1
10
-1.99503997793937
20
-20.9700195189174
30
0
41
1
10
-1.99503997793937
20
-23.2919476800301
30
0
41
1
10
-1.9950399779394
20
-25.4415909958108
30
0
41
1
10
-1.9950399779394
20
-27.4154611704439
30
0
41
1
10
-1.9950399779394
20
-29.2087813089343
30
0
41
1
10
-1.9950399779394
20
-30.8153059272805
30
0
41
1
10
-1.99503997793943
20
-32.2270284519257
30
0
41
1
10
-1.99503997793943
20
-33.4337942038213
30
0
41
1
10
-1.99503997793943
20
-34.4225667021769
30
0
41
1
10
-1.99503997793943
20
-35.1763358604717
30
0
41
1
10
-1.99503997793943
20
-35.672383387921
30
0
41
1
10
-1.99503997793943
20
-35.8178648869158
30
0
41
1
10
-1.99503997793943
20
-35.8251687430008
30
0
41
1
10
-1.99503997793943
20
-35.825193727399
30
0
0
SPLINE
5
16C
100
AcDbEntity
8
SK1
62
256
6
ByLayer
370
18
48
1
60
0
100
AcDbSpline
70
4
71
3
72
53
73
49
40
0
40
0
40
0
40
0
40
0.021288520558562
40
0.0494480164065444
40
0.0776075122545268
40
0.105767008102509
40
0.133926503950491
40
0.162085999798474
40
0.190245495646456
40
0.218404991494439
40
0.246564487342421
40
0.274723983190403
40
0.302883479038386
40
0.331042974886368
40
0.359202470734351
40
0.387361966582333
40
0.401441714506324
40
0.415521462430315
40
0.429601210354306
40
0.443680958278298
40
0.457760706202289
40
0.47184045412628
40
0.485920202050271
40
0.492960076012267
40
0.499999949974262
40
0.507039823936258
40
0.514079697898254
40
0.528159445822245
40
0.542239193746236
40
0.556318941670227
40
0.570398689594218
40
0.58447843751821
40
0.598558185442201
40
0.612637933366192
40
0.640797429214174
40
0.668956925062157
40
0.697116420910139
40
0.725275916758122
40
0.753435412606104
40
0.781594908454086
40
0.809754404302069
40
0.837913900150051
40
0.866073395998033
40
0.894232891846016
40
0.922392387693998
40
0.95055188354198
40
0.978711379389963
40
1
40
1
40
1
40
1
41
1
10
-2.19999999999987
20
35.998534330352
30
0
41
1
10
-2.19999999999987
20
35.9683617190551
30
0
41
1
10
-2.19999999999987
20
35.8259680710669
30
0
41
1
10
-2.19999999999987
20
35.36828810137
30
0
41
1
10
-2.19999999999987
20
34.6115343329044
30
0
41
1
10
-2.19999999999987
20
33.619101338222
30
0
41
1
10
-2.19999999999987
20
32.4080741929617
30
0
41
1
10
-2.19999999999987
20
30.9915199760065
30
0
41
1
10
-2.1999999999999
20
29.3795915759284
30
0
41
1
10
-2.1999999999999
20
27.5802648002379
30
0
41
1
10
-2.1999999999999
20
25.5997272652693
30
0
41
1
10
-2.1999999999999
20
23.4426614592353
30
0
41
1
10
-2.19999999999993
20
21.1124192921534
30
0
41
1
10
-2.19999999999993
20
18.6111604207771
30
0
41
1
10
-2.19999999999993
20
15.9398101657229
30
0
41
1
10
-2.19999999999996
20
13.5716364167829
30
0
41
1
10
-2.19999999999996
20
11.5912225613334
30
0
41
1
10
-2.19999999999996
20
10.0625587489356
30
0
41
1
10
-2.19999999999996
20
8.49027928497594
30
0
41
1
10
-2.19999999999999
20
6.8741257988703
30
0
41
1
10
-2.19999999999999
20
5.21416685618908
30
0
41
1
10
-2.19999999999999
20
3.51137573607468
30
0
41
1
10
-2.19999999999999
20
2.05962586413813
30
0
41
1
10
-2.19999999999999
20
0.88485774265564
30
0
41
1
10
-2.19999999999999
20
2.16043077E-08
30
0
41
1
10
-2.20000000000002
20
-0.884857708103027
30
0
41
1
10
-2.20000000000002
20
-2.0596258002638
30
0
41
1
10
-2.20000000000002
20
-3.5113756574965
30
0
41
1
10
-2.20000000000002
20
-5.21416680688048
30
0
41
1
10
-2.20000000000002
20
-6.87412587722235
30
0
41
1
10
-2.20000000000005
20
-8.49027898646239
30
0
41
1
10
-2.20000000000005
20
-10.0625588764647
30
0
41
1
10
-2.20000000000005
20
-11.5912222916892
30
0
41
1
10
-2.20000000000005
20
-13.5716365551607
30
0
41
1
10
-2.20000000000005
20
-15.9398103008149
30
0
41
1
10
-2.20000000000007
20
-18.6111602249392
30
0
41
1
10
-2.20000000000007
20
-21.1124192028391
30
0
41
1
10
-2.20000000000007
20
-23.4426615948154
30
0
41
1
10
-2.2000000000001
20
-25.5997270679033
30
0
41
1
10
-2.2000000000001
20
-27.5802649658272
30
0
41
1
10
-2.2000000000001
20
-29.3795914920701
30
0
41
1
10
-2.2000000000001
20
-30.991520149686
30
0
41
1
10
-2.20000000000013
20
-32.4080742253461
30
0
41
1
10
-2.20000000000013
20
-33.61910127367
30
0
41
1
10
-2.20000000000013
20
-34.6115349274624
30
0
41
1
10
-2.20000000000013
20
-35.3682882084332
30
0
41
1
10
-2.20000000000013
20
-35.8259683971033
30
0
41
1
10
-2.20000000000013
20
-35.9683620770116
30
0
41
1
10
-2.20000000000013
20
-35.998534669693
30
0
0
SPLINE
5
16D
100
AcDbEntity
8
SK1
62
256
6
ByLayer
370
18
48
1
60
0
100
AcDbSpline
70
4
71
3
72
53
73
49
40
0
40
0
40
0
40
0
40
0.0213321381915574
40
0.049489068284262
40
0.0776459983769666
40
0.105802928469671
40
0.133959858562376
40
0.162116788655081
40
0.190273718747785
40
0.21843064884049
40
0.246587578933194
40
0.274744509025899
40
0.302901439118604
40
0.331058369211308
40
0.359215299304013
40
0.387372229396718
40
0.40145069444307
40
0.415529159489422
40
0.429607624535774
40
0.443686089582127
40
0.457764554628479
40
0.471843019674831
40
0.485921484721184
40
0.49296071724436
40
0.499999949767536
40
0.507039182290712
40
0.514078414813888
40
0.528156879860241
40
0.542235344906593
40
0.556313809952945
40
0.570392274999297
40
0.58447074004565
40
0.598549205092002
40
0.612627670138355
40
0.640784600231059
40
0.668941530323764
40
0.697098460416468
40
0.725255390509173
40
0.753412320601878
40
0.781569250694582
40
0.809726180787287
40
0.837883110879991
40
0.866040040972696
40
0.894196971065401
40
0.922353901158105
40
0.95051083125081
40
0.978667761343515
40
1
40
1
40
1
40
1
41
1
10
-57.9999999999999
20
34.5977983337551
30
0
41
1
10
-57.9999999999999
20
34.5687765935089
30
0
41
1
10
-57.9999999999999
20
34.4314143203341
30
0
41
1
10
-57.9999999999999
20
33.9876977370148
30
0
41
1
10
-57.9999999999999
20
33.2524068213664
30
0
41
1
10
-57.9999999999999
20
32.2863061344951
30
0
41
1
10
-57.9999999999999
20
31.1059278263756
30
0
41
1
10
-57.9999999999999
20
29.7241238367491
30
0
41
1
10
-57.9999999999999
20
28.1510632386217
30
0
41
1
10
-57.9999999999999
20
26.3949365568698
30
0
41
1
10
-57.9999999999999
20
24.4623556934106
30
0
41
1
10
-57.9999999999999
20
22.3586727420947
30
0
41
1
10
-57.9999999999999
20
20.088229434133
30
0
41
1
10
-57.9999999999999
20
17.6546655565837
30
0
41
1
10
-57.9999999999999
20
15.0611717780169
30
0
41
1
10
-58
20
12.7726263697316
30
0
41
1
10
-58
20
10.8578399578044
30
0
41
1
10
-58
20
9.3884172423019
30
0
41
1
10
-58
20
7.88346485051159
30
0
41
1
10
-58
20
6.34545685846496
30
0
41
1
10
-58
20
4.77871390718593
30
0
41
1
10
-58
20
3.19095602751759
30
0
41
1
10
-58
20
1.86425397420436
30
0
41
1
10
-58
20
0.794733559135977
30
0
41
1
10
-58
20
1.3330919E-09
30
0
41
1
10
-58
20
-0.794733391997454
30
0
41
1
10
-58
20
-1.86425377524557
30
0
41
1
10
-58
20
-3.19095602522771
30
0
41
1
10
-58
20
-4.77871400499004
30
0
41
1
10
-58
20
-6.34545669175338
30
0
41
1
10
-58
20
-7.88346458723669
30
0
41
1
10
-58
20
-9.3884174138451
30
0
41
1
10
-58.0000000000001
20
-10.8578396203575
30
0
41
1
10
-58.0000000000001
20
-12.772626677226
30
0
41
1
10
-58.0000000000001
20
-15.0611718177695
30
0
41
1
10
-58.0000000000001
20
-17.6546653167194
30
0
41
1
10
-58.0000000000001
20
-20.0882294075912
30
0
41
1
10
-58.0000000000001
20
-22.3586728578046
30
0
41
1
10
-58.0000000000001
20
-24.4623555033231
30
0
41
1
10
-58.0000000000001
20
-26.3949367347438
30
0
41
1
10
-58.0000000000001
20
-28.1510631577775
30
0
41
1
10
-58.0000000000001
20
-29.724124019337
30
0
41
1
10
-58.0000000000001
20
-31.1059278405836
30
0
41
1
10
-58.0000000000001
20
-32.2863061107906
30
0
41
1
10
-58.0000000000001
20
-33.2524074165479
30
0
41
1
10
-58.0000000000001
20
-33.9876978128523
30
0
41
1
10
-58.0000000000001
20
-34.4314146272437
30
0
41
1
10
-58.0000000000001
20
-34.5687769408179
30
0
41
1
10
-58.0000000000001
20
-34.5977986655584
30
0
0
SPLINE
5
16E
100
AcDbEntity
8
1
62
256
6
ByLayer
370
18
48
1
60
0
100
AcDbSpline
70
4
71
3
72
28
73
24
40
0
40
0
40
0
40
0
40
0.062499999999983
40
0.062499999999983
40
0.0937499999999806
40
0.0937499999999806
40
0.124999999999978
40
0.124999999999978
40
0.249999999999983
40
0.249999999999983
40
0.374999999999987
40
0.374999999999987
40
0.437499999999986
40
0.437499999999986
40
0.499999999999985
40
0.499999999999985
40
0.624999999999989
40
0.624999999999989
40
0.749999999999992
40
0.749999999999992
40
0.874999999999996
40
0.874999999999996
40
1
40
1
40
1
40
1
41
1
10
18.2113248654053
20
47.699112336314
30
0
41
1
10
18.2270595596559
20
47.699112336314
30
0
41
1
10
18.2425066022339
20
47.6986325211243
30
0
41
1
10
18.265284104851
20
47.6972565620906
30
0
41
1
10
18.272810913383
20
47.6966882205613
30
0
41
1
10
18.2877376616229
20
47.6953394645318
30
0
41
1
10
18.2951724971557
20
47.6945543357694
30
0
41
1
10
18.3314372006437
20
47.690189691897
30
0
41
1
10
18.3578281265271
20
47.685321932856
30
0
41
1
10
18.4069581904136
20
47.6736470656566
30
0
41
1
10
18.4288334491968
20
47.6670413844208
30
0
41
1
10
18.4588809702255
20
47.6563838934507
30
0
41
1
10
18.4684309157004
20
47.6527013060038
30
0
41
1
10
18.4867303490984
20
47.6451099305975
30
0
41
1
10
18.4955010868101
20
47.6411896516378
30
0
41
1
10
18.5204889532972
20
47.6292580497127
30
0
41
1
10
18.5354760545343
20
47.6210513457404
30
0
41
1
10
18.562944944888
20
47.6042440377894
30
0
41
1
10
18.5754177835218
20
47.5956422180835
30
0
41
1
10
18.5983196665244
20
47.5781044545094
30
0
41
1
10
18.6087450830626
20
47.5691680198121
30
0
41
1
10
18.6278436196426
20
47.5509978353522
30
0
41
1
10
18.6364974994729
20
47.541778524855
30
0
41
1
10
18.6443375672975
20
47.5324740593459
30
0
0
SPLINE
5
16F
100
AcDbEntity
8
1
62
256
6
ByLayer
370
18
48
1
60
0
100
AcDbSpline
70
4
71
3
72
32
73
28
40
0
40
0
40
0
40
0
40
0.249999999999967
40
0.249999999999967
40
0.374999999999957
40
0.374999999999957
40
0.437499999999952
40
0.437499999999952
40
0.499999999999946
40
0.499999999999946
40
0.62499999999995
40
0.62499999999995
40
0.687499999999959
40
0.687499999999959
40
0.749999999999968
40
0.749999999999968
40
0.812499999999977
40
0.812499999999977
40
0.843749999999979
40
0.843749999999979
40
0.874999999999982
40
0.874999999999982
40
0.937499999999983
40
0.937499999999983
40
0.968749999999992
40
0.968749999999992
40
1
40
1
40
1
40
1
41
1
10
18.6443375672973
20
15.513346183129
30
0
41
1
10
18.6286630435769
20
15.4563493271806
30
0
41
1
10
18.6099224010159
20
15.400478236028
30
0
41
1
10
18.5756373106803
20
15.3189628763401
30
0
41
1
10
18.563169573401
20
15.2921769035833
30
0
41
1
10
18.5425188225859
20
15.2527254134146
30
0
41
1
10
18.5353085448822
20
15.2396968594118
30
0
41
1
10
18.520136596788
20
15.2139209621236
30
0
41
1
10
18.5121625348484
20
15.2011578148612
30
0
41
1
10
18.4871618698533
20
15.1637170876447
30
0
41
1
10
18.4690247593558
20
15.1397658465102
30
0
41
1
10
18.4387714809654
20
15.1059376964121
30
0
41
1
10
18.428159210711
20
15.0950108035219
30
0
41
1
10
18.4060583457712
20
15.0743622886569
30
0
41
1
10
18.3945344903244
20
15.0645964295523
30
0
41
1
10
18.3703588188408
20
15.0463962702364
30
0
41
1
10
18.3577088110857
20
15.0379598317317
30
0
41
1
10
18.3376838445828
20
15.0265455239634
30
0
41
1
10
18.3308009490982
20
15.0229343649006
30
0
41
1
10
18.316834097529
20
15.0162767768352
30
0
41
1
10
18.309748706295
20
15.0132261076342
30
0
41
1
10
18.2881674439403
20
15.0049610020093
30
0
41
1
10
18.2733483563928
20
15.0006283664656
30
0
41
1
10
18.250367935748
20
14.9961810114779
30
0
41
1
10
18.2425805614475
20
14.9950458111051
30
0
41
1
10
18.2270026846867
20
14.9935361300596
30
0
41
1
10
18.2191806796093
20
14.9931545155676
30
0
41
1
10
18.2113248654052
20
14.9931545155676
30
0
0
SPLINE
5
170
100
AcDbEntity
8
1
62
256
6
ByLayer
370
18
48
1
60
0
100
AcDbSpline
70
4
71
3
72
28
73
24
40
0
40
0
40
0
40
0
40
0.0625000000000152
40
0.0625000000000152
40
0.0937500000000227
40
0.0937500000000227
40
0.12500000000003
40
0.12500000000003
40
0.25000000000003
40
0.25000000000003
40
0.37500000000003
40
0.37500000000003
40
0.437500000000024
40
0.437500000000024
40
0.500000000000018
40
0.500000000000018
40
0.625000000000014
40
0.625000000000014
40
0.750000000000009
40
0.750000000000009
40
0.875000000000005
40
0.875000000000005
40
1
40
1
40
1
40
1
41
1
10
13.7886751345949
20
14.9931545155676
30
0
41
1
10
13.7729404403443
20
14.9931545155676
30
0
41
1
10
13.7574933977663
20
14.9946812225927
30
0
41
1
10
13.7347158951492
20
14.9990572633151
30
0
41
1
10
13.7271890866172
20
15.0008645698073
30
0
41
1
10
13.7122623383773
20
15.0051523955678
30
0
41
1
10
13.7048275028445
20
15.0076478892363
30
0
41
1
10
13.6685627993566
20
15.0215159830931
30
0
41
1
10
13.6421718734731
20
15.0369693753061
30
0
41
1
10
13.5930418095866
20
15.0739427918913
30
0
41
1
10
13.5711665508034
20
15.0948242086536
30
0
41
1
10
13.5411190297747
20
15.1284239846261
30
0
41
1
10
13.5315690842998
20
15.140020314601
30
0
41
1
10
13.5132696509018
20
15.1638931870094
30
0
41
1
10
13.5044989131901
20
15.1762057179681
30
0
41
1
10
13.479511046703
20
15.2136275524138
30
0
41
1
10
13.4645239454659
20
15.2392987486413
30
0
41
1
10
13.4370550551122
20
15.2917202176401
30
0
41
1
10
13.4245822164784
20
15.3184744071189
30
0
41
1
10
13.4016803334758
20
15.3728589673219
30
0
41
1
10
13.3912549169376
20
15.4004909261966
30
0
41
1
10
13.3721563803576
20
15.4565025709992
30
0
41
1
10
13.3635025005273
20
15.4848375519008
30
0
41
1
10
13.3556624327027
20
15.513346183129
30
0
0
SPLINE
5
171
100
AcDbEntity
8
1
62
256
6
ByLayer
370
18
48
1
60
0
100
AcDbSpline
70
4
71
3
72
32
73
28
40
0
40
0
40
0
40
0
40
0.250000000000012
40
0.250000000000012
40
0.375000000000018
40
0.375000000000018
40
0.437500000000021
40
0.437500000000021
40
0.500000000000024
40
0.500000000000024
40
0.625000000000028
40
0.625000000000028
40
0.687500000000028
40
0.687500000000028
40
0.750000000000028
40
0.750000000000028
40
0.812500000000028
40
0.812500000000028
40
0.843750000000026
40
0.843750000000026
40
0.875000000000024
40
0.875000000000024
40
0.937500000000016
40
0.937500000000016
40
0.968750000000008
40
0.968750000000008
40
1
40
1
40
1
40
1
41
1
10
13.3556624327028
20
47.5324740593459
30
0
41
1
10
13.3713369564233
20
47.5510763302181
30
0
41
1
10
13.3900775989843
20
47.5691972862267
30
0
41
1
10
13.4243626893198
20
47.5954849905103
30
0
41
1
10
13.4368304265991
20
47.6040973909195
30
0
41
1
10
13.4574811774143
20
47.6167466147849
30
0
41
1
10
13.464691455118
20
47.6209179112662
30
0
41
1
10
13.4798634032122
20
47.6291590523765
30
0
41
1
10
13.4878374651517
20
47.6332339095114
30
0
41
1
10
13.5128381301469
20
47.64517153341
30
0
41
1
10
13.5309752406443
20
47.6527863810657
30
0
41
1
10
13.5612285190347
20
47.6635163018191
30
0
41
1
10
13.5718407892891
20
47.666977732022
30
0
41
1
10
13.593941654229
20
47.6735117109474
30
0
41
1
10
13.6054655096757
20
47.6765983002466
30
0
41
1
10
13.6296411811594
20
47.6823452689502
30
0
41
1
10
13.6422911889144
20
47.6850063201912
30
0
41
1
10
13.6623161554173
20
47.6886039377399
30
0
41
1
10
13.669199050902
20
47.6897416143956
30
0
41
1
10
13.6831659024712
20
47.6918383367784
30
0
41
1
10
13.6902512937052
20
47.6927987245779
30
0
41
1
10
13.7118325560598
20
47.6953999741734
30
0
41
1
10
13.7266516436073
20
47.6967625554497
30
0
41
1
10
13.7496320642522
20
47.6981609444843
30
0
41
1
10
13.7574194385527
20
47.6985178150113
30
0
41
1
10
13.7729973153135
20
47.6989923891761
30
0
41
1
10
13.7808193203909
20
47.6991123363141
30
0
41
1
10
13.788675134595
20
47.6991123363141
30
0
0
SPLINE
5
172
100
AcDbEntity
8
1
62
256
6
ByLayer
370
18
48
1
60
0
100
AcDbSpline
70
4
71
3
72
28
73
24
40
0
40
0
40
0
40
0
40
0.0624999999999957
40
0.0624999999999957
40
0.0937499999999942
40
0.0937499999999942
40
0.124999999999993
40
0.124999999999993
40
0.249999999999993
40
0.249999999999993
40
0.374999999999993
40
0.374999999999993
40
0.437499999999997
40
0.437499999999997
40
0.5
40
0.5
40
0.625
40
0.625
40
0.75
40
0.75
40
0.875
40
0.875
40
1
40
1
40
1
40
1
41
1
10
13.7886751345946
20
-47.6991123363142
30
0
41
1
10
13.7729404403441
20
-47.6991123363142
30
0
41
1
10
13.757493397766
20
-47.6986325211245
30
0
41
1
10
13.734715895149
20
-47.6972565620907
30
0
41
1
10
13.7271890866169
20
-47.6966882205615
30
0
41
1
10
13.7122623383771
20
-47.6953394645319
30
0
41
1
10
13.7048275028442
20
-47.6945543357696
30
0
41
1
10
13.6685627993563
20
-47.6901896918972
30
0
41
1
10
13.6421718734729
20
-47.6853219328561
30
0
41
1
10
13.5930418095863
20
-47.6736470656568
30
0
41
1
10
13.5711665508032
20
-47.6670413844209
30
0
41
1
10
13.5411190297745
20
-47.6563838934508
30
0
41
1
10
13.5315690842996
20
-47.652701306004
30
0
41
1
10
13.5132696509016
20
-47.6451099305976
30
0
41
1
10
13.5044989131898
20
-47.641189651638
30
0
41
1
10
13.4795110467028
20
-47.6292580497129
30
0
41
1
10
13.4645239454657
20
-47.6210513457406
30
0
41
1
10
13.4370550551119
20
-47.6042440377896
30
0
41
1
10
13.4245822164781
20
-47.5956422180837
30
0
41
1
10
13.4016803334756
20
-47.5781044545095
30
0
41
1
10
13.3912549169374
20
-47.5691680198123
30
0
41
1
10
13.3721563803574
20
-47.5509978353524
30
0
41
1
10
13.363502500527
20
-47.5417785248551
30
0
41
1
10
13.3556624327024
20
-47.5324740593459
30
0
0
SPLINE
5
173
100
AcDbEntity
8
1
62
256
6
ByLayer
370
18
48
1
60
0
100
AcDbSpline
70
4
71
3
72
32
73
28
40
0
40
0
40
0
40
0
40
0.250000000000023
40
0.250000000000023
40
0.375000000000031
40
0.375000000000031
40
0.437500000000031
40
0.437500000000031
40
0.50000000000003
40
0.50000000000003
40
0.62500000000002
40
0.62500000000002
40
0.687500000000015
40
0.687500000000015
40
0.75000000000001
40
0.75000000000001
40
0.812500000000005
40
0.812500000000005
40
0.843750000000005
40
0.843750000000005
40
0.875000000000005
40
0.875000000000005
40
0.937500000000001
40
0.937500000000001
40
0.968750000000001
40
0.968750000000001
40
1
40
1
40
1
40
1
41
1
10
13.3556624327026
20
-15.5133461831292
30
0
41
1
10
13.371336956423
20
-15.4563493271808
30
0
41
1
10
13.390077598984
20
-15.400478236028
30
0
41
1
10
13.4243626893196
20
-15.3189628763402
30
0
41
1
10
13.4368304265989
20
-15.2921769035834
30
0
41
1
10
13.457481177414
20
-15.2527254134146
30
0
41
1
10
13.4646914551178
20
-15.2396968594119
30
0
41
1
10
13.479863403212
20
-15.2139209621236
30
0
41
1
10
13.4878374651515
20
-15.2011578148612
30
0
41
1
10
13.5128381301466
20
-15.1637170876447
30
0
41
1
10
13.5309752406441
20
-15.1397658465102
30
0
41
1
10
13.5612285190345
20
-15.1059376964121
30
0
41
1
10
13.5718407892889
20
-15.095010803522
30
0
41
1
10
13.5939416542288
20
-15.0743622886569
30
0
41
1
10
13.6054655096755
20
-15.0645964295523
30
0
41
1
10
13.6296411811591
20
-15.0463962702364
30
0
41
1
10
13.6422911889142
20
-15.0379598317318
30
0
41
1
10
13.6623161554171
20
-15.0265455239635
30
0
41
1
10
13.6691990509018
20
-15.0229343649007
30
0
41
1
10
13.683165902471
20
-15.0162767768353
30
0
41
1
10
13.690251293705
20
-15.0132261076342
30
0
41
1
10
13.7118325560596
20
-15.0049610020094
30
0
41
1
10
13.7266516436071
20
-15.0006283664656
30
0
41
1
10
13.7496320642519
20
-14.996181011478
30
0
41
1
10
13.7574194385524
20
-14.9950458111051
30
0
41
1
10
13.7729973153132
20
-14.9935361300597
30
0
41
1
10
13.7808193203906
20
-14.9931545155676
30
0
41
1
10
13.7886751345948
20
-14.9931545155676
30
0
0
SPLINE
5
174
100
AcDbEntity
8
1
62
256
6
ByLayer
370
18
48
1
60
0
100
AcDbSpline
70
4
71
3
72
28
73
24
40
0
40
0
40
0
40
0
40
0.0624999999999904
40
0.0624999999999904
40
0.0937499999999925
40
0.0937499999999925
40
0.124999999999995
40
0.124999999999995
40
0.249999999999999
40
0.249999999999999
40
0.375000000000004
40
0.375000000000004
40
0.437500000000009
40
0.437500000000009
40
0.500000000000015
40
0.500000000000015
40
0.625000000000011
40
0.625000000000011
40
0.750000000000007
40
0.750000000000007
40
0.875000000000004
40
0.875000000000004
40
1
40
1
40
1
40
1
41
1
10
18.2113248654051
20
-14.9931545155678
30
0
41
1
10
18.2270595596556
20
-14.9931545155678
30
0
41
1
10
18.2425066022337
20
-14.9946812225929
30
0
41
1
10
18.2652841048507
20
-14.9990572633153
30
0
41
1
10
18.2728109133828
20
-15.0008645698075
30
0
41
1
10
18.2877376616226
20
-15.005152395568
30
0
41
1
10
18.2951724971554
20
-15.0076478892364
30
0
41
1
10
18.3314372006434
20
-15.0215159830933
30
0
41
1
10
18.3578281265268
20
-15.0369693753062
30
0
41
1
10
18.4069581904134
20
-15.0739427918915
30
0
41
1
10
18.4288334491966
20
-15.0948242086538
30
0
41
1
10
18.4588809702252
20
-15.1284239846263
30
0
41
1
10
18.4684309157001
20
-15.1400203146011
30
0
41
1
10
18.4867303490981
20
-15.1638931870095
30
0
41
1
10
18.4955010868099
20
-15.1762057179683
30
0
41
1
10
18.5204889532969
20
-15.2136275524139
30
0
41
1
10
18.535476054534
20
-15.2392987486415
30
0
41
1
10
18.5629449448878
20
-15.2917202176403
30
0
41
1
10
18.5754177835215
20
-15.318474407119
30
0
41
1
10
18.5983196665241
20
-15.372858967322
30
0
41
1
10
18.6087450830623
20
-15.4004909261967
30
0
41
1
10
18.6278436196423
20
-15.4565025709994
30
0
41
1
10
18.6364974994726
20
-15.4848375519008
30
0
41
1
10
18.6443375672972
20
-15.5133461831292
30
0
0
SPLINE
5
175
100
AcDbEntity
8
1
62
256
6
ByLayer
370
18
48
1
60
0
100
AcDbSpline
70
4
71
3
72
32
73
28
40
0
40
0
40
0
40
0
40
0.250000000000014
40
0.250000000000014
40
0.375000000000011
40
0.375000000000011
40
0.43750000000001
40
0.43750000000001
40
0.500000000000008
40
0.500000000000008
40
0.62500000000002
40
0.62500000000002
40
0.687500000000026
40
0.687500000000026
40
0.750000000000032
40
0.750000000000032
40
0.812500000000038
40
0.812500000000038
40
0.843750000000031
40
0.843750000000031
40
0.875000000000024
40
0.875000000000024
40
0.937500000000013
40
0.937500000000013
40
0.968750000000007
40
0.968750000000007
40
1
40
1
40
1
40
1
41
1
10
18.6443375672971
20
-47.532474059346
30
0
41
1
10
18.6286630435766
20
-47.5510763302182
30
0
41
1
10
18.6099224010157
20
-47.5691972862269
30
0
41
1
10
18.5756373106801
20
-47.5954849905104
30
0
41
1
10
18.5631695734008
20
-47.6040973909197
30
0
41
1
10
18.5425188225857
20
-47.616746614785
30
0
41
1
10
18.5353085448819
20
-47.6209179112663
30
0
41
1
10
18.5201365967877
20
-47.6291590523766
30
0
41
1
10
18.5121625348482
20
-47.6332339095116
30
0
41
1
10
18.4871618698531
20
-47.6451715334101
30
0
41
1
10
18.4690247593556
20
-47.6527863810658
30
0
41
1
10
18.4387714809652
20
-47.6635163018192
30
0
41
1
10
18.4281592107108
20
-47.6669777320221
30
0
41
1
10
18.4060583457709
20
-47.6735117109475
30
0
41
1
10
18.3945344903242
20
-47.6765983002467
30
0
41
1
10
18.3703588188406
20
-47.6823452689503
30
0
41
1
10
18.3577088110855
20
-47.6850063201913
30
0
41
1
10
18.3376838445826
20
-47.68860393774
30
0
41
1
10
18.3308009490979
20
-47.6897416143957
30
0
41
1
10
18.3168340975287
20
-47.6918383367785
30
0
41
1
10
18.3097487062947
20
-47.692798724578
30
0
41
1
10
18.2881674439401
20
-47.6953999741735
30
0
41
1
10
18.2733483563926
20
-47.6967625554498
30
0
41
1
10
18.2503679357478
20
-47.6981609444844
30
0
41
1
10
18.2425805614473
20
-47.6985178150114
30
0
41
1
10
18.2270026846865
20
-47.6989923891762
30
0
41
1
10
18.2191806796091
20
-47.6991123363142
30
0
41
1
10
18.211324865405
20
-47.6991123363142
30
0
0
SPLINE
5
176
100
AcDbEntity
8
1
62
256
6
ByLayer
370
18
48
1
60
0
100
AcDbSpline
70
4
71
3
72
102
73
98
40
0
40
0
40
0
40
0
40
0.0010307400129488
40
0.0085038957441296
40
0.0159647755374849
40
0.0234134292413146
40
0.0308499062205671
40
0.038274255361742
40
0.0456865250776958
40
0.0530867633123809
40
0.0604750175455077
40
0.0678513347971423
40
0.075215761632226
40
0.0825683441650332
40
0.089909128063561
40
0.097238158553849
40
0.104555480424238
40
0.111861138029567
40
0.119155175295298
40
0.12643763572159
40
0.133708562387312
40
0.140967997953983
40
0.148215984669658
40
0.15545256437278
40
0.162677778495946
40
0.169890678156821
40
0.17708902382021
40
0.184272782322747
40
0.191442012186696
40
0.198596771314579
40
0.205737116996326
40
0.212863105915535
40
0.219974794156674
40
0.227072237211382
40
0.234155489984993
40
0.241224606802893
40
0.248279641416782
40
0.255320647010841
40
0.26234767620779
40
0.269360781074867
40
0.276360013129697
40
0.283345423346087
40
0.290317062159708
40
0.29727497947371
40
0.304219224664245
40
0.311149846585883
40
0.31806689357698
40
0.324970413464933
40
0.331860453571358
40
0.338737060717239
40
0.34560028122787
40
0.352450160937874
40
0.359286745196087
40
0.36611007887026
40
0.37292020635186
40
0.379717171560784
40
0.386501017949769
40
0.393271788508994
40
0.400029525770561
40
0.406774271812805
40
0.413506068264616
40
0.420224956309679
40
0.42693097669064
40
0.433624169713224
40
0.440304575250272
40
0.446972232745724
40
0.453627181218542
40
0.460269459266568
40
0.466899105070324
40
0.489896777742182
40
0.512592342179834
40
0.534987406120666
40
0.557083466253856
40
0.578881912602119
40
0.60038403270612
40
0.621591015625203
40
0.642503955767135
40
0.663123856558373
40
0.683451633965912
40
0.703488119880471
40
0.723234065370246
40
0.742690143814
40
0.761856953921098
40
0.78073502264598
40
0.799324808003761
40
0.817626701793215
40
0.835641032232931
40
0.853368066515987
40
0.870808013288071
40
0.887961025053643
40
0.904827200514371
40
0.921406586843765
40
0.937699181901687
40
0.953704936392128
40
0.969423755967493
40
0.984855503282412
40
1
40
1
40
1
40
1
41
1
10
953.013003045764
20
49.9910927528874
30
0
41
1
10
953.013069554702
20
49.9910012388456
30
0
41
1
10
953.013618216348
20
49.9902404048923
30
0
41
1
10
953.014647366871
20
49.988721952327
30
0
41
1
10
953.016087835537
20
49.9863712452857
30
0
41
1
10
953.017523305441
20
49.9838032986807
30
0
41
1
10
953.018953559007
20
49.9810191937952
30
0
41
1
10
953.020378380549
20
49.9780200052821
30
0
41
1
10
953.021797556206
20
49.9748068014697
30
0
41
1
10
953.023210873881
20
49.9713806443706
30
0
41
1
10
953.024618123181
20
49.9677425897698
30
0
41
1
10
953.02601909535
20
49.9638936872904
30
0
41
1
10
953.027413583217
20
49.959834980465
30
0
41
1
10
953.02880138113
20
49.955567506805
30
0
41
1
10
953.030182284903
20
49.9510922978698
30
0
41
1
10
953.031556091755
20
49.9464103793359
30
0
41
1
10
953.032922600256
20
49.9415227710643
30
0
41
1
10
953.034281610268
20
49.9364304871695
30
0
41
1
10
953.035632922893
20
49.9311345360859
30
0
41
1
10
953.036976340419
20
49.9256359206353
30
0
41
1
10
953.03831166626
20
49.9199356380942
30
0
41
1
10
953.039638704918
20
49.9140346802574
30
0
41
1
10
953.040957261891
20
49.9079340335111
30
0
41
1
10
953.042267143756
20
49.901634678872
30
0
41
1
10
953.043568098207
20
49.8951378888705
30
0
41
1
10
953.044859740576
20
49.8884456783637
30
0
41
1
10
953.046141694029
20
49.8815602191993
30
0
41
1
10
953.04741363939
20
49.8744834770996
30
0
41
1
10
953.048675397934
20
49.8672167020717
30
0
41
1
10
953.049926797195
20
49.859761106772
30
0
41
1
10
953.051167665907
20
49.8521178959462
30
0
41
1
10
953.052397834004
20
49.8442882665112
30
0
41
1
10
953.053617132402
20
49.836273407702
30
0
41
1
10
953.054825393058
20
49.8280745011404
30
0
41
1
10
953.056022448883
20
49.819692720946
30
0
41
1
10
953.057208133701
20
49.8111292338306
30
0
41
1
10
953.058382282198
20
49.8023851991965
30
0
41
1
10
953.059544729874
20
49.7934617692315
30
0
41
1
10
953.060695312995
20
49.7843600890044
30
0
41
1
10
953.061833868548
20
49.7750812965585
30
0
41
1
10
953.062960234192
20
49.7656265230051
30
0
41
1
10
953.064074248217
20
49.7559968926152
30
0
41
1
10
953.065175749492
20
49.7461935229109
30
0
41
1
10
953.066264577424
20
49.7362175247558
30
0
41
1
10
953.067340571913
20
49.7260700024447
30
0
41
1
10
953.06840357331
20
49.7157520537915
30
0
41
1
10
953.069453422368
20
49.7052647702181
30
0
41
1
10
953.070489960204
20
49.6946092368411
30
0
41
1
10
953.071513028256
20
49.6837865325562
30
0
41
1
10
953.072522468229
20
49.6727977301296
30
0
41
1
10
953.073518122077
20
49.6616438962734
30
0
41
1
10
953.074499831938
20
49.6503260917369
30
0
41
1
10
953.075467440095
20
49.6388453713916
30
0
41
1
10
953.076420788952
20
49.6272027843042
30
0
41
1
10
953.077359720981
20
49.6153993738245
30
0
41
1
10
953.078284078661
20
49.6034361776764
30
0
41
1
10
953.079193704477
20
49.5913142280183
30
0
41
1
10
953.08008844086
20
49.5790345515357
30
0
41
1
10
953.080968130134
20
49.5665981695225
30
0
41
1
10
953.081832614496
20
49.5540060979538
30
0
41
1
10
953.08268173596
20
49.5412593475674
30
0
41
1
10
953.083515336333
20
49.5283589239389
30
0
41
1
10
953.084333257151
20
49.5153058275686
30
0
41
1
10
953.08513533969
20
49.5021010539217
30
0
41
1
10
953.085921424768
20
49.4887455936406
30
0
41
1
10
953.086691353264
20
49.4752404321143
30
0
41
1
10
953.087444964022
20
49.461586551439
30
0
41
1
10
953.088182101438
20
49.4477849234771
30
0
41
1
10
953.08949598124
20
49.4223486010939
30
0
41
1
10
953.091300737585
20
49.3846378841654
30
0
41
1
10
953.093457265603
20
49.3335278822314
30
0
41
1
10
953.095387952306
20
49.2811137146704
30
0
41
1
10
953.097090562716
20
49.2274731843476
30
0
41
1
10
953.098563083868
20
49.1726826743826
30
0
41
1
10
953.099803738223
20
49.1168172182186
30
0
41
1
10
953.100810969091
20
49.0599505403851
30
0
41
1
10
953.101583434825
20
49.0021551011506
30
0
41
1
10
953.102120002062
20
48.9435021364989
30
0
41
1
10
953.102419740456
20
48.8840616958595
30
0
41
1
10
953.102481918202
20
48.8239026770877
30
0
41
1
10
953.102305998496
20
48.7630928589535
30
0
41
1
10
953.101891636782
20
48.7016989312306
30
0
41
1
10
953.101238678831
20
48.6397865224424
30
0
41
1
10
953.100347159572
20
48.5774202254141
30
0
41
1
10
953.099217302627
20
48.5146636205579
30
0
41
1
10
953.0978495207
20
48.4515792974988
30
0
41
1
10
953.096244416138
20
48.3882288731775
30
0
41
1
10
953.094402784086
20
48.3246730135497
30
0
41
1
10
953.09232560933
20
48.2609714332402
30
0
41
1
10
953.090014089243
20
48.1971829668246
30
0
41
1
10
953.087469564823
20
48.1333653709536
30
0
41
1
10
953.084693789246
20
48.0695760977642
30
0
41
1
10
953.08168797192
20
48.0058695274218
30
0
41
1
10
953.078456277674
20
47.9423070665807
30
0
41
1
10
953.07499313912
20
47.8789204841283
30
0
41
1
10
953.07132936702
20
47.8158450934849
30
0
41
1
10
953.068661246744
20
47.773440670951
30
0
41
1
10
953.067339719524
20
47.7524376452951
30
0
0
SPLINE
5
177
100
AcDbEntity
8
1
62
256
6
ByLayer
370
18
48
1
60
0
100
AcDbSpline
70
4
71
3
72
8
73
4
40
0
40
0
40
0
40
0
40
1
40
1
40
1
40
1
41
1
10
954.96830127019
20
46.2367577274229
30
0
41
1
10
954.862578603669
20
46.3774498786618
30
0
41
1
10
954.75663687714
20
46.5179226549982
30
0
41
1
10
954.650480947162
20
46.6581809199742
30
0
0
SPLINE
5
178
100
AcDbEntity
8
1
62
256
6
ByLayer
370
18
48
1
60
0
100
AcDbSpline
70
4
71
3
72
36
73
32
40
0
40
0
40
0
40
0
40
0.125000000000007
40
0.125000000000007
40
0.250000000000015
40
0.250000000000015
40
0.312500000000033
40
0.312500000000033
40
0.375000000000052
40
0.375000000000052
40
0.500000000000055
40
0.500000000000055
40
0.562500000000052
40
0.562500000000052
40
0.625000000000049
40
0.625000000000049
40
0.687500000000045
40
0.687500000000045
40
0.750000000000042
40
0.750000000000042
40
0.781250000000038
40
0.781250000000038
40
0.812500000000034
40
0.812500000000034
40
0.875000000000011
40
0.875000000000011
40
0.90625
40
0.90625
40
0.937499999999988
40
0.937499999999988
40
1
40
1
40
1
40
1
41
1
10
954.650480947162
20
46.6581809199742
30
0
41
1
10
954.638564391986
20
46.673925639594
30
0
41
1
10
954.627279009068
20
46.689500477464
30
0
41
1
10
954.606105628428
20
46.7202705154536
30
0
41
1
10
954.596387135782
20
46.7352193517605
30
0
41
1
10
954.583366382077
20
46.7568005099311
30
0
41
1
10
954.579284859493
20
46.7638570511835
30
0
41
1
10
954.571714569437
20
46.7776555564929
30
0
41
1
10
954.568207422769
20
46.7844370891091
30
0
41
1
10
954.558936804868
20
46.8038314511134
30
0
41
1
10
954.554340902691
20
46.8155673710939
30
0
41
1
10
954.550877363639
20
46.8305890942521
30
0
41
1
10
954.550337187033
20
46.835038576678
30
0
41
1
10
954.550689902404
20
46.8426094509539
30
0
41
1
10
954.55160680527
20
46.8457448036697
30
0
41
1
10
954.555036120945
20
46.8502195468021
30
0
41
1
10
954.557555971616
20
46.8516045735537
30
0
41
1
10
954.564279998563
20
46.85245112603
30
0
41
1
10
954.5683643372
20
46.8519087556728
30
0
41
1
10
954.575497700388
20
46.8497512431618
30
0
41
1
10
954.578044198973
20
46.8488068717789
30
0
41
1
10
954.583471624242
20
46.8464720607586
30
0
41
1
10
954.586343605015
20
46.845083365218
30
0
41
1
10
954.595212908225
20
46.8403943663449
30
0
41
1
10
954.601530025634
20
46.8365470800171
30
0
41
1
10
954.611524691542
20
46.8298517812705
30
0
41
1
10
954.614958258419
20
46.8274536729667
30
0
41
1
10
954.621886081876
20
46.8224400038891
30
0
41
1
10
954.62538609
20
46.8198214667877
30
0
41
1
10
954.635983326106
20
46.8116653933004
30
0
41
1
10
954.643177150321
20
46.8058293259391
30
0
41
1
10
954.650480947162
20
46.7996539821638
30
0
0
SPLINE
5
179
100
AcDbEntity
8
1
62
256
6
ByLayer
370
18
48
1
60
0
100
AcDbSpline
70
4
71
3
72
8
73
4
40
0
40
0
40
0
40
0
40
1
40
1
40
1
40
1
41
1
10
954.650480947162
20
46.7996539821637
30
0
41
1
10
954.875282095915
20
46.6095851173146
30
0
41
1
10
955.100042276568
20
46.4194516280998
30
0
41
1
10
955.32475952642
20
46.2292505270223
30
0
0
SPLINE
5
17A
100
AcDbEntity
8
1
62
256
6
ByLayer
370
18
48
1
60
0
100
AcDbSpline
70
4
71
3
72
8
73
4
40
0
40
0
40
0
40
0
40
1
40
1
40
1
40
1
41
1
10
955.32475952642
20
46.3764497133756
30
0
41
1
10
955.100882142789
20
46.6664416139547
30
0
41
1
10
954.876108812168
20
46.9555047085801
30
0
41
1
10
954.650480947162
20
47.2436819286685
30
0
0
SPLINE
5
17B
100
AcDbEntity
8
1
62
256
6
ByLayer
370
18
48
1
60
0
100
AcDbSpline
70
4
71
3
72
37
73
33
40
0
40
0
40
0
40
0
40
0.124999999999977
40
0.124999999999977
40
0.249999999999955
40
0.249999999999955
40
0.312499999999958
40
0.312499999999958
40
0.374999999999962
40
0.374999999999962
40
0.437499999999966
40
0.437499999999966
40
0.49999999999997
40
0.49999999999997
40
0.562499999999973
40
0.562499999999973
40
0.593749999999975
40
0.593749999999975
40
0.624999999999977
40
0.656249999999979
40
0.656249999999979
40
0.687499999999981
40
0.687499999999981
40
0.749999999999985
40
0.749999999999985
40
0.812499999999989
40
0.812499999999989
40
0.874999999999992
40
0.874999999999992
40
0.937499999999996
40
0.937499999999996
40
1
40
1
40
1
40
1
41
1
10
954.650480947162
20
47.2436819286685
30
0
41
1
10
954.638467058234
20
47.2590263503942
30
0
41
1
10
954.627038858385
20
47.274224877392
30
0
41
1
10
954.605700044476
20
47.3040077997858
30
0
41
1
10
954.595914271545
20
47.3184113228563
30
0
41
1
10
954.582787427473
20
47.3391567920321
30
0
41
1
10
954.578672780125
20
47.3459273598973
30
0
41
1
10
954.57104927079
20
47.3591325133063
30
0
41
1
10
954.567543902738
20
47.3655670792177
30
0
41
1
10
954.56141644239
20
47.3777173575745
30
0
41
1
10
954.558769249392
20
47.3834740016375
30
0
41
1
10
954.554451365012
20
47.394240680637
30
0
41
1
10
954.552771511771
20
47.3992892151873
30
0
41
1
10
954.550682545483
20
47.4082442431063
30
0
41
1
10
954.550265663349
20
47.4121446763342
30
0
41
1
10
954.550745996392
20
47.4169794583811
30
0
41
1
10
954.551095107797
20
47.4184225933362
30
0
41
1
10
954.552176589281
20
47.4208822223773
30
0
41
1
10
954.553640524178
20
47.4229329835698
30
0
41
1
10
954.555894732812
20
47.4241393470884
30
0
41
1
10
954.558565018368
20
47.424901402502
30
0
41
1
10
954.560116577479
20
47.4250565756594
30
0
41
1
10
954.56527094823
20
47.4248344128793
30
0
41
1
10
954.56940202182
20
47.4237910284227
30
0
41
1
10
954.578968331075
20
47.420026304276
30
0
41
1
10
954.584461109294
20
47.4172610331215
30
0
41
1
10
954.59613104104
20
47.4104498461389
30
0
41
1
10
954.602358037812
20
47.4063918343886
30
0
41
1
10
954.615492982932
20
47.3971445135576
30
0
41
1
10
954.622344017223
20
47.3919907710298
30
0
41
1
10
954.636219069865
20
47.3810306452357
30
0
41
1
10
954.643291702789
20
47.3751893721754
30
0
41
1
10
954.650480947162
20
47.3690368883746
30
0
0
SPLINE
5
17C
100
AcDbEntity
8
1
62
256
6
ByLayer
370
18
48
1
60
0
100
AcDbSpline
70
4
71
3
72
8
73
4
40
0
40
0
40
0
40
0
40
1
40
1
40
1
40
1
41
1
10
954.650480947162
20
47.3690368883746
30
0
41
1
10
954.875296565803
20
47.1766419188687
30
0
41
1
10
955.100056943949
20
46.9841609443808
30
0
41
1
10
955.32475952642
20
46.791589986704
30
0
0
SPLINE
5
17D
100
AcDbEntity
8
1
62
256
6
ByLayer
370
18
48
1
60
0
100
AcDbSpline
70
4
71
3
72
8
73
4
40
0
40
0
40
0
40
0
40
1
40
1
40
1
40
1
41
1
10
955.32475952642
20
46.9213162515875
30
0
41
1
10
955.100779420665
20
47.2019060176484
30
0
41
1
10
954.876007833844
20
47.4816479322784
30
0
41
1
10
954.650480947162
20
47.7605807535596
30
0
0
SPLINE
5
17E
100
AcDbEntity
8
1
62
256
6
ByLayer
370
18
48
1
60
0
100
AcDbSpline
70
4
71
3
72
38
73
34
40
0
40
0
40
0
40
0
40
0.0624999999999849
40
0.0624999999999849
40
0.12499999999997
40
0.12499999999997
40
0.24999999999994
40
0.24999999999994
40
0.312499999999938
40
0.312499999999938
40
0.374999999999937
40
0.374999999999937
40
0.437499999999936
40
0.437499999999936
40
0.499999999999935
40
0.499999999999935
40
0.562499999999934
40
0.562499999999934
40
0.624999999999933
40
0.624999999999933
40
0.687499999999932
40
0.687499999999932
40
0.749999999999931
40
0.749999999999931
40
0.781249999999939
40
0.781249999999939
40
0.812499999999948
40
0.812499999999948
40
0.874999999999965
40
0.874999999999965
40
0.937499999999983
40
0.937499999999983
40
1
40
1
40
1
40
1
41
1
10
954.650480947162
20
47.7605807535596
30
0
41
1
10
954.644424573363
20
47.768071308036
30
0
41
1
10
954.638520147547
20
47.7755087941899
30
0
41
1
10
954.627029830908
20
47.7902720497061
30
0
41
1
10
954.621428121776
20
47.7976194383979
30
0
41
1
10
954.605310773168
20
47.8192497600484
30
0
41
1
10
954.595440158383
20
47.8331631126568
30
0
41
1
10
954.582199737126
20
47.85312238814
30
0
41
1
10
954.578049629234
20
47.8596222670996
30
0
41
1
10
954.570369434483
20
47.8722609240596
30
0
41
1
10
954.566896441734
20
47.8783074830341
30
0
41
1
10
954.560818850451
20
47.8897119064785
30
0
41
1
10
954.558205729128
20
47.8950826198058
30
0
41
1
10
954.55399186748
20
47.9050356314004
30
0
41
1
10
954.552394285592
20
47.9096311149699
30
0
41
1
10
954.550525513418
20
47.9175574760371
30
0
41
1
10
954.550232624415
20
47.9209392309006
30
0
41
1
10
954.551165224461
20
47.9262716903183
30
0
41
1
10
954.552376343875
20
47.9281528656007
30
0
41
1
10
954.556374506812
20
47.9302557408222
30
0
41
1
10
954.559214999618
20
47.9304514734469
30
0
41
1
10
954.566219279544
20
47.929114619797
30
0
41
1
10
954.570392360961
20
47.9276110698124
30
0
41
1
10
954.577604774527
20
47.9241714415787
30
0
41
1
10
954.580185352463
20
47.922816359364
30
0
41
1
10
954.585547759675
20
47.9197795366074
30
0
41
1
10
954.58833400436
20
47.9180973055148
30
0
41
1
10
954.596979938385
20
47.9126031031299
30
0
41
1
10
954.60312508737
20
47.9083463524739
30
0
41
1
10
954.616086056367
20
47.8987895966666
30
0
41
1
10
954.622793315098
20
47.8935680996892
30
0
41
1
10
954.636435763729
20
47.8825088787434
30
0
41
1
10
954.64339717757
20
47.8766509677133
30
0
41
1
10
954.650480947162
20
47.8705070301736
30
0
0
SPLINE
5
17F
100
AcDbEntity
8
1
62
256
6
ByLayer
370
18
48
1
60
0
100
AcDbSpline
70
4
71
3
72
8
73
4
40
0
40
0
40
0
40
0
40
1
40
1
40
1
40
1
41
1
10
954.650480947162
20
47.8705070301735
30
0
41
1
10
954.875312850705
20
47.6755044747884
30
0
41
1
10
955.100073465689
20
47.4803924257702
30
0
41
1
10
955.32475952642
20
47.2851658672686
30
0
0
SPLINE
5
180
100
AcDbEntity
8
1
62
256
6
ByLayer
370
18
48
1
60
0
100
AcDbSpline
70
4
71
3
72
8
73
4
40
0
40
0
40
0
40
0
40
1
40
1
40
1
40
1
41
1
10
955.32475952642
20
47.3981429184623
30
0
41
1
10
955.100689433321
20
47.6700776853911
30
0
41
1
10
954.875919349476
20
47.9412388764583
30
0
41
1
10
954.650480947162
20
48.2116614934284
30
0
0
SPLINE
5
181
100
AcDbEntity
8
1
62
256
6
ByLayer
370
18
48
1
60
0
100
AcDbSpline
70
4
71
3
72
34
73
30
40
0
40
0
40
0
40
0
40
0.125000000000014
40
0.125000000000014
40
0.250000000000028
40
0.250000000000028
40
0.31250000000002
40
0.31250000000002
40
0.375000000000013
40
0.375000000000013
40
0.437500000000005
40
0.437500000000005
40
0.499999999999998
40
0.499999999999998
40
0.56249999999999
40
0.56249999999999
40
0.624999999999983
40
0.624999999999983
40
0.687499999999975
40
0.687499999999975
40
0.749999999999967
40
0.749999999999967
40
0.781249999999966
40
0.781249999999966
40
0.812499999999965
40
0.812499999999965
40
0.874999999999979
40
0.874999999999979
40
1
40
1
40
1
40
1
41
1
10
954.650480947162
20
48.2116614934284
30
0
41
1
10
954.638287117024
20
48.2262884931902
30
0
41
1
10
954.626699763673
20
48.2406563471388
30
0
41
1
10
954.604912869526
20
48.2687948496716
30
0
41
1
10
954.59493315056
20
48.2822804699495
30
0
41
1
10
954.581614502963
20
48.3014320711354
30
0
41
1
10
954.577451274389
20
48.3076366259411
30
0
41
1
10
954.569772964676
20
48.3196246684685
30
0
41
1
10
954.566279983252
20
48.3253782216785
30
0
41
1
10
954.560240218038
20
48.3360763129946
30
0
41
1
10
954.557668448915
20
48.3410582663397
30
0
41
1
10
954.553581330179
20
48.3501566795411
30
0
41
1
10
954.552067855755
20
48.3542897521285
30
0
41
1
10
954.550407735545
20
48.3612285470446
30
0
41
1
10
954.550237809652
20
48.3640759028651
30
0
41
1
10
954.551434385278
20
48.3683169624118
30
0
41
1
10
954.552782316351
20
48.3696382471978
30
0
41
1
10
954.55701004349
20
48.3706490320179
30
0
41
1
10
954.55994334948
20
48.3703131548064
30
0
41
1
10
954.56711036234
20
48.3680119495446
30
0
41
1
10
954.571341209358
20
48.3660702316197
30
0
41
1
10
954.578594887134
20
48.3620502061005
30
0
41
1
10
954.581160783534
20
48.3605256966368
30
0
41
1
10
954.586469683972
20
48.3571932023095
30
0
41
1
10
954.589225686452
20
48.3553782040432
30
0
41
1
10
954.59777345998
20
48.3495237687649
30
0
41
1
10
954.60384812266
20
48.34507359438
30
0
41
1
10
954.623035025827
20
48.3302964227828
30
0
41
1
10
954.636509603876
20
48.3190271970251
30
0
41
1
10
954.650480947162
20
48.3067316209587
30
0
0
SPLINE
5
182
100
AcDbEntity
8
1
62
256
6
ByLayer
370
18
48
1
60
0
100
AcDbSpline
70
4
71
3
72
8
73
4
40
0
40
0
40
0
40
0
40
1
40
1
40
1
40
1
41
1
10
954.650480947162
20
48.3067316209586
30
0
41
1
10
954.875330997765
20
48.1088507984657
30
0
41
1
10
955.100091875538
20
47.9108350221756
30
0
41
1
10
955.32475952642
20
47.7126781566853
30
0
0
SPLINE
5
183
100
AcDbEntity
8
1
62
256
6
ByLayer
370
18
48
1
60
0
100
AcDbSpline
70
4
71
3
72
8
73
4
40
0
40
0
40
0
40
0
40
1
40
1
40
1
40
1
41
1
10
955.32475952642
20
47.8095040135378
30
0
41
1
10
955.100610162108
20
48.0734412000286
30
0
41
1
10
954.875841381203
20
48.3366732332125
30
0
41
1
10
954.650480947162
20
48.5992317194349
30
0
0
SPLINE
5
184
100
AcDbEntity
8
1
62
256
6
ByLayer
370
18
48
1
60
0
100
AcDbSpline
70
4
71
3
72
36
73
32
40
0
40
0
40
0
40
0
40
0.12500000000001
40
0.12500000000001
40
0.25000000000002
40
0.25000000000002
40
0.312500000000014
40
0.312500000000014
40
0.375000000000008
40
0.375000000000008
40
0.437500000000002
40
0.437500000000002
40
0.499999999999996
40
0.499999999999996
40
0.531249999999999
40
0.531249999999999
40
0.562500000000002
40
0.562500000000002
40
0.625000000000001
40
0.625000000000001
40
0.656249999999999
40
0.656249999999999
40
0.687499999999997
40
0.687499999999997
40
0.749999999999994
40
0.749999999999994
40
0.81249999999999
40
0.81249999999999
40
0.874999999999986
40
0.874999999999986
40
1
40
1
40
1
40
1
41
1
10
954.650480947162
20
48.5992317194349
30
0
41
1
10
954.638185631719
20
48.6135565028609
30
0
41
1
10
954.626448824662
20
48.6276380595497
30
0
41
1
10
954.604494453589
20
48.654954585812
30
0
41
1
10
954.594435741193
20
48.6679867767595
30
0
41
1
10
954.581008866335
20
48.6863989293606
30
0
41
1
10
954.576811098666
20
48.6923476552345
30
0
41
1
10
954.569087491098
20
48.7037794871794
30
0
41
1
10
954.565637124998
20
48.7091511198949
30
0
41
1
10
954.55965704079
20
48.7191235960571
30
0
41
1
10
954.55712579297
20
48.7237257173154
30
0
41
1
10
954.553159992792
20
48.7320116203068
30
0
41
1
10
954.551751887247
20
48.7356544071333
30
0
41
1
10
954.550677161243
20
48.7401096304882
30
0
41
1
10
954.550488228852
20
48.7414344182613
30
0
41
1
10
954.550474077376
20
48.7437397421707
30
0
41
1
10
954.550652071278
20
48.7447224304279
30
0
41
1
10
954.551750356912
20
48.7470629809933
30
0
41
1
10
954.553224879416
20
48.7478421742836
30
0
41
1
10
954.556580932313
20
48.7478078045123
30
0
41
1
10
954.557900840685
20
48.7475918790965
30
0
41
1
10
954.560888415783
20
48.7467569408877
30
0
41
1
10
954.562548762688
20
48.7461422795345
30
0
41
1
10
954.568001838274
20
48.7437397788501
30
0
41
1
10
954.572271021232
20
48.7413920617301
30
0
41
1
10
954.581961171813
20
48.7353198781657
30
0
41
1
10
954.587237950172
20
48.731687791235
30
0
41
1
10
954.598514345949
20
48.7234273751092
30
0
41
1
10
954.604544859903
20
48.7187733709408
30
0
41
1
10
954.623417074936
20
48.7036246643775
30
0
41
1
10
954.636691354429
20
48.6922454860678
30
0
41
1
10
954.650480947162
20
48.679918203609
30
0
0
SPLINE
5
185
100
AcDbEntity
8
1
62
256
6
ByLayer
370
18
48
1
60
0
100
AcDbSpline
70
4
71
3
72
8
73
4
40
0
40
0
40
0
40
0
40
1
40
1
40
1
40
1
41
1
10
954.650480947162
20
48.679918203609
30
0
41
1
10
954.875351093927
20
48.4788942959897
30
0
41
1
10
955.10011226246
20
48.2777080605136
30
0
41
1
10
955.32475952642
20
48.0763521591779
30
0
0
SPLINE
5
186
100
AcDbEntity
8
1
62
256
6
ByLayer
370
18
48
1
60
0
100
AcDbSpline
70
4
71
3
72
8
73
4
40
0
40
0
40
0
40
0
40
1
40
1
40
1
40
1
41
1
10
955.32475952642
20
48.1575168708569
30
0
41
1
10
955.100539982182
20
48.4140398201372
30
0
41
1
10
954.875772336775
20
48.6699208754559
30
0
41
1
10
954.650480947162
20
48.9251885618156
30
0
0
SPLINE
5
187
100
AcDbEntity
8
1
62
256
6
ByLayer
370
18
48
1
60
0
100
AcDbSpline
70
4
71
3
72
37
73
33
40
0
40
0
40
0
40
0
40
0.0625000000000062
40
0.0625000000000062
40
0.125000000000012
40
0.125000000000012
40
0.250000000000016
40
0.250000000000016
40
0.31250000000002
40
0.31250000000002
40
0.375000000000023
40
0.375000000000023
40
0.437500000000027
40
0.437500000000027
40
0.500000000000031
40
0.500000000000031
40
0.562500000000034
40
0.562500000000034
40
0.625000000000038
40
0.625000000000038
40
0.656250000000037
40
0.656250000000037
40
0.687500000000036
40
0.718750000000036
40
0.718750000000036
40
0.750000000000035
40
0.750000000000035
40
0.812500000000032
40
0.812500000000032
40
0.87500000000003
40
0.87500000000003
40
1
40
1
40
1
40
1
41
1
10
954.650480947162
20
48.9251885618156
30
0
41
1
10
954.644281124505
20
48.9322133060291
30
0
41
1
10
954.638227502074
20
48.9391586770682
30
0
41
1
10
954.626431271929
20
48.9528800259238
30
0
41
1
10
954.620668334994
20
48.9596805443812
30
0
41
1
10
954.604077667191
20
48.9795803831555
30
0
41
1
10
954.593928867472
20
48.9921899007746
30
0
41
1
10
954.580387164116
20
49.0098881550538
30
0
41
1
10
954.576131913535
20
49.0156176573313
30
0
41
1
10
954.568431375473
20
49.0264023653018
30
0
41
1
10
954.564998862174
20
49.0314365639846
30
0
41
1
10
954.559078732859
20
49.0406943905306
30
0
41
1
10
954.556585353199
20
49.044927302985
30
0
41
1
10
954.55275680416
20
49.0523814140453
30
0
41
1
10
954.551466361912
20
49.055514781722
30
0
41
1
10
954.550263080226
20
49.0604706588144
30
0
41
1
10
954.550369028879
20
49.0622932350178
30
0
41
1
10
954.552090331233
20
49.0643404438861
30
0
41
1
10
954.553687158685
20
49.0645981370327
30
0
41
1
10
954.557223450903
20
49.0637984314654
30
0
41
1
10
954.558596869571
20
49.0633298320292
30
0
41
1
10
954.561651941978
20
49.0620248466217
30
0
41
1
10
954.565028893657
20
49.0603503346096
30
0
41
1
10
954.569016663261
20
49.0579749819877
30
0
41
1
10
954.573299416286
20
49.0552613750196
30
0
41
1
10
954.575601126068
20
49.0537262502267
30
0
41
1
10
954.582818569593
20
49.0487095880424
30
0
41
1
10
954.588047050246
20
49.0448219345214
30
0
41
1
10
954.599211407045
20
49.0361263043381
30
0
41
1
10
954.605191227673
20
49.0312807628716
30
0
41
1
10
954.623772752719
20
49.0157621259779
30
0
41
1
10
954.636860855824
20
49.0042576579065
30
0
41
1
10
954.650480947162
20
48.9918768078123
30
0
0
SPLINE
5
188
100
AcDbEntity
8
1
62
256
6
ByLayer
370
18
48
1
60
0
100
AcDbSpline
70
4
71
3
72
8
73
4
40
0
40
0
40
0
40
0
40
1
40
1
40
1
40
1
41
1
10
954.650480947162
20
48.9918768078122
30
0
41
1
10
954.87537326867
20
48.7874465987313
30
0
41
1
10
955.100134758696
20
48.5828247827852
30
0
41
1
10
955.32475952642
20
48.3780027326818
30
0
0
SPLINE
5
189
100
AcDbEntity
8
1
62
256
6
ByLayer
370
18
48
1
60
0
100
AcDbSpline
70
4
71
3
72
8
73
4
40
0
40
0
40
0
40
0
40
1
40
1
40
1
40
1
41
1
10
955.32475952642
20
48.4439019058904
30
0
41
1
10
955.100477572429
20
48.693532378087
30
0
41
1
10
954.875710921389
20
48.9425796328426
30
0
41
1
10
954.650480947162
20
49.1910693885121
30
0
0
SPLINE
5
18A
100
AcDbEntity
8
1
62
256
6
ByLayer
370
18
48
1
60
0
100
AcDbSpline
70
4
71
3
72
37
73
33
40
0
40
0
40
0
40
0
40
0.0625
40
0.0625
40
0.125
40
0.125
40
0.250000000000025
40
0.250000000000025
40
0.312500000000038
40
0.312500000000038
40
0.375000000000051
40
0.406250000000049
40
0.406250000000049
40
0.437500000000046
40
0.437500000000046
40
0.500000000000044
40
0.500000000000044
40
0.53125000000004
40
0.53125000000004
40
0.562500000000036
40
0.562500000000036
40
0.625000000000032
40
0.625000000000032
40
0.687500000000028
40
0.687500000000028
40
0.750000000000024
40
0.750000000000024
40
0.812500000000019
40
0.812500000000019
40
0.875000000000015
40
0.875000000000015
40
1
40
1
40
1
40
1
41
1
10
954.650480947162
20
49.1910693885121
30
0
41
1
10
954.644227294373
20
49.1979688638543
30
0
41
1
10
954.638116117521
20
49.2047812021501
30
0
41
1
10
954.626198982526
20
49.2182186406587
30
0
41
1
10
954.620377514565
20
49.2248620758047
30
0
41
1
10
954.603653580318
20
49.2442095948177
30
0
41
1
10
954.593408919521
20
49.2564164100061
30
0
41
1
10
954.579745402713
20
49.2734199100042
30
0
41
1
10
954.575456649465
20
49.2788974278653
30
0
41
1
10
954.567776340579
20
49.2890491462882
30
0
41
1
10
954.562653295116
20
49.2961018604166
30
0
41
1
10
954.558624159349
20
49.3021907022718
30
0
41
1
10
954.556206755929
20
49.3060131392977
30
0
41
1
10
954.555131029208
20
49.3078092564882
30
0
41
1
10
954.552398456442
20
49.3127140881078
30
0
41
1
10
954.551209144028
20
49.3153778837003
30
0
41
1
10
954.550482539152
20
49.3183602776052
30
0
41
1
10
954.550419191621
20
49.3191872271584
30
0
41
1
10
954.55066746586
20
49.3204513184744
30
0
41
1
10
954.550976288827
20
49.3208930574689
30
0
41
1
10
954.552453430918
20
49.3216509763686
30
0
41
1
10
954.554172763204
20
49.3214016674726
30
0
41
1
10
954.559115699976
20
49.3193455768172
30
0
41
1
10
954.562250328911
20
49.3175778505782
30
0
41
1
10
954.569700642292
20
49.3127264099834
30
0
41
1
10
954.574068338113
20
49.3096013746193
30
0
41
1
10
954.58362753328
20
49.3023326650729
30
0
41
1
10
954.588810770566
20
49.298200819853
30
0
41
1
10
954.599870537004
20
49.2890839936572
30
0
41
1
10
954.605793764753
20
49.2840575809719
30
0
41
1
10
954.62410525595
20
49.2681672513113
30
0
41
1
10
954.637019529892
20
49.256522639784
30
0
41
1
10
954.650480947162
20
49.2440675994899
30
0
0
SPLINE
5
18B
100
AcDbEntity
8
1
62
256
6
ByLayer
370
18
48
1
60
0
100
AcDbSpline
70
4
71
3
72
8
73
4
40
0
40
0
40
0
40
0
40
1
40
1
40
1
40
1
41
1
10
954.650480947162
20
49.2440675994899
30
0
41
1
10
954.875397692611
20
49.0359656536676
30
0
41
1
10
955.100159538353
20
48.8276408850737
30
0
41
1
10
955.32475952642
20
48.6190832846887
30
0
0
SPLINE
5
18C
100
AcDbEntity
8
1
62
256
6
ByLayer
370
18
48
1
60
0
100
AcDbSpline
70
4
71
3
72
8
73
4
40
0
40
0
40
0
40
0
40
1
40
1
40
1
40
1
41
1
10
955.32475952642
20
48.6700283649977
30
0
41
1
10
955.100421849063
20
48.9132366582231
30
0
41
1
10
954.875656072682
20
49.1559163189213
30
0
41
1
10
954.650480947162
20
49.3980905001427
30
0
0
SPLINE
5
18D
100
AcDbEntity
8
1
62
256
6
ByLayer
370
18
48
1
60
0
100
AcDbSpline
70
4
71
3
72
38
73
34
40
0
40
0
40
0
40
0
40
0.124999999999996
40
0.124999999999996
40
0.187499999999994
40
0.187499999999994
40
0.249999999999992
40
0.249999999999992
40
0.31249999999999
40
0.31249999999999
40
0.374999999999988
40
0.374999999999988
40
0.437499999999986
40
0.437499999999986
40
0.499999999999984
40
0.499999999999984
40
0.562499999999981
40
0.562499999999981
40
0.59374999999998
40
0.59374999999998
40
0.624999999999978
40
0.624999999999978
40
0.687499999999975
40
0.687499999999975
40
0.718749999999965
40
0.718749999999965
40
0.749999999999955
40
0.749999999999955
40
0.812499999999958
40
0.812499999999958
40
0.874999999999961
40
0.874999999999961
40
1
40
1
40
1
40
1
41
1
10
954.650480947162
20
49.3980905001427
30
0
41
1
10
954.637817581332
20
49.4117098563851
30
0
41
1
10
954.625764641225
20
49.4248877953368
30
0
41
1
10
954.608942446843
20
49.4436628505135
30
0
41
1
10
954.60353571356
20
49.4497659288036
30
0
41
1
10
954.593178093793
20
49.4616186053551
30
0
41
1
10
954.588201351188
20
49.4673994030053
30
0
41
1
10
954.579009946802
20
49.4782783245624
30
0
41
1
10
954.574773005238
20
49.4834007913728
30
0
41
1
10
954.567112284481
20
49.492926460633
30
0
41
1
10
954.563673791371
20
49.4973489720223
30
0
41
1
10
954.5578379242
20
49.505244937
30
0
41
1
10
954.555484247879
20
49.508657664356
30
0
41
1
10
954.552035251765
20
49.5142890458864
30
0
41
1
10
954.55094674331
20
49.5165109360806
30
0
41
1
10
954.550259395237
20
49.5194449294056
30
0
41
1
10
954.550635376377
20
49.5201906371795
30
0
41
1
10
954.552339462797
20
49.5201668853565
30
0
41
1
10
954.553102063032
20
49.5199642164225
30
0
41
1
10
954.554965177309
20
49.5191904927515
30
0
41
1
10
954.556068758435
20
49.5186202777278
30
0
41
1
10
954.559870244374
20
49.51638676496
30
0
41
1
10
954.563056353125
20
49.5142032977141
30
0
41
1
10
954.568765690978
20
49.5099379387815
30
0
41
1
10
954.570819750839
20
49.508353397613
30
0
41
1
10
954.575134873696
20
49.5049388415767
30
0
41
1
10
954.577405832552
20
49.503101508839
30
0
41
1
10
954.584532698097
20
49.4972296486051
30
0
41
1
10
954.589700912741
20
49.4928371911518
30
0
41
1
10
954.600784621414
20
49.4831970765497
30
0
41
1
10
954.606584228292
20
49.4780500042152
30
0
41
1
10
954.624504245075
20
49.4619040733198
30
0
41
1
10
954.637193585318
20
49.450162619479
30
0
41
1
10
954.650480947162
20
49.4376371821521
30
0
0
SPLINE
5
18E
100
AcDbEntity
8
1
62
256
6
ByLayer
370
18
48
1
60
0
100
AcDbSpline
70
4
71
3
72
8
73
4
40
0
40
0
40
0
40
0
40
1
40
1
40
1
40
1
41
1
10
954.650480947162
20
49.4376371821521
30
0
41
1
10
954.875424578535
20
49.2255922788872
30
0
41
1
10
955.100186818474
20
49.0132913320678
30
0
41
1
10
955.32475952642
20
48.8007228508661
30
0
0
SPLINE
5
18F
100
AcDbEntity
8
1
62
256
6
ByLayer
370
18
48
1
60
0
100
AcDbSpline
70
4
71
3
72
8
73
4
40
0
40
0
40
0
40
0
40
1
40
1
40
1
40
1
41
1
10
955.32475952642
20
48.8369488213186
30
0
41
1
10
955.100371915989
20
49.0741620896711
30
0
41
1
10
954.875606912157
20
49.3108976363487
30
0
41
1
10
954.650480947162
20
49.5471762620254
30
0
0
SPLINE
5
190
100
AcDbEntity
8
1
62
256
6
ByLayer
370
18
48
1
60
0
100
AcDbSpline
70
4
71
3
72
36
73
32
40
0
40
0
40
0
40
0
40
0.124999999999997
40
0.124999999999997
40
0.187499999999992
40
0.187499999999992
40
0.249999999999986
40
0.249999999999986
40
0.312499999999981
40
0.312499999999981
40
0.374999999999975
40
0.374999999999975
40
0.43749999999997
40
0.43749999999997
40
0.468749999999972
40
0.468749999999972
40
0.499999999999975
40
0.499999999999975
40
0.562499999999981
40
0.562499999999981
40
0.624999999999987
40
0.624999999999987
40
0.687499999999993
40
0.687499999999993
40
0.75
40
0.75
40
0.812500000000006
40
0.812500000000006
40
0.875000000000012
40
0.875000000000012
40
1
40
1
40
1
40
1
41
1
10
954.650480947162
20
49.5471762620254
30
0
41
1
10
954.637704644204
20
49.5605854985133
30
0
41
1
10
954.625541463237
20
49.5734985078776
30
0
41
1
10
954.608544520806
20
49.5918066304914
30
0
41
1
10
954.603079242828
20
49.5977407709477
30
0
41
1
10
954.592608088528
20
49.6092217483095
30
0
41
1
10
954.587590850105
20
49.6147822023506
30
0
41
1
10
954.578357410151
20
49.6251547719251
30
0
41
1
10
954.57410654035
20
49.6300043695019
30
0
41
1
10
954.566441477588
20
49.6389327209363
30
0
41
1
10
954.563002030927
20
49.6430430069848
30
0
41
1
10
954.55728091196
20
49.650150472175
30
0
41
1
10
954.554997020138
20
49.6531472517054
30
0
41
1
10
954.552541809604
20
49.6567046119242
30
0
41
1
10
954.551884037704
20
49.6577373876062
30
0
41
1
10
954.550936577762
20
49.6594332033905
30
0
41
1
10
954.550643774493
20
49.6600996818839
30
0
41
1
10
954.550309235351
20
49.661553745806
30
0
41
1
10
954.550808052654
20
49.6617992695843
30
0
41
1
10
954.553329574796
20
49.6607626195678
30
0
41
1
10
954.555308536855
20
49.6594969574315
30
0
41
1
10
954.560521258633
20
49.6556501981887
30
0
41
1
10
954.563759240989
20
49.6530665751806
30
0
41
1
10
954.571432908151
20
49.6466484507648
30
0
41
1
10
954.575772129463
20
49.6428942113801
30
0
41
1
10
954.585221061747
20
49.6345331255937
30
0
41
1
10
954.590344937576
20
49.6299140928261
30
0
41
1
10
954.601308993375
20
49.6198907698287
30
0
41
1
10
954.6070448201
20
49.6145817229886
30
0
41
1
10
954.624770430714
20
49.5980200946677
30
0
41
1
10
954.637325403221
20
49.5860923002166
30
0
41
1
10
954.650480947162
20
49.5734457846267
30
0
0
SPLINE
5
191
100
AcDbEntity
8
1
62
256
6
ByLayer
370
18
48
1
60
0
100
AcDbSpline
70
4
71
3
72
8
73
4
40
0
40
0
40
0
40
0
40
1
40
1
40
1
40
1
41
1
10
954.650480947162
20
49.5734457846267
30
0
41
1
10
954.875454184538
20
49.3571774519326
30
0
41
1
10
955.100216862249
20
49.1406177487036
30
0
41
1
10
955.32475952642
20
48.9237535927577
30
0
0
SPLINE
5
192
100
AcDbEntity
8
1
62
256
6
ByLayer
370
18
48
1
60
0
100
AcDbSpline
70
4
71
3
72
8
73
4
40
0
40
0
40
0
40
0
40
1
40
1
40
1
40
1
41
1
10
955.32475952642
20
48.94542455475
30
0
41
1
10
955.100327027266
20
49.177033746535
30
0
41
1
10
954.875562708418
20
49.4082128092184
30
0
41
1
10
954.650480947162
20
49.6389803796966
30
0
0
SPLINE
5
193
100
AcDbEntity
8
1
62
256
6
ByLayer
370
18
48
1
60
0
100
AcDbSpline
70
4
71
3
72
36
73
32
40
0
40
0
40
0
40
0
40
0.124999999999996
40
0.124999999999996
40
0.187499999999997
40
0.187499999999997
40
0.249999999999998
40
0.249999999999998
40
0.312499999999999
40
0.312499999999999
40
0.375
40
0.375
40
0.437500000000001
40
0.437500000000001
40
0.500000000000002
40
0.500000000000002
40
0.562500000000003
40
0.562500000000003
40
0.593750000000003
40
0.593750000000003
40
0.625000000000004
40
0.625000000000004
40
0.687500000000003
40
0.687500000000003
40
0.750000000000003
40
0.750000000000003
40
0.812500000000002
40
0.812500000000002
40
0.875000000000002
40
0.875000000000002
40
1
40
1
40
1
40
1
41
1
10
954.650480947162
20
49.6389803796966
30
0
41
1
10
954.637613777944
20
49.6521725875535
30
0
41
1
10
954.625219981924
20
49.664958130869
30
0
41
1
10
954.608051892107
20
49.6828079374732
30
0
41
1
10
954.602547121528
20
49.6885561698197
30
0
41
1
10
954.592032006144
20
49.6995941319583
30
0
41
1
10
954.586988461851
20
49.7049191838168
30
0
41
1
10
954.577667436379
20
49.7148341010412
30
0
41
1
10
954.57340361874
20
49.7194088322727
30
0
41
1
10
954.565767910917
20
49.7276968181442
30
0
41
1
10
954.562378301667
20
49.7314298437316
30
0
41
1
10
954.556742664827
20
49.7377786746802
30
0
41
1
10
954.554537699916
20
49.7403474129816
30
0
41
1
10
954.551460409732
20
49.7441672799396
30
0
41
1
10
954.550599832248
20
49.7454099780301
30
0
41
1
10
954.550385618228
20
49.7463703101331
30
0
41
1
10
954.5510054639
20
49.7461180029686
30
0
41
1
10
954.553033048057
20
49.7446336348541
30
0
41
1
10
954.553898743935
20
49.7439483770481
30
0
41
1
10
954.55595257669
20
49.7422445820428
30
0
41
1
10
954.557142668718
20
49.7412250365868
30
0
41
1
10
954.561172414617
20
49.7376944897496
30
0
41
1
10
954.564472057432
20
49.7347113458474
30
0
41
1
10
954.572191242041
20
49.7275945713957
30
0
41
1
10
954.576505474409
20
49.723558299546
30
0
41
1
10
954.585897533902
20
49.7146841550092
30
0
41
1
10
954.590976612175
20
49.7098449636739
30
0
41
1
10
954.601822543975
20
49.6994455960925
30
0
41
1
10
954.607496229114
20
49.693974666679
30
0
41
1
10
954.625031392684
20
49.6769930253228
30
0
41
1
10
954.637454677588
20
49.6648688160291
30
0
41
1
10
954.650480947162
20
49.6520869063221
30
0
0
SPLINE
5
194
100
AcDbEntity
8
1
62
256
6
ByLayer
370
18
48
1
60
0
100
AcDbSpline
70
4
71
3
72
8
73
4
40
0
40
0
40
0
40
0
40
1
40
1
40
1
40
1
41
1
10
954.650480947162
20
49.6520869063221
30
0
41
1
10
954.875486819227
20
49.4313019207312
30
0
41
1
10
955.100249984338
20
49.210187997719
30
0
41
1
10
955.32475952642
20
48.9887303428789
30
0
0
SPLINE
5
195
100
AcDbEntity
8
1
62
256
6
ByLayer
370
18
48
1
60
0
100
AcDbSpline
70
4
71
3
72
8
73
4
40
0
40
0
40
0
40
0
40
1
40
1
40
1
40
1
41
1
10
955.32475952642
20
48.9959432986269
30
0
41
1
10
955.100286558414
20
49.2223090367092
30
0
41
1
10
954.875522849096
20
49.4482892231451
30
0
41
1
10
954.650480947162
20
49.6739004987441
30
0
0
SPLINE
5
196
100
AcDbEntity
8
1
62
256
6
ByLayer
370
18
48
1
60
0
100
AcDbSpline
70
4
71
3
72
24
73
20
40
0
40
0
40
0
40
0
40
0.125164977701178
40
0.125164977701178
40
0.250329955402356
40
0.250329955402356
40
0.500659910804726
40
0.500659910804726
40
0.625824888505931
40
0.625824888505931
40
0.688407377356534
40
0.688407377356534
40
0.750989866207136
40
0.750989866207136
40
0.876154843908317
40
0.876154843908317
40
0.938737332758908
40
0.938737332758908
40
1
40
1
40
1
40
1
41
1
10
954.650480947162
20
49.6739004987441
30
0
41
1
10
954.643992955581
20
49.6804049054523
30
0
41
1
10
954.637636181189
20
49.6867793477347
30
0
41
1
10
954.625210847247
20
49.6992420527512
30
0
41
1
10
954.619146176302
20
49.7053264300537
30
0
41
1
10
954.601744389061
20
49.7227884282004
30
0
41
1
10
954.591072584738
20
49.7335022487956
30
0
41
1
10
954.576936961534
20
49.7476979729857
30
0
41
1
10
954.572645704744
20
49.7520083043074
30
0
41
1
10
954.56691962021
20
49.7577605651844
30
0
41
1
10
954.565129580502
20
49.7595589239996
30
0
41
1
10
954.561806833647
20
49.7628973043262
30
0
41
1
10
954.560272171239
20
49.7644392911591
30
0
41
1
10
954.55616284662
20
49.7685684174307
30
0
41
1
10
954.554049300942
20
49.7706924154174
30
0
41
1
10
954.551902178127
20
49.7728502205678
30
0
41
1
10
954.551356306606
20
49.773398826124
30
0
41
1
10
954.550649902223
20
49.7741087734598
30
0
41
1
10
954.550478471205
20
49.7742810676108
30
0
41
1
10
954.550480973572
20
49.7742785527101
30
0
0
SPLINE
5
197
100
AcDbEntity
8
1
62
256
6
ByLayer
370
18
48
1
60
0
100
AcDbSpline
70
4
71
3
72
34
73
30
40
0
40
0
40
0
40
0
40
0.0007747478649068
40
0.0007747478649068
40
0.0461940775074137
40
0.0461940775074137
40
0.0916134071499209
40
0.0916134071499209
40
0.182452066434935
40
0.182452066434935
40
0.227871396077442
40
0.227871396077442
40
0.273290725719949
40
0.273290725719949
40
0.364129385004963
40
0.364129385004963
40
0.409548714647469
40
0.409548714647469
40
0.454968044289975
40
0.454968044289975
40
0.545806703574978
40
0.545806703574978
40
0.63664536285998
40
0.63664536285998
40
0.727484022144983
40
0.727484022144983
40
0.818322681429985
40
0.818322681429985
40
1
40
1
40
1
40
1
41
1
10
954.568926092081
20
-29.7557449210109
30
0
41
1
10
954.568893465291
20
-29.7557776968724
30
0
41
1
10
954.568860872938
20
-29.7558104381796
30
0
41
1
10
954.56691962021
20
-29.7577605651915
30
0
41
1
10
954.565129580502
20
-29.7595589240067
30
0
41
1
10
954.561806833646
20
-29.7628973043333
30
0
41
1
10
954.560272171239
20
-29.7644392911663
30
0
41
1
10
954.556162846619
20
-29.7685684174379
30
0
41
1
10
954.554049300942
20
-29.7706924154246
30
0
41
1
10
954.551902178127
20
-29.7728502205749
30
0
41
1
10
954.551356306606
20
-29.7733988261311
30
0
41
1
10
954.550642374049
20
-29.7741163393973
30
0
41
1
10
954.550471167322
20
-29.7742884082775
30
0
41
1
10
954.550501797686
20
-29.7742576238928
30
0
41
1
10
954.551244995422
20
-29.7735106695409
30
0
41
1
10
954.553446264571
20
-29.7712984538536
30
0
41
1
10
954.554361786639
20
-29.7703783986754
30
0
41
1
10
954.556500156567
20
-29.7682295397134
30
0
41
1
10
954.557726962776
20
-29.7669967579319
30
0
41
1
10
954.561850783476
20
-29.7628530861826
30
0
41
1
10
954.565204674615
20
-29.7594833280384
30
0
41
1
10
954.572933903367
20
-29.751718812147
30
0
41
1
10
954.577233363334
20
-29.7474002825832
30
0
41
1
10
954.586565485227
20
-29.7380285412789
30
0
41
1
10
954.591599284107
20
-29.7329741860576
30
0
41
1
10
954.602328233387
20
-29.7222037216229
30
0
41
1
10
954.607940977048
20
-29.7165703469014
30
0
41
1
10
954.62528862224
20
-29.6991628420985
30
0
41
1
10
954.637582161457
20
-29.6868319193962
30
0
41
1
10
954.650480947162
20
-29.6739004987513
30
0
0
SPLINE
5
198
100
AcDbEntity
8
1
62
256
6
ByLayer
370
18
48
1
60
0
100
AcDbSpline
70
4
71
3
72
8
73
4
40
0
40
0
40
0
40
0
40
1
40
1
40
1
40
1
41
1
10
954.650480947162
20
-29.6739004987512
30
0
41
1
10
954.875522849095
20
-29.4482892231523
30
0
41
1
10
955.100286558413
20
-29.2223090367164
30
0
41
1
10
955.324759526419
20
-28.995943298634
30
0
0
SPLINE
5
199
100
AcDbEntity
8
1
62
256
6
ByLayer
370
18
48
1
60
0
100
AcDbSpline
70
4
71
3
72
8
73
4
40
0
40
0
40
0
40
0
40
1
40
1
40
1
40
1
41
1
10
955.324759526419
20
-28.988730342886
30
0
41
1
10
955.100249984337
20
-29.2101879977262
30
0
41
1
10
954.875486819226
20
-29.4313019207383
30
0
41
1
10
954.650480947162
20
-29.6520869063292
30
0
0
SPLINE
5
19A
100
AcDbEntity
8
1
62
256
6
ByLayer
370
18
48
1
60
0
100
AcDbSpline
70
4
71
3
72
38
73
34
40
0
40
0
40
0
40
0
40
0.0624999999999998
40
0.0624999999999998
40
0.125
40
0.125
40
0.1875
40
0.1875
40
0.25
40
0.25
40
0.312499999999999
40
0.312499999999999
40
0.374999999999999
40
0.374999999999999
40
0.437499999999999
40
0.437499999999999
40
0.46875
40
0.46875
40
0.500000000000001
40
0.500000000000001
40
0.562500000000002
40
0.562500000000002
40
0.625000000000004
40
0.625000000000004
40
0.687500000000005
40
0.687500000000005
40
0.750000000000007
40
0.750000000000007
40
0.812500000000009
40
0.812500000000009
40
0.87500000000001
40
0.87500000000001
40
1
40
1
40
1
40
1
41
1
10
954.650480947162
20
-29.6520869063292
30
0
41
1
10
954.643929136608
20
-29.6585158114305
30
0
41
1
10
954.637505188353
20
-29.664802277811
30
0
41
1
10
954.624940100893
20
-29.6770593973062
30
0
41
1
10
954.618813287764
20
-29.6830158733848
30
0
41
1
10
954.607090448675
20
-29.6943665412535
30
0
41
1
10
954.601468397144
20
-29.6997861974922
30
0
41
1
10
954.590766358961
20
-29.7100454680123
30
0
41
1
10
954.585662645022
20
-29.7149075890087
30
0
41
1
10
954.576210122694
20
-29.7238357803473
30
0
41
1
10
954.571917101348
20
-29.7278494915585
30
0
41
1
10
954.564306503146
20
-29.7348616776814
30
0
41
1
10
954.560970388941
20
-29.7378755715436
30
0
41
1
10
954.555637293165
20
-29.7425395587118
30
0
41
1
10
954.553610605183
20
-29.7442181385246
30
0
41
1
10
954.551618740782
20
-29.7456650542124
30
0
41
1
10
954.551133084226
20
-29.7459650957412
30
0
41
1
10
954.550541940155
20
-29.7461865108895
30
0
41
1
10
954.550431387483
20
-29.7461117990397
30
0
41
1
10
954.550640600418
20
-29.7453455867344
30
0
41
1
10
954.551498397542
20
-29.7441148410466
30
0
41
1
10
954.554647012233
20
-29.7402172619542
30
0
41
1
10
954.556884766531
20
-29.7376161136344
30
0
41
1
10
954.562491321593
20
-29.7313051130312
30
0
41
1
10
954.565888053189
20
-29.7275648617893
30
0
41
1
10
954.573619820885
20
-29.719175781219
30
0
41
1
10
954.577903028731
20
-29.714582341853
30
0
41
1
10
954.587175791549
20
-29.7047211284086
30
0
41
1
10
954.592166384284
20
-29.6994523602027
30
0
41
1
10
954.602785683597
20
-29.6883064830146
30
0
41
1
10
954.608343208476
20
-29.6825042200341
30
0
41
1
10
954.625519842097
20
-29.6646480964839
30
0
41
1
10
954.637696147616
20
-29.6520881371413
30
0
41
1
10
954.650480947162
20
-29.6389803797038
30
0
0
SPLINE
5
19B
100
AcDbEntity
8
1
62
256
6
ByLayer
370
18
48
1
60
0
100
AcDbSpline
70
4
71
3
72
8
73
4
40
0
40
0
40
0
40
0
40
1
40
1
40
1
40
1
41
1
10
954.650480947162
20
-29.6389803797038
30
0
41
1
10
954.875562708417
20
-29.4082128092255
30
0
41
1
10
955.100327027265
20
-29.1770337465421
30
0
41
1
10
955.324759526419
20
-28.9454245547571
30
0
0
SPLINE
5
19C
100
AcDbEntity
8
1
62
256
6
ByLayer
370
18
48
1
60
0
100
AcDbSpline
70
4
71
3
72
8
73
4
40
0
40
0
40
0
40
0
40
1
40
1
40
1
40
1
41
1
10
955.324759526419
20
-28.9237535927649
30
0
41
1
10
955.100216862248
20
-29.1406177487108
30
0
41
1
10
954.875454184538
20
-29.3571774519397
30
0
41
1
10
954.650480947162
20
-29.5734457846339
30
0
0
SPLINE
5
19D
100
AcDbEntity
8
1
62
256
6
ByLayer
370
18
48
1
60
0
100
AcDbSpline
70
4
71
3
72
36
73
32
40
0
40
0
40
0
40
0
40
0.0624999999999986
40
0.0624999999999986
40
0.124999999999997
40
0.124999999999997
40
0.187499999999996
40
0.187499999999996
40
0.249999999999995
40
0.249999999999995
40
0.312499999999993
40
0.312499999999993
40
0.374999999999992
40
0.374999999999992
40
0.437499999999991
40
0.437499999999991
40
0.49999999999999
40
0.49999999999999
40
0.562499999999988
40
0.562499999999988
40
0.624999999999987
40
0.624999999999987
40
0.687499999999985
40
0.687499999999985
40
0.749999999999984
40
0.749999999999984
40
0.812499999999983
40
0.812499999999983
40
0.874999999999981
40
0.874999999999981
40
1
40
1
40
1
40
1
41
1
10
954.650480947162
20
-29.5734457846339
30
0
41
1
10
954.643861576876
20
-29.5798090311779
30
0
41
1
10
954.637366430349
20
-29.5860164898967
30
0
41
1
10
954.624652939671
20
-29.5980834546086
30
0
41
1
10
954.618463059238
20
-29.603915575568
30
0
41
1
10
954.606612288931
20
-29.614983391091
30
0
41
1
10
954.600927729747
20
-29.6202416918162
30
0
41
1
10
954.590108985264
20
-29.6301272896769
30
0
41
1
10
954.584937687374
20
-29.6347873942619
30
0
41
1
10
954.5754598459
20
-29.6431667953522
30
0
41
1
10
954.571164946839
20
-29.6468772491414
30
0
41
1
10
954.563583021689
20
-29.6532090003695
30
0
41
1
10
954.560298665706
20
-29.6558244300152
30
0
41
1
10
954.555121202073
20
-29.6596244183479
30
0
41
1
10
954.553186399146
20
-29.6608451052157
30
0
41
1
10
954.550748812835
20
-29.6617979895198
30
0
41
1
10
954.550292645043
20
-29.6615104606482
30
0
41
1
10
954.550807804347
20
-29.6595111126006
30
0
41
1
10
954.551788019542
20
-29.6577851270024
30
0
41
1
10
954.55512081954
20
-29.6529802150849
30
0
41
1
10
954.557424579156
20
-29.6499671137394
30
0
41
1
10
954.563128914111
20
-29.6428904928508
30
0
41
1
10
954.566560543307
20
-29.6387913869381
30
0
41
1
10
954.574289091073
20
-29.6297944827542
30
0
41
1
10
954.578554403682
20
-29.6249315153755
30
0
41
1
10
954.587766553133
20
-29.6145868638112
30
0
41
1
10
954.592714336074
20
-29.609104318035
30
0
41
1
10
954.603226704996
20
-29.59758004701
30
0
41
1
10
954.60873092337
20
-29.5916047976087
30
0
41
1
10
954.625742331052
20
-29.5732843004701
30
0
41
1
10
954.637805656822
20
-29.5604794817723
30
0
41
1
10
954.650480947162
20
-29.5471762620326
30
0
0
SPLINE
5
19E
100
AcDbEntity
8
1
62
256
6
ByLayer
370
18
48
1
60
0
100
AcDbSpline
70
4
71
3
72
8
73
4
40
0
40
0
40
0
40
0
40
1
40
1
40
1
40
1
41
1
10
954.650480947162
20
-29.5471762620326
30
0
41
1
10
954.875606912156
20
-29.3108976363558
30
0
41
1
10
955.100371915989
20
-29.0741620896782
30
0
41
1
10
955.324759526419
20
-28.8369488213258
30
0
0
SPLINE
5
19F
100
AcDbEntity
8
1
62
256
6
ByLayer
370
18
48
1
60
0
100
AcDbSpline
70
4
71
3
72
8
73
4
40
0
40
0
40
0
40
0
40
1
40
1
40
1
40
1
41
1
10
955.324759526419
20
-28.8007228508732
30
0
41
1
10
955.100186818473
20
-29.013291332075
30
0
41
1
10
954.875424578535
20
-29.2255922788944
30
0
41
1
10
954.650480947162
20
-29.4376371821592
30
0
0
SPLINE
5
1A0
100
AcDbEntity
8
1
62
256
6
ByLayer
370
18
48
1
60
0
100
AcDbSpline
70
4
71
3
72
41
73
37
40
0
40
0
40
0
40
0
40
0.0625000000000022
40
0.0625000000000022
40
0.125000000000005
40
0.125000000000005
40
0.187500000000007
40
0.187500000000007
40
0.250000000000009
40
0.250000000000009
40
0.312500000000012
40
0.312500000000012
40
0.343750000000015
40
0.343750000000015
40
0.375000000000018
40
0.406250000000021
40
0.406250000000021
40
0.437500000000025
40
0.437500000000025
40
0.500000000000024
40
0.500000000000024
40
0.531250000000024
40
0.531250000000024
40
0.562500000000025
40
0.562500000000025
40
0.625000000000018
40
0.625000000000018
40
0.687500000000011
40
0.687500000000011
40
0.750000000000004
40
0.750000000000004
40
0.812499999999997
40
0.812499999999997
40
0.874999999999991
40
0.874999999999991
40
1
40
1
40
1
40
1
41
1
10
954.650480947162
20
-29.4376371821592
30
0
41
1
10
954.643789827378
20
-29.4439446194434
30
0
41
1
10
954.637218955096
20
-29.450081931203
30
0
41
1
10
954.62434727948
20
-29.4619735832985
30
0
41
1
10
954.6180935358
20
-29.4676840146889
30
0
41
1
10
954.606107362141
20
-29.4784754584127
30
0
41
1
10
954.600356381956
20
-29.4835738096058
30
0
41
1
10
954.589413347495
20
-29.4930827448713
30
0
41
1
10
954.584184019677
20
-29.4975233504347
30
0
41
1
10
954.574681611266
20
-29.5053390965638
30
0
41
1
10
954.570385834348
20
-29.5087359865939
30
0
41
1
10
954.5647246116
20
-29.5129523180947
30
0
41
1
10
954.562965292556
20
-29.5142121861559
30
0
41
1
10
954.559794491274
20
-29.5163695240653
30
0
41
1
10
954.556952724985
20
-29.5181790848025
30
0
41
1
10
954.554782892432
20
-29.5192781340984
30
0
41
1
10
954.552961882831
20
-29.5200081993687
30
0
41
1
10
954.552222729554
20
-29.5201880675173
30
0
41
1
10
954.550584526142
20
-29.5201467770176
30
0
41
1
10
954.550254050918
20
-29.5193608526248
30
0
41
1
10
954.550815979738
20
-29.5171285061315
30
0
41
1
10
954.551180438818
20
-29.5162079459734
30
0
41
1
10
954.552258911481
20
-29.5140186465004
30
0
41
1
10
954.552978831786
20
-29.5127409718411
30
0
41
1
10
954.555605025028
20
-29.5084766154816
30
0
41
1
10
954.557971548925
20
-29.5050584661203
30
0
41
1
10
954.563764136901
20
-29.4972326341341
30
0
41
1
10
954.567223412479
20
-29.4927847342465
30
0
41
1
10
954.574943660529
20
-29.4831922683421
30
0
41
1
10
954.579189648214
20
-29.4780631908416
30
0
41
1
10
954.58834012936
20
-29.4672376716675
30
0
41
1
10
954.593245484313
20
-29.4615404856669
30
0
41
1
10
954.603653382715
20
-29.4496322946189
30
0
41
1
10
954.609105870789
20
-29.4434790550156
30
0
41
1
10
954.625957119466
20
-29.4246758382714
30
0
41
1
10
954.637911203954
20
-29.4116091659553
30
0
41
1
10
954.650480947162
20
-29.3980905001499
30
0
0
SPLINE
5
1A1
100
AcDbEntity
8
1
62
256
6
ByLayer
370
18
48
1
60
0
100
AcDbSpline
70
4
71
3
72
8
73
4
40
0
40
0
40
0
40
0
40
1
40
1
40
1
40
1
41
1
10
954.650480947162
20
-29.3980905001499
30
0
41
1
10
954.875656072682
20
-29.1559163189284
30
0
41
1
10
955.100421849062
20
-28.9132366582302
30
0
41
1
10
955.324759526419
20
-28.6700283650048
30
0
0
SPLINE
5
1A2
100
AcDbEntity
8
1
62
256
6
ByLayer
370
18
48
1
60
0
100
AcDbSpline
70
4
71
3
72
8
73
4
40
0
40
0
40
0
40
0
40
1
40
1
40
1
40
1
41
1
10
955.324759526419
20
-28.6190832846959
30
0
41
1
10
955.100159538353
20
-28.8276408850808
30
0
41
1
10
954.875397692611
20
-29.0359656536747
30
0
41
1
10
954.650480947162
20
-29.244067599497
30
0
0
SPLINE
5
1A3
100
AcDbEntity
8
1
62
256
6
ByLayer
370
18
48
1
60
0
100
AcDbSpline
70
4
71
3
72
38
73
34
40
0
40
0
40
0
40
0
40
0.0625000000000075
40
0.0625000000000075
40
0.125000000000015
40
0.125000000000015
40
0.187500000000023
40
0.187500000000023
40
0.25000000000003
40
0.25000000000003
40
0.312500000000038
40
0.312500000000038
40
0.375000000000045
40
0.375000000000045
40
0.437500000000053
40
0.437500000000053
40
0.50000000000006
40
0.50000000000006
40
0.531250000000062
40
0.531250000000062
40
0.562500000000063
40
0.562500000000063
40
0.625000000000054
40
0.625000000000054
40
0.687500000000044
40
0.687500000000044
40
0.750000000000035
40
0.750000000000035
40
0.812500000000025
40
0.812500000000025
40
0.875000000000016
40
0.875000000000016
40
1
40
1
40
1
40
1
41
1
10
954.650480947162
20
-29.244067599497
30
0
41
1
10
954.64372845128
20
-29.2503152780741
30
0
41
1
10
954.637100409157
20
-29.2563697479732
30
0
41
1
10
954.62412368693
20
-29.2680440732018
30
0
41
1
10
954.617745477757
20
-29.2736889978756
30
0
41
1
10
954.605572354839
20
-29.2842467375692
30
0
41
1
10
954.59975373123
20
-29.2891819781868
30
0
41
1
10
954.588726951699
20
-29.2982681837827
30
0
41
1
10
954.583481442669
20
-29.3024477815667
30
0
41
1
10
954.573910177459
20
-29.3097174775066
30
0
41
1
10
954.569622162567
20
-29.3127817063955
30
0
41
1
10
954.562157771083
20
-29.3176338321132
30
0
41
1
10
954.55898747213
20
-29.3194085766197
30
0
41
1
10
954.554143460906
20
-29.3214038764115
30
0
41
1
10
954.552422427442
20
-29.3216581879013
30
0
41
1
10
954.550455117484
20
-29.3206018180876
30
0
41
1
10
954.550243884553
20
-29.3193050943986
30
0
41
1
10
954.550982658891
20
-29.316325515369
30
0
41
1
10
954.551405206045
20
-29.3151586229214
30
0
41
1
10
954.552593932277
20
-29.3124862285563
30
0
41
1
10
954.553362763968
20
-29.3109777520916
30
0
41
1
10
954.556109414206
20
-29.3060645471711
30
0
41
1
10
954.558534589433
20
-29.3022483460978
30
0
41
1
10
954.564407830725
20
-29.2936851695804
30
0
41
1
10
954.567888426679
20
-29.2888969459937
30
0
41
1
10
954.575595825129
20
-29.2787176483923
30
0
41
1
10
954.579821015287
20
-29.2733245181227
30
0
41
1
10
954.588908204481
20
-29.2620186187011
30
0
41
1
10
954.593770985792
20
-29.2561052096607
30
0
41
1
10
954.604075389043
20
-29.2438067086754
30
0
41
1
10
954.609476561967
20
-29.2374706117851
30
0
41
1
10
954.626169439039
20
-29.2181667321391
30
0
41
1
10
954.638015515148
20
-29.2048221413044
30
0
41
1
10
954.650480947162
20
-29.1910693885192
30
0
0
SPLINE
5
1A4
100
AcDbEntity
8
1
62
256
6
ByLayer
370
18
48
1
60
0
100
AcDbSpline
70
4
71
3
72
8
73
4
40
0
40
0
40
0
40
0
40
1
40
1
40
1
40
1
41
1
10
954.650480947162
20
-29.1910693885192
30
0
41
1
10
954.875710921388
20
-28.9425796328497
30
0
41
1
10
955.100477572429
20
-28.6935323780941
30
0
41
1
10
955.324759526419
20
-28.4439019058976
30
0
0
SPLINE
5
1A5
100
AcDbEntity
8
1
62
256
6
ByLayer
370
18
48
1
60
0
100
AcDbSpline
70
4
71
3
72
8
73
4
40
0
40
0
40
0
40
0
40
1
40
1
40
1
40
1
41
1
10
955.324759526419
20
-28.3780027326889
30
0
41
1
10
955.100134758695
20
-28.5828247827923
30
0
41
1
10
954.87537326867
20
-28.7874465987384
30
0
41
1
10
954.650480947162
20
-28.9918768078194
30
0
0
SPLINE
5
1A6
100
AcDbEntity
8
1
62
256
6
ByLayer
370
18
48
1
60
0
100
AcDbSpline
70
4
71
3
72
39
73
35
40
0
40
0
40
0
40
0
40
0.0625000000000075
40
0.0625000000000075
40
0.125000000000015
40
0.125000000000015
40
0.187500000000023
40
0.21875000000002
40
0.21875000000002
40
0.250000000000017
40
0.250000000000017
40
0.312500000000004
40
0.312500000000004
40
0.34375
40
0.34375
40
0.374999999999996
40
0.374999999999996
40
0.437499999999995
40
0.437499999999995
40
0.499999999999994
40
0.499999999999994
40
0.562499999999993
40
0.562499999999993
40
0.624999999999992
40
0.624999999999992
40
0.68749999999999
40
0.68749999999999
40
0.74999999999999
40
0.74999999999999
40
0.812499999999989
40
0.812499999999989
40
0.874999999999988
40
0.874999999999988
40
1
40
1
40
1
40
1
41
1
10
954.650480947162
20
-28.9918768078194
30
0
41
1
10
954.643649816008
20
-28.9980863998619
30
0
41
1
10
954.636939876118
20
-29.0040848981986
30
0
41
1
10
954.62379409486
20
-29.0156034769036
30
0
41
1
10
954.617329524037
20
-29.0211466660569
30
0
41
1
10
954.60500457436
20
-29.0314331456127
30
0
41
1
10
954.596170860155
20
-29.0385879655076
30
0
41
1
10
954.588043501615
20
-29.0447762501992
30
0
41
1
10
954.582799159831
20
-29.0486635998137
30
0
41
1
10
954.580261275681
20
-29.0504895324314
30
0
41
1
10
954.57307316197
20
-29.0554782834931
30
0
41
1
10
954.568796021074
20
-29.0581931833881
30
0
41
1
10
954.563246780281
20
-29.0612361765678
30
0
41
1
10
954.561536475688
20
-29.0620795181002
30
0
41
1
10
954.558494467645
20
-29.0633678275481
30
0
41
1
10
954.557153433632
20
-29.063818763974
30
0
41
1
10
954.553669051602
20
-29.0645929219418
30
0
41
1
10
954.552056552373
20
-29.0643342833391
30
0
41
1
10
954.550349770293
20
-29.0622352523391
30
0
41
1
10
954.550266748369
20
-29.0604319068588
30
0
41
1
10
954.551482464078
20
-29.0554724971616
30
0
41
1
10
954.552807090344
20
-29.0522747607941
30
0
41
1
10
954.556617305382
20
-29.0448740310564
30
0
41
1
10
954.559095608098
20
-29.0406658108681
30
0
41
1
10
954.565040094203
20
-29.0313742977486
30
0
41
1
10
954.568535454867
20
-29.0262527511263
30
0
41
1
10
954.576225971422
20
-29.0154898781539
30
0
41
1
10
954.580429458384
20
-29.0098318917324
30
0
41
1
10
954.58945328218
20
-28.998040238147
30
0
41
1
10
954.594274329537
20
-28.9919060219631
30
0
41
1
10
954.604478490774
20
-28.9792047526212
30
0
41
1
10
954.60983025929
20
-28.97267768367
30
0
41
1
10
954.626371344678
20
-28.9528455608853
30
0
41
1
10
954.638114394109
20
-28.9392005548751
30
0
41
1
10
954.650480947162
20
-28.9251885618227
30
0
0
SPLINE
5
1A7
100
AcDbEntity
8
1
62
256
6
ByLayer
370
18
48
1
60
0
100
AcDbSpline
70
4
71
3
72
8
73
4
40
0
40
0
40
0
40
0
40
1
40
1
40
1
40
1
41
1
10
954.650480947162
20
-28.9251885618227
30
0
41
1
10
954.875772336775
20
-28.6699208754631
30
0
41
1
10
955.100539982182
20
-28.4140398201444
30
0
41
1
10
955.324759526419
20
-28.157516870864
30
0
0
SPLINE
5
1A8
100
AcDbEntity
8
1
62
256
6
ByLayer
370
18
48
1
60
0
100
AcDbSpline
70
4
71
3
72
8
73
4
40
0
40
0
40
0
40
0
40
1
40
1
40
1
40
1
41
1
10
955.324759526419
20
-28.076352159185
30
0
41
1
10
955.10011226246
20
-28.2777080605208
30
0
41
1
10
954.875351093927
20
-28.4788942959968
30
0
41
1
10
954.650480947162
20
-28.6799182036161
30
0
0
SPLINE
5
1A9
100
AcDbEntity
8
1
62
256
6
ByLayer
370
18
48
1
60
0
100
AcDbSpline
70
4
71
3
72
39
73
35
40
0
40
0
40
0
40
0
40
0.0625000000000073
40
0.0625000000000073
40
0.125000000000015
40
0.125000000000015
40
0.187500000000022
40
0.187500000000022
40
0.250000000000029
40
0.250000000000029
40
0.312500000000037
40
0.312500000000037
40
0.343750000000035
40
0.343750000000035
40
0.375000000000034
40
0.406250000000033
40
0.406250000000033
40
0.437500000000032
40
0.437500000000032
40
0.500000000000026
40
0.500000000000026
40
0.56250000000002
40
0.56250000000002
40
0.625000000000014
40
0.625000000000014
40
0.687500000000008
40
0.687500000000008
40
0.750000000000003
40
0.750000000000003
40
0.812499999999997
40
0.812499999999997
40
0.874999999999991
40
0.874999999999991
40
1
40
1
40
1
40
1
41
1
10
954.650480947162
20
-28.6799182036161
30
0
41
1
10
954.643565670207
20
-28.6861001535798
30
0
41
1
10
954.636767958279
20
-28.6920515537818
30
0
41
1
10
954.623440603724
20
-28.7034275935089
30
0
41
1
10
954.616884406301
20
-28.7088721754177
30
0
41
1
10
954.604398622936
20
-28.7188868920213
30
0
41
1
10
954.598434748364
20
-28.7234879620174
30
0
41
1
10
954.587153092628
20
-28.7317476409326
30
0
41
1
10
954.581791671356
20
-28.7354314199248
30
0
41
1
10
954.57220014428
20
-28.7414310137349
30
0
41
1
10
954.567937897278
20
-28.7437756283189
30
0
41
1
10
954.562446528504
20
-28.7461833400729
30
0
41
1
10
954.560777044586
20
-28.7467940813689
30
0
41
1
10
954.55782690296
20
-28.7476061378703
30
0
41
1
10
954.555244355805
20
-28.7480185490041
30
0
41
1
10
954.553393590677
20
-28.7476349748072
30
0
41
1
10
954.551913285669
20
-28.7468482588732
30
0
41
1
10
954.551357623986
20
-28.7462472908016
30
0
41
1
10
954.550279242778
20
-28.7438835683568
30
0
41
1
10
954.550321569501
20
-28.7415681457109
30
0
41
1
10
954.551764791943
20
-28.7356166534175
30
0
41
1
10
954.553188119923
20
-28.7319483379158
30
0
41
1
10
954.55713693466
20
-28.723706998994
30
0
41
1
10
954.559664092804
20
-28.7191100234253
30
0
41
1
10
954.56567236527
20
-28.7090941781136
30
0
41
1
10
954.569176780373
20
-28.7036445049478
30
0
41
1
10
954.576846793474
20
-28.6922976930126
30
0
41
1
10
954.581027573092
20
-28.6863726161789
30
0
41
1
10
954.589987298538
20
-28.6740875503026
30
0
41
1
10
954.594766888769
20
-28.6677270920028
30
0
41
1
10
954.604872535492
20
-28.654609399292
30
0
41
1
10
954.610175638582
20
-28.6478831927288
30
0
41
1
10
954.626568177246
20
-28.6274949403971
30
0
41
1
10
954.638210626847
20
-28.6135273820376
30
0
41
1
10
954.650480947162
20
-28.5992317194421
30
0
0
SPLINE
5
1AA
100
AcDbEntity
8
1
62
256
6
ByLayer
370
18
48
1
60
0
100
AcDbSpline
70
4
71
3
72
8
73
4
40
0
40
0
40
0
40
0
40
1
40
1
40
1
40
1
41
1
10
954.650480947162
20
-28.5992317194421
30
0
41
1
10
954.875841381203
20
-28.3366732332196
30
0
41
1
10
955.100610162108
20
-28.0734412000358
30
0
41
1
10
955.324759526419
20
-27.8095040135449
30
0
0
SPLINE
5
1AB
100
AcDbEntity
8
1
62
256
6
ByLayer
370
18
48
1
60
0
100
AcDbSpline
70
4
71
3
72
8
73
4
40
0
40
0
40
0
40
0
40
1
40
1
40
1
40
1
41
1
10
955.324759526419
20
-27.7126781566925
30
0
41
1
10
955.100091875538
20
-27.9108350221828
30
0
41
1
10
954.875330997764
20
-28.1088507984728
30
0
41
1
10
954.650480947162
20
-28.3067316209658
30
0
0
SPLINE
5
1AC
100
AcDbEntity
8
1
62
256
6
ByLayer
370
18
48
1
60
0
100
AcDbSpline
70
4
71
3
72
37
73
33
40
0
40
0
40
0
40
0
40
0.125000000000026
40
0.125000000000026
40
0.187500000000042
40
0.187500000000042
40
0.250000000000059
40
0.250000000000059
40
0.281250000000062
40
0.281250000000062
40
0.312500000000066
40
0.312500000000066
40
0.37500000000006
40
0.37500000000006
40
0.406250000000055
40
0.406250000000055
40
0.437500000000051
40
0.468750000000047
40
0.468750000000047
40
0.500000000000042
40
0.500000000000042
40
0.56250000000004
40
0.56250000000004
40
0.625000000000038
40
0.625000000000038
40
0.750000000000017
40
0.750000000000017
40
0.81250000000001
40
0.81250000000001
40
0.875000000000003
40
0.875000000000003
40
1
40
1
40
1
40
1
41
1
10
954.650480947162
20
-28.3067316209658
30
0
41
1
10
954.636434348546
20
-28.3190934259992
30
0
41
1
10
954.622684144744
20
-28.3305755129956
30
0
41
1
10
954.603740983902
20
-28.3451515835846
30
0
41
1
10
954.597681322127
20
-28.3495918520563
30
0
41
1
10
954.586175983843
20
-28.3574618631552
30
0
41
1
10
954.580824061649
20
-28.3608228884784
30
0
41
1
10
954.573631711154
20
-28.3647965825521
30
0
41
1
10
954.571365558743
20
-28.3659483306806
30
0
41
1
10
954.56711602258
20
-28.3678793623773
30
0
41
1
10
954.565139546047
20
-28.3686536445405
30
0
41
1
10
954.559790367902
20
-28.3703431403812
30
0
41
1
10
954.55694299365
20
-28.3706534827801
30
0
41
1
10
954.55377529388
20
-28.3698649339535
30
0
41
1
10
954.552902852081
20
-28.3693868595139
30
0
41
1
10
954.551567127181
20
-28.3680365444789
30
0
41
1
10
954.550625914068
20
-28.3662932037985
30
0
41
1
10
954.550427969755
20
-28.3638090934357
30
0
41
1
10
954.550586691818
20
-28.360969398638
30
0
41
1
10
954.550847153054
20
-28.3593620344504
30
0
41
1
10
954.552128115042
20
-28.3541016838409
30
0
41
1
10
954.553632975142
20
-28.3500279803571
30
0
41
1
10
954.557731407684
20
-28.3409322344708
30
0
41
1
10
954.560345942881
20
-28.3358755729774
30
0
41
1
10
954.569522298348
20
-28.3196631123407
30
0
41
1
10
954.577273902087
20
-28.3076605852993
30
0
41
1
10
954.590742460645
20
-28.2883132435705
30
0
41
1
10
954.595545182315
20
-28.281638882065
30
0
41
1
10
954.60551471688
20
-28.2681539458291
30
0
41
1
10
954.610706360542
20
-28.2613074336324
30
0
41
1
10
954.626837296547
20
-28.2404889673631
30
0
41
1
10
954.638326658489
20
-28.2262410615863
30
0
41
1
10
954.650480947162
20
-28.2116614934356
30
0
0
SPLINE
5
1AD
100
AcDbEntity
8
1
62
256
6
ByLayer
370
18
48
1
60
0
100
AcDbSpline
70
4
71
3
72
8
73
4
40
0
40
0
40
0
40
0
40
1
40
1
40
1
40
1
41
1
10
954.650480947162
20
-28.2116614934356
30
0
41
1
10
954.875919349475
20
-27.9412388764654
30
0
41
1
10
955.100689433321
20
-27.6700776853982
30
0
41
1
10
955.324759526419
20
-27.3981429184694
30
0
0
SPLINE
5
1AE
100
AcDbEntity
8
1
62
256
6
ByLayer
370
18
48
1
60
0
100
AcDbSpline
70
4
71
3
72
8
73
4
40
0
40
0
40
0
40
0
40
1
40
1
40
1
40
1
41
1
10
955.324759526419
20
-27.2851658672758
30
0
41
1
10
955.100073465688
20
-27.4803924257773
30
0
41
1
10
954.875312850704
20
-27.6755044747956
30
0
41
1
10
954.650480947162
20
-27.8705070301807
30
0
0
SPLINE
5
1AF
100
AcDbEntity
8
1
62
256
6
ByLayer
370
18
48
1
60
0
100
AcDbSpline
70
4
71
3
72
32
73
28
40
0
40
0
40
0
40
0
40
0.12500000000002
40
0.12500000000002
40
0.187500000000025
40
0.187500000000025
40
0.25000000000003
40
0.25000000000003
40
0.312500000000035
40
0.312500000000035
40
0.37500000000004
40
0.37500000000004
40
0.437500000000045
40
0.437500000000045
40
0.500000000000049
40
0.500000000000049
40
0.562500000000054
40
0.562500000000054
40
0.625000000000059
40
0.625000000000059
40
0.750000000000054
40
0.750000000000054
40
0.812500000000046
40
0.812500000000046
40
0.875000000000037
40
0.875000000000037
40
1
40
1
40
1
40
1
41
1
10
954.650480947162
20
-27.8705070301807
30
0
41
1
10
954.636234281933
20
-27.8828635333349
30
0
41
1
10
954.6222720291
20
-27.8942370014661
30
0
41
1
10
954.603041341368
20
-27.9084037119831
30
0
41
1
10
954.596877626057
20
-27.9126751304902
30
0
41
1
10
954.585212070515
20
-27.920073970378
30
0
41
1
10
954.579867390106
20
-27.9231015656132
30
0
41
1
10
954.570260486788
20
-27.9276645223802
30
0
41
1
10
954.565983386601
20
-27.9291881051208
30
0
41
1
10
954.559020225395
20
-27.9304583778264
30
0
41
1
10
954.556271803434
20
-27.9302425924003
30
0
41
1
10
954.552281702232
20
-27.9280601592801
30
0
41
1
10
954.551108578858
20
-27.926123507339
30
0
41
1
10
954.550240329219
20
-27.9207976984599
30
0
41
1
10
954.550554317411
20
-27.9173566244684
30
0
41
1
10
954.552472664617
20
-27.9093819360959
30
0
41
1
10
954.554059334109
20
-27.9048572385083
30
0
41
1
10
954.558290820106
20
-27.8949013777098
30
0
41
1
10
954.560960907686
20
-27.8894275990721
30
0
41
1
10
954.570180192808
20
-27.8721826792514
30
0
41
1
10
954.577905931235
20
-27.8595783606285
30
0
41
1
10
954.591306663101
20
-27.8394028365457
30
0
41
1
10
954.596052720322
20
-27.8325074939987
30
0
41
1
10
954.605920165942
20
-27.8185834822323
30
0
41
1
10
954.61105946436
20
-27.8115280959758
30
0
41
1
10
954.627034217252
20
-27.7901096413232
30
0
41
1
10
954.638420721075
20
-27.7754969036418
30
0
41
1
10
954.650480947162
20
-27.7605807535667
30
0
0
SPLINE
5
1B0
100
AcDbEntity
8
1
62
256
6
ByLayer
370
18
48
1
60
0
100
AcDbSpline
70
4
71
3
72
8
73
4
40
0
40
0
40
0
40
0
40
1
40
1
40
1
40
1
41
1
10
954.650480947162
20
-27.7605807535667
30
0
41
1
10
954.876007833843
20
-27.4816479322855
30
0
41
1
10
955.100779420665
20
-27.2019060176555
30
0
41
1
10
955.324759526419
20
-26.9213162515946
30
0
0
SPLINE
5
1B1
100
AcDbEntity
8
1
62
256
6
ByLayer
370
18
48
1
60
0
100
AcDbSpline
70
4
71
3
72
8
73
4
40
0
40
0
40
0
40
0
40
1
40
1
40
1
40
1
41
1
10
955.324759526419
20
-26.7915899867111
30
0
41
1
10
955.100056943949
20
-26.9841609443879
30
0
41
1
10
954.875296565803
20
-27.1766419188758
30
0
41
1
10
954.650480947162
20
-27.3690368883817
30
0
0
SPLINE
5
1B2
100
AcDbEntity
8
1
62
256
6
ByLayer
370
18
48
1
60
0
100
AcDbSpline
70
4
71
3
72
36
73
32
40
0
40
0
40
0
40
0
40
0.0624999999999989
40
0.0624999999999989
40
0.124999999999998
40
0.15625
40
0.15625
40
0.187500000000003
40
0.187500000000003
40
0.250000000000009
40
0.250000000000009
40
0.281250000000012
40
0.281250000000012
40
0.312500000000015
40
0.343750000000017
40
0.343750000000017
40
0.37500000000002
40
0.37500000000002
40
0.437500000000023
40
0.437500000000023
40
0.500000000000026
40
0.500000000000026
40
0.562500000000028
40
0.562500000000028
40
0.625000000000031
40
0.625000000000031
40
0.750000000000021
40
0.750000000000021
40
0.87500000000001
40
0.87500000000001
40
1
40
1
40
1
40
1
41
1
10
954.650480947162
20
-27.3690368883817
30
0
41
1
10
954.643249714483
20
-27.3752253053566
30
0
41
1
10
954.636077823144
20
-27.3811471155811
30
0
41
1
10
954.622085773985
20
-27.3921897224183
30
0
41
1
10
954.611926704036
20
-27.3998182040402
30
0
41
1
10
954.602346973408
20
-27.4063145361063
30
0
41
1
10
954.596103638393
20
-27.4103653755412
30
0
41
1
10
954.59303795241
20
-27.4122597966172
30
0
41
1
10
954.584225274919
20
-27.4173888752841
30
0
41
1
10
954.578851597408
20
-27.4200840150901
30
0
41
1
10
954.571634754001
20
-27.4229062041713
30
0
41
1
10
954.569359534909
20
-27.4236437101785
30
0
41
1
10
954.565211947473
20
-27.4246546115876
30
0
41
1
10
954.561445073551
20
-27.4252136766889
30
0
41
1
10
954.558430890617
20
-27.4248788299815
30
0
41
1
10
954.555795468182
20
-27.4240938645208
30
0
41
1
10
954.554661592374
20
-27.4234699984553
30
0
41
1
10
954.551889166034
20
-27.4209566715723
30
0
41
1
10
954.550868754605
20
-27.4184523607108
30
0
41
1
10
954.550275288545
20
-27.4119933361881
30
0
41
1
10
954.550721893425
20
-27.408003794209
30
0
41
1
10
954.552842383139
20
-27.3990610459643
30
0
41
1
10
954.554507976578
20
-27.3940795165481
30
0
41
1
10
954.558867678094
20
-27.3832492981057
30
0
41
1
10
954.56157817611
20
-27.3773768504241
30
0
41
1
10
954.570835643931
20
-27.3590812450132
30
0
41
1
10
954.578535776747
20
-27.3458546061981
30
0
41
1
10
954.596314116489
20
-27.3178014872043
30
0
41
1
10
954.606131657693
20
-27.3033911391399
30
0
41
1
10
954.627227367207
20
-27.2739764494219
30
0
41
1
10
954.638512985704
20
-27.2589676907554
30
0
41
1
10
954.650480947162
20
-27.2436819286756
30
0
0
SPLINE
5
1B3
100
AcDbEntity
8
1
62
256
6
ByLayer
370
18
48
1
60
0
100
AcDbSpline
70
4
71
3
72
8
73
4
40
0
40
0
40
0
40
0
40
1
40
1
40
1
40
1
41
1
10
954.650480947162
20
-27.2436819286756
30
0
41
1
10
954.876108812168
20
-26.9555047085872
30
0
41
1
10
955.100882142788
20
-26.6664416139618
30
0
41
1
10
955.324759526419
20
-26.3764497133827
30
0
0
SPLINE
5
1B4
100
AcDbEntity
8
1
62
256
6
ByLayer
370
18
48
1
60
0
100
AcDbSpline
70
4
71
3
72
8
73
4
40
0
40
0
40
0
40
0
40
1
40
1
40
1
40
1
41
1
10
955.324759526419
20
-26.2292505270294
30
0
41
1
10
955.100042276567
20
-26.419451628107
30
0
41
1
10
954.875282095914
20
-26.6095851173217
30
0
41
1
10
954.650480947162
20
-26.7996539821708
30
0
0
SPLINE
5
1B5
100
AcDbEntity
8
1
62
256
6
ByLayer
370
18
48
1
60
0
100
AcDbSpline
70
4
71
3
72
41
73
37
40
0
40
0
40
0
40
0
40
0.0625000000000138
40
0.0625000000000138
40
0.125000000000028
40
0.125000000000028
40
0.156250000000031
40
0.156250000000031
40
0.187500000000035
40
0.187500000000035
40
0.250000000000034
40
0.250000000000034
40
0.281250000000031
40
0.281250000000031
40
0.312500000000029
40
0.343750000000026
40
0.343750000000026
40
0.375000000000024
40
0.375000000000024
40
0.437500000000009
40
0.437500000000009
40
0.468750000000001
40
0.468750000000001
40
0.499999999999994
40
0.499999999999994
40
0.56249999999999
40
0.56249999999999
40
0.624999999999986
40
0.624999999999986
40
0.687499999999982
40
0.687499999999982
40
0.749999999999978
40
0.749999999999978
40
0.874999999999989
40
0.874999999999989
40
1
40
1
40
1
40
1
41
1
10
954.650480947162
20
-26.7996539821708
30
0
41
1
10
954.643132814528
20
-26.8058668117589
30
0
41
1
10
954.635827575393
20
-26.8117909739253
30
0
41
1
10
954.621605902949
20
-26.822724983295
30
0
41
1
10
954.614716228903
20
-26.8277179573619
30
0
41
1
10
954.604769455394
20
-26.8343749033616
30
0
41
1
10
954.601518811293
20
-26.8364544297714
30
0
41
1
10
954.595162320771
20
-26.8403022424566
30
0
41
1
10
954.592053940993
20
-26.8420702349746
30
0
41
1
10
954.583171328184
20
-26.8467482580463
30
0
41
1
10
954.577766713453
20
-26.8490816564788
30
0
41
1
10
954.570540750932
20
-26.8512416986653
30
0
41
1
10
954.568299025619
20
-26.8517288580634
30
0
41
1
10
954.564232868762
20
-26.8522210534084
30
0
41
1
10
954.560556108365
20
-26.8522399818453
30
0
41
1
10
954.557650041485
20
-26.8513215483661
30
0
41
1
10
954.555132369323
20
-26.8499303994843
30
0
41
1
10
954.554071962262
20
-26.848994760041
30
0
41
1
10
954.55153650727
20
-26.8455806111735
30
0
41
1
10
954.550663532211
20
-26.8424833733728
30
0
41
1
10
954.550428156138
20
-26.8367572208227
30
0
41
1
10
954.550532237907
20
-26.8346601455085
30
0
41
1
10
954.551069752659
20
-26.830212035681
30
0
41
1
10
954.551501874434
20
-26.8278524641925
30
0
41
1
10
954.553238523169
20
-26.8204083706294
30
0
41
1
10
954.554980493115
20
-26.8149608133803
30
0
41
1
10
954.559463958018
20
-26.8032357591439
30
0
41
1
10
954.562200078768
20
-26.7969839722476
30
0
41
1
10
954.568394513364
20
-26.7840675591776
30
0
41
1
10
954.571867320086
20
-26.7773661306283
30
0
41
1
10
954.579464196195
20
-26.7635416679878
30
0
41
1
10
954.583605151618
20
-26.7563916134454
30
0
41
1
10
954.596808167912
20
-26.7345492063818
30
0
41
1
10
954.606522566076
20
-26.7196504000964
30
0
41
1
10
954.627417696417
20
-26.6893135185827
30
0
41
1
10
954.63860393047
20
-26.6738733994749
30
0
41
1
10
954.650480947162
20
-26.6581809199814
30
0
0
SPLINE
5
1B6
100
AcDbEntity
8
1
62
256
6
ByLayer
370
18
48
1
60
0
100
AcDbSpline
70
4
71
3
72
8
73
4
40
0
40
0
40
0
40
0
40
1
40
1
40
1
40
1
41
1
10
954.96830127019
20
-26.23675772743
30
0
41
1
10
954.862578603669
20
-26.3774498786689
30
0
41
1
10
954.75663687714
20
-26.5179226550054
30
0
41
1
10
954.650480947162
20
-26.6581809199814
30
0
0
SPLINE
5
1B7
100
AcDbEntity
8
1
62
256
6
ByLayer
370
18
48
1
60
0
100
AcDbSpline
70
4
71
3
72
8
73
4
40
0
40
0
40
0
40
0
40
1
40
1
40
1
40
1
41
1
10
954.96830127019
20
46.2367577274229
30
0
41
1
10
954.754011173797
20
46.3786829741849
30
0
41
1
10
954.539495132129
20
46.5199241610254
30
0
41
1
10
954.32475952642
20
46.6605006074293
30
0
0
SPLINE
5
1B8
100
AcDbEntity
8
1
62
256
6
ByLayer
370
18
48
1
60
0
100
AcDbSpline
70
4
71
3
72
8
73
4
40
0
40
0
40
0
40
0
40
1
40
1
40
1
40
1
41
1
10
954.324759526409
20
-26.6605006074433
30
0
41
1
10
954.539495132121
20
-26.5199241610372
30
0
41
1
10
954.754011173793
20
-26.3786829741944
30
0
41
1
10
954.96830127019
20
-26.23675772743
30
0
0
SPLINE
5
1B9
100
AcDbEntity
8
1
62
256
6
ByLayer
370
13
48
1
60
0
100
AcDbSpline
70
4
71
1
72
4
73
2
40
0
40
0
40
1
40
1
41
1
10
952.634679439048
20
47.9973487783776
30
0
41
1
10
953.067339719524
20
47.7524376452951
30
0
0
SPLINE
5
1BA
100
AcDbEntity
8
1
62
256
6
ByLayer
370
13
48
1
60
0
100
AcDbSpline
70
4
71
3
72
33
73
29
40
0
40
0
40
0
40
0
40
0.0625
40
0.0625
40
0.125
40
0.1875
40
0.1875
40
0.25
40
0.25
40
0.3125
40
0.3125
40
0.375
40
0.375
40
0.5
40
0.5
40
0.625000000000001
40
0.625000000000001
40
0.656250000000001
40
0.656250000000001
40
0.687500000000001
40
0.687500000000001
40
0.750000000000001
40
0.750000000000001
40
0.875
40
0.875
40
0.9375
40
0.9375
40
1
40
1
40
1
40
1
41
1
10
953.000000000001
20
49.9999999999964
30
0
41
1
10
953.014772986234
20
49.9999999999964
30
0
41
1
10
953.029546622264
20
49.9967333797418
30
0
41
1
10
953.058994229015
20
49.9836782201323
30
0
41
1
10
953.088347621541
20
49.9641017497388
30
0
41
1
10
953.117350089154
20
49.9314890730089
30
0
41
1
10
953.146093724544
20
49.892351560846
30
0
41
1
10
953.160338015489
20
49.8695157209906
30
0
41
1
10
953.1884590054
20
49.8173484520105
30
0
41
1
10
953.202338266188
20
49.7880145506163
30
0
41
1
10
953.229644464349
20
49.7228438783005
30
0
41
1
10
953.243072512084
20
49.6870014538858
30
0
41
1
10
953.282491575876
20
49.5698448523914
30
0
41
1
10
953.307637423508
20
49.4788740627267
30
0
41
1
10
953.354826689171
20
49.2712462259728
30
0
41
1
10
953.37687354857
20
49.1545892798814
30
0
41
1
10
953.401854182946
20
48.9926441531703
30
0
41
1
10
953.406721700869
20
48.9594417300274
30
0
41
1
10
953.416173521415
20
48.8914588379217
30
0
41
1
10
953.420757721484
20
48.8566800286972
30
0
41
1
10
953.434056238429
20
48.7499842775749
30
0
41
1
10
953.442317385604
20
48.6757083163586
30
0
41
1
10
953.465026626633
20
48.4434552367883
30
0
41
1
10
953.477424739841
20
48.276057905916
30
0
41
1
10
953.490530871594
20
48.0060752699556
30
0
41
1
10
953.493979640381
20
47.9129168812038
30
0
41
1
10
953.498713861256
20
47.7203473880791
30
0
41
1
10
953.500000000001
20
47.620976500021
30
0
41
1
10
953.500000000001
20
47.518518518515
30
0
0
SPLINE
5
1BB
100
AcDbEntity
8
1
62
256
6
ByLayer
370
18
48
1
60
0
100
AcDbSpline
70
4
71
3
72
73
73
69
40
0
40
0
40
0
40
0
40
0.0174605418810525
40
0.0348502696497785
40
0.0521691750217534
40
0.0694172495059632
40
0.0865944844080592
40
0.103700870833618
40
0.120736399691372
40
0.137701061696472
40
0.154594847373725
40
0.171417747060803
40
0.188169750911509
40
0.204850848898981
40
0.22146103081891
40
0.238000286292758
40
0.254468604770974
40
0.270865975536171
40
0.28719238770631
40
0.303447830237927
40
0.319632291929265
40
0.335745761423447
40
0.351788227211646
40
0.36775967763621
40
0.383660100893825
40
0.399489485038602
40
0.415247817985235
40
0.430935087512077
40
0.446551281264243
40
0.462096386756678
40
0.477570391377249
40
0.492973282389778
40
0.508305046937103
40
0.523565672044092
40
0.538755144620679
40
0.553873451464849
40
0.568920579265651
40
0.583896514606145
40
0.598801243966398
40
0.613634753726396
40
0.628397030169008
40
0.643088059482884
40
0.657707827765369
40
0.672256321025377
40
0.686733525186273
40
0.701139426088738
40
0.71547400949359
40
0.729737261084607
40
0.74392916647136
40
0.758049711191971
40
0.772098880715915
40
0.786076660446769
40
0.799983035724938
40
0.813817991830408
40
0.827581513985424
40
0.841273587357204
40
0.854894197060589
40
0.868443328160727
40
0.881920965675675
40
0.895327094579056
40
0.908661699802635
40
0.92192476623892
40
0.935116278743714
40
0.948236222138682
40
0.961284581213894
40
0.974261340730294
40
0.98716648542225
40
1
40
1
40
1
40
1
41
1
10
953.067339719524
20
47.7524376452951
30
0
41
1
10
953.066638878882
20
47.7414894706938
30
0
41
1
10
953.065240039974
20
47.719637523622
30
0
41
1
10
953.06317886423
20
47.6866332450822
30
0
41
1
10
953.061150276124
20
47.65355103196
30
0
41
1
10
953.059156586277
20
47.6203728805456
30
0
41
1
10
953.057197153214
20
47.5871073559858
30
0
41
1
10
953.055272117391
20
47.5537559306782
30
0
41
1
10
953.053381406838
20
47.5203219486574
30
0
41
1
10
953.051525002
20
47.4868082383923
30
0
41
1
10
953.049702865259
20
47.4532177485091
30
0
41
1
10
953.047914959741
20
47.4195533785312
30
0
41
1
10
953.046161244354
20
47.3858180239728
30
0
41
1
10
953.044441675154
20
47.3520145643559
30
0
41
1
10
953.042756205023
20
47.3181458664242
30
0
41
1
10
953.041104783803
20
47.2842147833106
30
0
41
1
10
953.0394873583
20
47.250224154781
30
0
41
1
10
953.037903872333
20
47.2161768071924
30
0
41
1
10
953.036354266759
20
47.182075553526
30
0
41
1
10
953.034838479516
20
47.1479231934004
30
0
41
1
10
953.033356445653
20
47.1137225130893
30
0
41
1
10
953.031908097368
20
47.0794762855384
30
0
41
1
10
953.030493364042
20
47.045187270382
30
0
41
1
10
953.029112172275
20
47.010858213959
30
0
41
1
10
953.027764445919
20
46.9764918493294
30
0
41
1
10
953.026450106117
20
46.9420908962898
30
0
41
1
10
953.025169071334
20
46.9076580613898
30
0
41
1
10
953.023921257397
20
46.8731960379466
30
0
41
1
10
953.022706577524
20
46.8387075060612
30
0
41
1
10
953.021524942364
20
46.8041951326326
30
0
41
1
10
953.020376260032
20
46.7696615713738
30
0
41
1
10
953.01926043614
20
46.7351094628254
30
0
41
1
10
953.018177373836
20
46.700541434371
30
0
41
1
10
953.017126973836
20
46.6659601002511
30
0
41
1
10
953.016109134463
20
46.6313680615774
30
0
41
1
10
953.015123751678
20
46.5967679063469
30
0
41
1
10
953.014170719114
20
46.5621622094556
30
0
41
1
10
953.013249928115
20
46.5275535327121
30
0
41
1
10
953.01236126777
20
46.4929444248515
30
0
41
1
10
953.011504624942
20
46.4583374215483
30
0
41
1
10
953.010679884308
20
46.4237350454297
30
0
41
1
10
953.009886928393
20
46.3891398060888
30
0
41
1
10
953.009125637603
20
46.3545542000975
30
0
41
1
10
953.008395890257
20
46.319980711019
30
0
41
1
10
953.007697562625
20
46.2854218094205
30
0
41
1
10
953.007030528962
20
46.2508799528858
30
0
41
1
10
953.006394661539
20
46.2163575860279
30
0
41
1
10
953.005789830677
20
46.1818571405001
30
0
41
1
10
953.005215904784
20
46.14738103501
30
0
41
1
10
953.004672750386
20
46.1129316753293
30
0
41
1
10
953.00416023216
20
46.0785114543076
30
0
41
1
10
953.00367821297
20
46.0441227518827
30
0
41
1
10
953.003226553896
20
46.0097679350932
30
0
41
1
10
953.002805114271
20
45.9754493580894
30
0
41
1
10
953.002413751714
20
45.9411693621466
30
0
41
1
10
953.002052322159
20
45.9069302756677
30
0
41
1
10
953.001720679887
20
45.8727344142298
30
0
41
1
10
953.001418677584
20
45.8385840804617
30
0
41
1
10
953.001146166259
20
45.8044815645528
30
0
41
1
10
953.000902995713
20
45.7704291424183
30
0
41
1
10
953.000689012949
20
45.7364290825453
30
0
41
1
10
953.000504068205
20
45.7024836207002
30
0
41
1
10
953.000347992775
20
45.6685950536101
30
0
41
1
10
953.000220681267
20
45.6347653922199
30
0
41
1
10
953.000121787236
20
45.6009976452805
30
0
41
1
10
953.000051849985
20
45.5672910681651
30
0
41
1
10
953.000008123998
20
45.5336587487057
30
0
41
1
10
953.000002702971
20
45.5111987476726
30
0
41
1
10
953
20
45.4999999999968
30
0
0
SPLINE
5
1BC
100
AcDbEntity
8
1
62
256
6
ByLayer
370
18
48
1
60
0
100
AcDbSpline
70
4
71
1
72
4
73
2
40
0
40
0
40
1
40
1
41
1
10
952.500000000001
20
45.9595959595927
30
0
41
1
10
953
20
45.4999999999968
30
0
0
SPLINE
5
1BD
100
AcDbEntity
8
1
62
256
6
ByLayer
370
18
48
1
60
0
100
AcDbSpline
70
2053
71
3
72
154
73
150
40
0
40
0
40
0
40
0
40
0.0156250000000008
40
0.0156250000000008
40
0.0312500000000017
40
0.0468750000000025
40
0.0468750000000025
40
0.0546875000000029
40
0.0546875000000029
40
0.0625000000000033
40
0.0625000000000033
40
0.0781250000000042
40
0.0937500000000052
40
0.0937500000000052
40
0.101562500000006
40
0.105468750000006
40
0.105468750000006
40
0.109375000000006
40
0.109375000000006
40
0.125000000000007
40
0.140625000000008
40
0.156250000000009
40
0.156250000000009
40
0.16406250000001
40
0.16406250000001
40
0.171875000000011
40
0.171875000000011
40
0.187500000000012
40
0.203125000000013
40
0.203125000000013
40
0.218750000000014
40
0.218750000000014
40
0.234375000000016
40
0.250000000000017
40
0.265625000000018
40
0.265625000000018
40
0.273437500000019
40
0.273437500000019
40
0.28125000000002
40
0.28125000000002
40
0.296875000000022
40
0.312500000000023
40
0.312500000000023
40
0.320312500000024
40
0.324218750000024
40
0.324218750000024
40
0.328125000000025
40
0.328125000000025
40
0.343750000000025
40
0.359375000000025
40
0.375000000000025
40
0.375000000000025
40
0.382812500000024
40
0.382812500000024
40
0.390625000000024
40
0.390625000000024
40
0.406250000000023
40
0.421875000000023
40
0.421875000000023
40
0.429687500000022
40
0.429687500000022
40
0.433593750000022
40
0.433593750000022
40
0.437500000000022
40
0.453125000000022
40
0.468750000000021
40
0.48437500000002
40
0.48437500000002
40
0.500000000000019
40
0.500000000000019
40
0.515625000000019
40
0.531250000000018
40
0.531250000000018
40
0.535156250000018
40
0.535156250000018
40
0.539062500000017
40
0.539062500000017
40
0.546875000000017
40
0.546875000000017
40
0.562500000000015
40
0.578125000000013
40
0.578125000000013
40
0.585937500000013
40
0.589843750000012
40
0.589843750000012
40
0.593750000000012
40
0.593750000000012
40
0.609375000000011
40
0.62500000000001
40
0.640625000000009
40
0.640625000000009
40
0.644531250000009
40
0.644531250000009
40
0.648437500000008
40
0.648437500000008
40
0.656250000000007
40
0.656250000000007
40
0.671875000000005
40
0.687500000000004
40
0.687500000000004
40
0.695312500000003
40
0.699218750000003
40
0.699218750000003
40
0.703125000000002
40
0.703125000000002
40
0.718750000000002
40
0.734375000000002
40
0.750000000000001
40
0.750000000000001
40
0.753906250000001
40
0.753906250000001
40
0.757812500000001
40
0.757812500000001
40
0.765625000000001
40
0.765625000000001
40
0.781250000000001
40
0.796875
40
0.796875
40
0.8046875
40
0.8046875
40
0.8125
40
0.8125
40
0.828125
40
0.84375
40
0.859375
40
0.859375
40
0.86328125
40
0.86328125
40
0.8671875
40
0.875
40
0.875
40
0.890625
40
0.90625
40
0.90625
40
0.9140625
40
0.9140625
40
0.91796875
40
0.91796875
40
0.921874999999999
40
0.937499999999999
40
0.953124999999999
40
0.953124999999999
40
0.9609375
40
0.9609375
40
0.96875
40
0.96875
40
0.984375
40
0.984375
40
1
40
1
40
1
40
1
41
1
10
948.453516651991
20
-11.5137228236913
30
0
41
1
10
948.554893204264
20
-11.5137228236913
30
0
41
1
10
948.655406736304
20
-11.5186137889504
30
0
41
1
10
948.854778256807
20
-11.537776127761
30
0
41
1
10
949.052493725355
20
-11.56632169299
30
0
41
1
10
949.246938839475
20
-11.6133855614991
30
0
41
1
10
949.391526684848
20
-11.6557316123093
30
0
41
1
10
949.439547071262
20
-11.6710349438044
30
0
41
1
10
949.535029371934
20
-11.703991807785
30
0
41
1
10
949.582165074651
20
-11.7215309392138
30
0
41
1
10
949.721796995683
20
-11.7772557130903
30
0
41
1
10
949.903248650442
20
-11.8598249490118
30
0
41
1
10
950.075472493235
20
-11.9585156591428
30
0
41
1
10
950.201162962761
20
-12.0385953485156
30
0
41
1
10
950.263137446525
20
-12.080153026763
30
0
41
1
10
950.323787783385
20
-12.1240161022408
30
0
41
1
10
950.363924238114
20
-12.1537751046972
30
0
41
1
10
950.383865597091
20
-12.1689300787996
30
0
41
1
10
950.482561455657
20
-12.245807835654
30
0
41
1
10
950.633133412083
20
-12.3751317030007
30
0
41
1
10
950.83768286942
20
-12.5873958492147
30
0
41
1
10
950.959902630227
20
-12.7409977668099
30
0
41
1
10
951.046129720436
20
-12.8608316893956
30
0
41
1
10
951.073987355944
20
-12.9015857100936
30
0
41
1
10
951.127746354644
20
-12.9845247916489
30
0
41
1
10
951.153474465836
20
-13.0264386557986
30
0
41
1
10
951.227268531557
20
-13.1534847897316
30
0
41
1
10
951.316635993072
20
-13.326352006038
30
0
41
1
10
951.388227963874
20
-13.5060231215924
30
0
41
1
10
951.450812234599
20
-13.6891272574027
30
0
41
1
10
951.477602059207
20
-13.7823968331078
30
0
41
1
10
951.521780855967
20
-13.9725007312661
30
0
41
1
10
951.555803744566
20
-14.1629054500139
30
0
41
1
10
951.577264248791
20
-14.449366343419
30
0
41
1
10
951.57188898297
20
-14.6409030824012
30
0
41
1
10
951.560272509346
20
-14.7847742138749
30
0
41
1
10
951.555128316173
20
-14.832809011533
30
0
41
1
10
951.542266650258
20
-14.9287822471804
30
0
41
1
10
951.534596257476
20
-14.9763861376046
30
0
41
1
10
951.507940420462
20
-15.1180741686871
30
0
41
1
10
951.46269765776
20
-15.3040002922157
30
0
41
1
10
951.398398550842
20
-15.4840757052072
30
0
41
1
10
951.342950896994
20
-15.6169273389179
30
0
41
1
10
951.31341833015
20
-15.6828010796137
30
0
41
1
10
951.281126840245
20
-15.7478356076889
30
0
41
1
10
951.258979180579
20
-15.7910037128335
30
0
41
1
10
951.247582604222
20
-15.8125154477452
30
0
41
1
10
951.189355732291
20
-15.9190168467719
30
0
41
1
10
951.087868785615
20
-16.0834609990752
30
0
41
1
10
950.91148071466
20
-16.3129109275884
30
0
41
1
10
950.777847942685
20
-16.4545002119585
30
0
41
1
10
950.671453858367
20
-16.5563381453392
30
0
41
1
10
950.634889685375
20
-16.5896089621216
30
0
41
1
10
950.560484943429
20
-16.6539759804943
30
0
41
1
10
950.522560990417
20
-16.6851580995823
30
0
41
1
10
950.40666524647
20
-16.775762515634
30
0
41
1
10
950.246484218075
20
-16.8887379165776
30
0
41
1
10
950.075172959275
20
-16.9863529472832
30
0
41
1
10
949.942458749993
20
-17.053745416514
30
0
41
1
10
949.897514280086
20
-17.0752380029651
30
0
41
1
10
949.829018773151
20
-17.1059954352425
30
0
41
1
10
949.805996933726
20
-17.1160041235427
30
0
41
1
10
949.759846808273
20
-17.1354183665001
30
0
41
1
10
949.644049368198
20
-17.1825105451868
30
0
41
1
10
949.431879194681
20
-17.2545150352946
30
0
41
1
10
949.141220998119
20
-17.3240474906946
30
0
41
1
10
948.942255967559
20
-17.3527261215733
30
0
41
1
10
948.740608423448
20
-17.3722829765388
30
0
41
1
10
948.640083931701
20
-17.377340222234
30
0
41
1
10
948.43969757043
20
-17.3783464780142
30
0
41
1
10
948.2399448344
20
-17.3702449932823
30
0
41
1
10
948.041449977439
20
-17.3440576099109
30
0
41
1
10
947.917792253412
20
-17.3219114893775
30
0
41
1
10
947.893080832601
20
-17.3171926396111
30
0
41
1
10
947.843698639981
20
-17.3071697269765
30
0
41
1
10
947.818999443208
20
-17.3018591113732
30
0
41
1
10
947.745169896666
20
-17.2850861663065
30
0
41
1
10
947.696441167204
20
-17.2728168419154
30
0
41
1
10
947.551697823724
20
-17.232810514949
30
0
41
1
10
947.36254742634
20
-17.1709552341736
30
0
41
1
10
947.180931788764
20
-17.092361385632
30
0
41
1
10
947.047571212255
20
-17.0270650639526
30
0
41
1
10
946.981604840637
20
-16.9928266167
30
0
41
1
10
946.916726214047
20
-16.956161516851
30
0
41
1
10
946.873718085728
20
-16.9311727045025
30
0
41
1
10
946.852306750515
20
-16.91838723028
30
0
41
1
10
946.74630629181
20
-16.8533494079463
30
0
41
1
10
946.583453675514
20
-16.7422516125477
30
0
41
1
10
946.358778680038
20
-16.5550791068805
30
0
41
1
10
946.222010507419
20
-16.4166131937208
30
0
41
1
10
946.140697530279
20
-16.3256722525551
30
0
41
1
10
946.124643767252
20
-16.3072635729569
30
0
41
1
10
946.092958373512
20
-16.2700000553566
30
0
41
1
10
946.077307921631
20
-16.2511211267634
30
0
41
1
10
946.031224265646
20
-16.1940911182732
30
0
41
1
10
946.001607121246
20
-16.1554919215907
30
0
41
1
10
945.916007414993
20
-16.037985421298
30
0
41
1
10
945.810529953716
20
-15.8767608964846
30
0
41
1
10
945.722066857074
20
-15.7065450872561
30
0
41
1
10
945.662171379521
20
-15.5754572382363
30
0
41
1
10
945.633839172843
20
-15.5090554852899
30
0
41
1
10
945.607971419633
20
-15.4413423855314
30
0
41
1
10
945.591280089599
20
-15.3959053344211
30
0
41
1
10
945.583206859001
20
-15.373023383465
30
0
41
1
10
945.544448964065
20
-15.258500412246
30
0
41
1
10
945.492343640351
20
-15.0736073703293
30
0
41
1
10
945.443028731364
20
-14.791407178617
30
0
41
1
10
945.429349822739
20
-14.6000220446373
30
0
41
1
10
945.426968499072
20
-14.4793595132256
30
0
41
1
10
945.426801363357
20
-14.4551745544016
30
0
41
1
10
945.427092593392
20
-14.4066985018507
30
0
41
1
10
945.427551907546
20
-14.3824223876769
30
0
41
1
10
945.429859418004
20
-14.3098402919836
30
0
41
1
10
945.432636616066
20
-14.2616487792171
30
0
41
1
10
945.444618835441
20
-14.1176539859458
30
0
41
1
10
945.470312992959
20
-13.927203999837
30
0
41
1
10
945.515181922842
20
-13.7398116802527
30
0
41
1
10
945.556138550306
20
-13.6004407473326
30
0
41
1
10
945.571010446283
20
-13.554179708512
30
0
41
1
10
945.603240635091
20
-13.4620589043183
30
0
41
1
10
945.620647376873
20
-13.4160928100588
30
0
41
1
10
945.67609094118
20
-13.2802310825792
30
0
41
1
10
945.758787107728
20
-13.1037944313547
30
0
41
1
10
945.908488454277
20
-12.8529765069466
30
0
41
1
10
946.025449385617
20
-12.6950595029005
30
0
41
1
10
946.104093498043
20
-12.5993784450167
30
0
41
1
10
946.120121533719
20
-12.5803689817319
30
0
41
1
10
946.152632535992
20
-12.5427807459365
30
0
41
1
10
946.202030005726
20
-12.4871008452474
30
0
41
1
10
946.253297718101
20
-12.4335046683994
30
0
41
1
10
946.358287134327
20
-12.329050558337
30
0
41
1
10
946.504805996845
20
-12.1970683513962
30
0
41
1
10
946.664261613255
20
-12.0795653786885
30
0
41
1
10
946.788798759406
20
-11.9969893897332
30
0
41
1
10
946.831136860898
20
-11.9703909221196
30
0
41
1
10
946.895908558086
20
-11.9319146115979
30
0
41
1
10
946.917716032441
20
-11.9193240524815
30
0
41
1
10
946.961503098088
20
-11.8947609506434
30
0
41
1
10
947.071557585049
20
-11.8348120244021
30
0
41
1
10
947.274847912125
20
-11.739819517876
30
0
41
1
10
947.462758892878
20
-11.6733450923672
30
0
41
1
10
947.60640715971
20
-11.6302652195142
30
0
41
1
10
947.654743217096
20
-11.6170365483837
30
0
41
1
10
947.752333770526
20
-11.5928727071907
30
0
41
1
10
947.801631884794
20
-11.5819290099984
30
0
41
1
10
947.950654492707
20
-11.5526645867435
30
0
41
1
10
948.050518099573
20
-11.5380866334729
30
0
41
1
10
948.251256437829
20
-11.5186156633329
30
0
41
1
10
948.352140099718
20
-11.5137228236913
30
0
41
1
10
948.453516651991
20
-11.5137228236913
30
0
0
SPLINE
5
1BE
100
AcDbEntity
8
1
62
256
6
ByLayer
370
18
48
1
60
0
100
AcDbSpline
70
2053
71
3
72
155
73
151
40
0
40
0
40
0
40
0
40
0.0156250000000014
40
0.0156250000000014
40
0.0312500000000028
40
0.0468750000000041
40
0.0468750000000041
40
0.0546875000000046
40
0.0546875000000046
40
0.0625000000000052
40
0.0625000000000052
40
0.0781250000000066
40
0.093750000000008
40
0.093750000000008
40
0.101562500000009
40
0.101562500000009
40
0.10937500000001
40
0.10937500000001
40
0.125000000000012
40
0.140625000000013
40
0.156250000000015
40
0.156250000000015
40
0.164062500000016
40
0.164062500000016
40
0.171875000000017
40
0.171875000000017
40
0.187500000000019
40
0.203125000000022
40
0.203125000000022
40
0.218750000000024
40
0.218750000000024
40
0.234375000000026
40
0.250000000000028
40
0.265625000000031
40
0.265625000000031
40
0.269531250000031
40
0.269531250000031
40
0.273437500000031
40
0.273437500000031
40
0.281250000000032
40
0.281250000000032
40
0.296875000000031
40
0.312500000000031
40
0.312500000000031
40
0.320312500000031
40
0.32421875000003
40
0.32421875000003
40
0.32812500000003
40
0.32812500000003
40
0.343750000000031
40
0.359375000000031
40
0.375000000000032
40
0.375000000000032
40
0.382812500000032
40
0.382812500000032
40
0.390625000000032
40
0.390625000000032
40
0.406250000000032
40
0.421875000000033
40
0.421875000000033
40
0.429687500000033
40
0.429687500000033
40
0.433593750000033
40
0.433593750000033
40
0.437500000000033
40
0.453125000000034
40
0.468750000000035
40
0.468750000000035
40
0.484375000000035
40
0.484375000000035
40
0.500000000000036
40
0.515625000000037
40
0.531250000000037
40
0.531250000000037
40
0.535156250000038
40
0.535156250000038
40
0.539062500000038
40
0.539062500000038
40
0.546875000000039
40
0.546875000000039
40
0.56250000000004
40
0.578125000000042
40
0.578125000000042
40
0.585937500000042
40
0.589843750000043
40
0.589843750000043
40
0.593750000000043
40
0.593750000000043
40
0.609375000000045
40
0.625000000000046
40
0.640625000000048
40
0.640625000000048
40
0.644531250000049
40
0.644531250000049
40
0.648437500000049
40
0.648437500000049
40
0.65625000000005
40
0.65625000000005
40
0.671875000000054
40
0.687500000000057
40
0.687500000000057
40
0.695312500000058
40
0.699218750000058
40
0.699218750000058
40
0.703125000000058
40
0.703125000000058
40
0.718750000000059
40
0.734375000000059
40
0.75000000000006
40
0.75000000000006
40
0.753906250000059
40
0.753906250000059
40
0.757812500000059
40
0.757812500000059
40
0.765625000000057
40
0.765625000000057
40
0.781250000000054
40
0.796875000000051
40
0.796875000000051
40
0.80468750000005
40
0.80468750000005
40
0.812500000000049
40
0.812500000000049
40
0.828125000000047
40
0.843750000000045
40
0.859375000000043
40
0.859375000000043
40
0.863281250000042
40
0.863281250000042
40
0.867187500000041
40
0.87500000000004
40
0.87500000000004
40
0.890625000000037
40
0.906250000000033
40
0.906250000000033
40
0.914062500000031
40
0.914062500000031
40
0.91796875000003
40
0.91796875000003
40
0.921875000000029
40
0.937500000000023
40
0.953125000000018
40
0.953125000000018
40
0.960937500000015
40
0.960937500000015
40
0.968750000000012
40
0.968750000000012
40
0.984375000000006
40
0.984375000000006
40
1
40
1
40
1
40
1
41
1
10
948.458739783095
20
35.9036709018505
30
0
41
1
10
948.560052914056
20
35.9036709018505
30
0
41
1
10
948.660506820541
20
35.90018507283
30
0
41
1
10
948.859765249386
20
35.8865158133415
30
0
41
1
10
949.057373779212
20
35.8661466678682
30
0
41
1
10
949.25172200318
20
35.8325024786097
30
0
41
1
10
949.396240178475
20
35.8021859457966
30
0
41
1
10
949.444233751312
20
35.7912245752694
30
0
41
1
10
949.539680811664
20
35.767595495317
30
0
41
1
10
949.586799227427
20
35.7550118522414
30
0
41
1
10
949.726379696708
20
35.7149973884901
30
0
41
1
10
949.907763759511
20
35.6556207586349
30
0
41
1
10
950.079916140216
20
35.5843767649175
30
0
41
1
10
950.205549258597
20
35.5264282987249
30
0
41
1
10
950.246845746001
20
35.5063581966015
30
0
41
1
10
950.328260328478
20
35.4646821028529
30
0
41
1
10
950.368424582783
20
35.4430498824092
30
0
41
1
10
950.486815349884
20
35.3759570516474
30
0
41
1
10
950.637308259207
20
35.2816827482131
30
0
41
1
10
950.841666279185
20
35.1261005934632
30
0
41
1
10
950.963708289506
20
35.0128518500617
30
0
41
1
10
951.049780869984
20
34.9242078140639
30
0
41
1
10
951.077581501877
20
34.8940163449955
30
0
41
1
10
951.131227520691
20
34.832460341491
30
0
41
1
10
951.156894423098
20
34.8013033133461
30
0
41
1
10
951.230491173451
20
34.7067066006476
30
0
41
1
10
951.319559552551
20
34.5775805564191
30
0
41
1
10
951.39078351777
20
34.4424607625772
30
0
41
1
10
951.452965802644
20
34.3042656725813
30
0
41
1
10
951.479544407743
20
34.2336074108903
30
0
41
1
10
951.523238636698
20
34.0891472234537
30
0
41
1
10
951.556754510351
20
33.943941080964
30
0
41
1
10
951.577397806491
20
33.7239082578321
30
0
41
1
10
951.571444953098
20
33.5757274988046
30
0
41
1
10
951.561394397009
20
33.4826387342642
30
0
41
1
10
951.559067047671
20
33.4639971654869
30
0
41
1
10
951.553770593721
20
33.4266660496345
30
0
41
1
10
951.55079739497
20
33.4079538430611
30
0
41
1
10
951.540931816027
20
33.3519089465493
30
0
41
1
10
951.533116646671
20
33.3147760833709
30
0
41
1
10
951.506030600341
20
33.2040585472446
30
0
41
1
10
951.460225972239
20
33.0582475938221
30
0
41
1
10
951.395387320255
20
32.9160499642964
30
0
41
1
10
951.339543394669
20
32.8107989238657
30
0
41
1
10
951.309814789531
20
32.75852335536
30
0
41
1
10
951.277330402978
20
32.706787795006
30
0
41
1
10
951.255054843023
20
32.672419519433
30
0
41
1
10
951.243602915139
20
32.6552916700401
30
0
41
1
10
951.185121224492
20
32.5704496706485
30
0
41
1
10
951.083259510361
20
32.4390023431115
30
0
41
1
10
950.906381987209
20
32.2544723445818
30
0
41
1
10
950.772466767627
20
32.1399561098455
30
0
41
1
10
950.665874679113
20
32.057384833655
30
0
41
1
10
950.629271161362
20
32.0303909934475
30
0
41
1
10
950.554813800419
20
31.9781151023469
30
0
41
1
10
950.516866173457
20
31.9527567267061
30
0
41
1
10
950.4009062545
20
31.8789875317119
30
0
41
1
10
950.240657744179
20
31.7867674276211
30
0
41
1
10
950.069305780025
20
31.7067484661298
30
0
41
1
10
949.936568017435
20
31.6514130473038
30
0
41
1
10
949.891616862822
20
31.6337490783602
30
0
41
1
10
949.823112713109
20
31.6084509171944
30
0
41
1
10
949.800102390706
20
31.6002203722059
30
0
41
1
10
949.753976817753
20
31.5842490955014
30
0
41
1
10
949.638241041308
20
31.5454918285734
30
0
41
1
10
949.426185327985
20
31.4861037235701
30
0
41
1
10
949.232514488009
20
31.447778093092
30
0
41
1
10
949.036244587251
20
31.41674038107
30
0
41
1
10
948.936795896488
20
31.4048636570931
30
0
41
1
10
948.735269630647
20
31.3886669165396
30
0
41
1
10
948.534393690041
20
31.3802846925275
30
0
41
1
10
948.234963240979
20
31.3903607510485
30
0
41
1
10
948.036590003427
20
31.4120653629611
30
0
41
1
10
947.913005074564
20
31.4304084375254
30
0
41
1
10
947.888308051564
20
31.434316456848
30
0
41
1
10
947.838954334632
20
31.4426157990582
30
0
41
1
10
947.814268902289
20
31.4470126108046
30
0
41
1
10
947.740483330602
20
31.4608962084555
30
0
41
1
10
947.691783784735
20
31.4710486016509
30
0
41
1
10
947.547127963775
20
31.5041363366311
30
0
41
1
10
947.358093732054
20
31.5552549375326
30
0
41
1
10
947.17659633614
20
31.6200476020693
30
0
41
1
10
947.0433261692
20
31.67378654921
30
0
41
1
10
946.977405435126
20
31.7019441003992
30
0
41
1
10
946.912573301837
20
31.7320578307699
30
0
41
1
10
946.869596384209
20
31.7525722294873
30
0
41
1
10
946.848200724517
20
31.7630637948403
30
0
41
1
10
946.742274375154
20
31.816409911534
30
0
41
1
10
946.579549842401
20
31.9073726595557
30
0
41
1
10
946.355100664433
20
32.0599573170904
30
0
41
1
10
946.218506149843
20
32.1722870887609
30
0
41
1
10
946.137310262536
20
32.2458545667759
30
0
41
1
10
946.121280347559
20
32.2607365126655
30
0
41
1
10
946.089643550559
20
32.2908400478352
30
0
41
1
10
946.074018038738
20
32.3060809102178
30
0
41
1
10
946.028012067012
20
32.3520862553876
30
0
41
1
10
945.99844881024
20
32.3831797097945
30
0
41
1
10
945.913017027474
20
32.4776949963606
30
0
41
1
10
945.807780122991
20
32.6070016893036
30
0
41
1
10
945.719592247722
20
32.7426684997204
30
0
41
1
10
945.659917618602
20
32.8467968351093
30
0
41
1
10
945.631699457466
20
32.89945658195
30
0
41
1
10
945.605951608715
20
32.9530193253748
30
0
41
1
10
945.58934157451
20
32.9889301820444
30
0
41
1
10
945.581311250586
20
33.0069959155297
30
0
41
1
10
945.542772191741
20
33.0973287636941
30
0
41
1
10
945.491031358479
20
33.2426616726163
30
0
41
1
10
945.442308601912
20
33.4629050966569
30
0
41
1
10
945.429058173855
20
33.6111913084963
30
0
41
1
10
945.426957001197
20
33.7043339085994
30
0
41
1
10
945.426846516462
20
33.7229856972212
30
0
41
1
10
945.427252349394
20
33.7603363612578
30
0
41
1
10
945.427769278265
20
33.7790112404791
30
0
41
1
10
945.430249560449
20
33.8348026452844
30
0
41
1
10
945.433142337955
20
33.8717764649662
30
0
41
1
10
945.445472840031
20
33.9820496714903
30
0
41
1
10
945.471635183867
20
34.1273543746576
30
0
41
1
10
945.516983464386
20
34.2692845797216
30
0
41
1
10
945.558305130269
20
34.3744672109756
30
0
41
1
10
945.573299628645
20
34.4093169547667
30
0
41
1
10
945.605777128265
20
34.4785905242622
30
0
41
1
10
945.623302848704
20
34.5130809025176
30
0
41
1
10
945.679075481619
20
34.614806943374
30
0
41
1
10
945.762201183579
20
34.7464377479322
30
0
41
1
10
945.912513124084
20
34.9323167360222
30
0
41
1
10
946.029865345021
20
35.0486050591987
30
0
41
1
10
946.10874925692
20
35.1188581983731
30
0
41
1
10
946.124827323553
20
35.1328068501982
30
0
41
1
10
946.157403097243
20
35.160339474163
30
0
41
1
10
946.206895849912
20
35.201094215589
30
0
41
1
10
946.25825348928
20
35.240240300775
30
0
41
1
10
946.363416296632
20
35.31643320813
30
0
41
1
10
946.510148617716
20
35.4124357489935
30
0
41
1
10
946.66978708476
20
35.4974944377169
30
0
41
1
10
946.794450808942
20
35.557150221514
30
0
41
1
10
946.836829337508
20
35.5763445218706
30
0
41
1
10
946.901659103492
20
35.6040832937783
30
0
41
1
10
946.923465376374
20
35.6131471073315
30
0
41
1
10
946.967251840088
20
35.6308234382699
30
0
41
1
10
947.077303090498
20
35.6739448831352
30
0
41
1
10
947.280575893854
20
35.7421170604747
30
0
41
1
10
947.468458152448
20
35.7896929347978
30
0
41
1
10
947.612081430404
20
35.8204981812126
30
0
41
1
10
947.660408581214
20
35.829952314071
30
0
41
1
10
947.75798038612
20
35.847214537023
30
0
41
1
10
947.807285938381
20
35.855031060661
30
0
41
1
10
947.956206993403
20
35.875910272126
30
0
41
1
10
948.056003453667
20
35.8863034651189
30
0
41
1
10
948.256609228651
20
35.9001838485075
30
0
41
1
10
948.357426652135
20
35.9036709018506
30
0
41
1
10
948.458739783095
20
35.9036709018505
30
0
0
SPLINE
5
1BF
100
AcDbEntity
8
1
62
256
6
ByLayer
370
18
48
1
60
0
100
AcDbSpline
70
4
71
3
72
48
73
44
40
0
40
0
40
0
40
0
40
0.0181537853287549
40
0.0363932567842601
40
0.0547184323597958
40
0.073129329797381
40
0.0916259665923399
40
0.110208359997803
40
0.128876527029146
40
0.14763048446825
40
0.166470248867738
40
0.18539583655509
40
0.204407263636627
40
0.223504546001496
40
0.2426876993255
40
0.261956739074842
40
0.281311680509841
40
0.300752538688502
40
0.320279328470075
40
0.339892064518469
40
0.35959076130567
40
0.379375433114993
40
0.399246094044364
40
0.419202758009462
40
0.439245438746805
40
0.459374149816821
40
0.479588904606782
40
0.499889716333734
40
0.531552455269957
40
0.563454708925647
40
0.595596524551579
40
0.627977948349671
40
0.660599025503522
40
0.693459800207991
40
0.726560315697616
40
0.759900614274077
40
0.793480737332677
40
0.827300725387907
40
0.861360618098081
40
0.895660454289183
40
0.930200271977833
40
0.9649801083935
40
1
40
1
40
1
40
1
41
1
10
952.500000000001
20
45.9595959595927
30
0
41
1
10
952.500012456154
20
45.9739715297695
30
0
41
1
10
952.500037427255
20
46.0027905230202
30
0
41
1
10
952.500214743587
20
46.0458383267516
30
0
41
1
10
952.500494289993
20
46.0888791657796
30
0
41
1
10
952.50088624446
20
46.1318893382544
30
0
41
1
10
952.501387860633
20
46.1748709301607
30
0
41
1
10
952.501999879592
20
46.2178190440964
30
0
41
1
10
952.502722101413
20
46.2607306420032
30
0
41
1
10
952.503554580073
20
46.3036021591648
30
0
41
1
10
952.504497301044
20
46.3464301479715
30
0
41
1
10
952.505550268278
20
46.3892111042121
30
0
41
1
10
952.506713480742
20
46.4319415139259
30
0
41
1
10
952.507986938748
20
46.4746178407495
30
0
41
1
10
952.509370642245
20
46.517236529318
30
0
41
1
10
952.510864591276
20
46.5597940043368
30
0
41
1
10
952.512468785862
20
46.6022866708225
30
0
41
1
10
952.514183226027
20
46.6447109140296
30
0
41
1
10
952.516007911796
20
46.6870630994632
30
0
41
1
10
952.51794284319
20
46.7293395728692
30
0
41
1
10
952.519988020241
20
46.7715366602339
30
0
41
1
10
952.522143442933
20
46.8136506677774
30
0
41
1
10
952.52440911144
20
46.8556778819659
30
0
41
1
10
952.526785025208
20
46.8976145694603
30
0
41
1
10
952.529271186423
20
46.9394569773109
30
0
41
1
10
952.53186758698
20
46.9812013322303
30
0
41
1
10
952.534574257423
20
47.0228438433372
30
0
41
1
10
952.537912607719
20
47.072071081776
30
0
41
1
10
952.541964270845
20
47.1287693445631
30
0
41
1
10
952.546824379419
20
47.1927736648129
30
0
41
1
10
952.551955415913
20
47.2565479581526
30
0
41
1
10
952.557357428707
20
47.3200754094019
30
0
41
1
10
952.563030405141
20
47.3833390598472
30
0
41
1
10
952.568974348544
20
47.4463218016499
30
0
41
1
10
952.575189259954
20
47.5090063688738
30
0
41
1
10
952.581675133283
20
47.5713753798627
30
0
41
1
10
952.588431993553
20
47.6334111755722
30
0
41
1
10
952.595459747254
20
47.6950964305884
30
0
41
1
10
952.602758748256
20
47.7564118488255
30
0
41
1
10
952.610327662922
20
47.8173448556941
30
0
41
1
10
952.618171521968
20
47.8778568163572
30
0
41
1
10
952.626271354916
20
47.9380066647451
30
0
41
1
10
952.631870325678
20
47.9775227725738
30
0
41
1
10
952.634679439048
20
47.9973487783776
30
0
0
SPLINE
5
1C0
100
AcDbEntity
8
1
62
256
6
ByLayer
370
18
48
1
60
0
100
AcDbSpline
70
4
71
3
72
62
73
58
40
0
40
0
40
0
40
0
40
0.0078581685894189
40
0.0158082531269071
40
0.0238502556521268
40
0.0319841781355304
40
0.0402100224814707
40
0.0485277905311012
40
0.0569374840651372
40
0.0654391048064972
40
0.0740326544227351
40
0.0827181345284011
40
0.091495546687275
40
0.100364892414443
40
0.109326173178305
40
0.118379390402479
40
0.12752454546759
40
0.136761639712982
40
0.146090674438344
40
0.155511650905265
40
0.165024570338692
40
0.174629433928345
40
0.184326242830043
40
0.194114998166979
40
0.203995701030939
40
0.213968352483455
40
0.224032953556903
40
0.234189505255573
40
0.244438008556665
40
0.254778464411254
40
0.265210873745211
40
0.325251013577772
40
0.38941680637147
40
0.457708345551512
40
0.530125703960479
40
0.589128814731811
40
0.652893238079716
40
0.72141897234146
40
0.79470600918318
40
0.803166093145256
40
0.812043173451761
40
0.82133725010581
40
0.831048323105249
40
0.841176392443306
40
0.851721458109116
40
0.862683520088144
40
0.874062578362542
40
0.885858632911421
40
0.898071683711097
40
0.91070173073528
40
0.923748773955252
40
0.937212813339997
40
0.951093848856329
40
0.965391880468982
40
0.980106908140711
40
0.995238931832358
40
1
40
1
40
1
40
1
41
1
10
952.634679439048
20
47.9973487783776
30
0
41
1
10
952.636082157847
20
48.007155342638
30
0
41
1
10
952.638904002861
20
48.0268831772306
30
0
41
1
10
952.643091778233
20
48.0563736953243
30
0
41
1
10
952.647278152213
20
48.0859997864939
30
0
41
1
10
952.651457949771
20
48.115733901367
30
0
41
1
10
952.655632581262
20
48.1455735318379
30
0
41
1
10
952.659801662039
20
48.1755092216365
30
0
41
1
10
952.663965296647
20
48.205533285317
30
0
41
1
10
952.668123456349
20
48.2356374320487
30
0
41
1
10
952.672276148729
20
48.2658134128652
30
0
41
1
10
952.67642337149
20
48.2960528441752
30
0
41
1
10
952.680565125033
20
48.3263472556661
30
0
41
1
10
952.684701409035
20
48.3566880770993
30
0
41
1
10
952.688832223379
20
48.3870666417504
30
0
41
1
10
952.692957567898
20
48.4174741853246
30
0
41
1
10
952.697077442449
20
48.4479018461086
30
0
41
1
10
952.701191846889
20
48.4783406647935
30
0
41
1
10
952.705300781083
20
48.5087815843933
30
0
41
1
10
952.709404244899
20
48.5392154501438
30
0
41
1
10
952.71350223821
20
48.5696330094147
30
0
41
1
10
952.717594760897
20
48.6000249116254
30
0
41
1
10
952.721681812842
20
48.6303817081654
30
0
41
1
10
952.725763393934
20
48.6606938523291
30
0
41
1
10
952.729839504061
20
48.6909516992251
30
0
41
1
10
952.733910143132
20
48.7211455058143
30
0
41
1
10
952.737975310998
20
48.7512654304913
30
0
41
1
10
952.742035007747
20
48.7813015344278
30
0
41
1
10
952.746089232582
20
48.8112437762817
30
0
41
1
10
952.750137988082
20
48.8410820320403
30
0
41
1
10
952.760578186573
20
48.9178327495588
30
0
41
1
10
952.777382972584
20
49.0401618941515
30
0
41
1
10
952.800200970419
20
49.2010397397194
30
0
41
1
10
952.823353076492
20
49.3562945448977
30
0
41
1
10
952.844947588148
20
49.4910476992091
30
0
41
1
10
952.865285739115
20
49.6075548236043
30
0
41
1
10
952.884651948122
20
49.7078018295807
30
0
41
1
10
952.90494244548
20
49.7993599257695
30
0
41
1
10
952.919445661734
20
49.8535897001498
30
0
41
1
10
952.92809250216
20
49.8818714231918
30
0
41
1
10
952.930625587355
20
49.8899068473649
30
0
41
1
10
952.933270857188
20
49.8980172586124
30
0
41
1
10
952.936028097228
20
49.9061609607095
30
0
41
1
10
952.938897366915
20
49.9142943680762
30
0
41
1
10
952.94187864755
20
49.9223720162408
30
0
41
1
10
952.944971943008
20
49.9303465582814
30
0
41
1
10
952.948177250946
20
49.938168765484
30
0
41
1
10
952.951494570961
20
49.9457875269665
30
0
41
1
10
952.954923902244
20
49.9531498500397
30
0
41
1
10
952.95846524422
20
49.9602008598631
30
0
41
1
10
952.962118596355
20
49.9668838026273
30
0
41
1
10
952.965883958165
20
49.9731400362299
30
0
41
1
10
952.969761329327
20
49.9789090711892
30
0
41
1
10
952.973750709132
20
49.9841284167371
30
0
41
1
10
952.977852098607
20
49.9887341886226
30
0
41
1
10
952.981064218646
20
49.9917261150608
30
0
41
1
10
952.98290944771
20
49.9932104397369
30
0
41
1
10
952.983351007903
20
49.9935520939362
30
0
0
SPLINE
5
1C1
100
AcDbEntity
8
SK1
62
256
6
ByLayer
370
18
48
1
60
0
100
AcDbSpline
70
4
71
2
72
6
73
3
40
0
40
0
40
0
40
1
40
1
40
1
41
1
10
-57.9999999999999
20
34.6181755422316
30
0
41
1
10
-59.0000000184052
20
34.040899650239
30
0
41
1
10
-59.9999999999999
20
33.4636240941155
30
0
0
SPLINE
5
1C2
100
AcDbEntity
8
SK1
62
256
6
ByLayer
370
18
48
1
60
0
100
AcDbSpline
70
4
71
2
72
6
73
3
40
0
40
0
40
0
40
1
40
1
40
1
41
1
10
-60.0000000000001
20
-33.463624270945
30
0
41
1
10
-59.0000000184071
20
-34.0408998263443
30
0
41
1
10
-58.0000000000001
20
-34.6181757176365
30
0
0
SPLINE
5
1C3
100
AcDbEntity
8
SK1
62
256
6
ByLayer
370
18
48
1
60
0
100
AcDbSpline
70
4
71
3
72
11
73
7
40
0
40
0
40
0
40
0
40
0.238883862180892
40
0.497413574887387
40
0.757381157998943
40
1
40
1
40
1
40
1
41
1
10
-0.394913799811434
20
-35.8653896963417
30
0
41
1
10
-0.369683193050832
20
-35.8663180573075
30
0
41
1
10
-0.321111484140317
20
-35.8763682715858
30
0
41
1
10
-0.255176566703568
20
-35.9195944489529
30
0
41
1
10
-0.211247740473596
20
-35.9855826520852
30
0
41
1
10
-0.200957281154615
20
-36.0346194146337
30
0
41
1
10
-0.200000000000131
20
-36.0602771366802
30
0
0
SPLINE
5
1C4
100
AcDbEntity
8
SK1
62
256
6
ByLayer
370
18
48
1
60
0
100
AcDbSpline
70
4
71
3
72
11
73
7
40
0
40
0
40
0
40
0
40
0.242618842122764
40
0.502586425289053
40
0.761116137943224
40
1
40
1
40
1
40
1
41
1
10
-0.199999999999818
20
36.0602769580581
30
0
41
1
10
-0.200957281151574
20
36.0346192359749
30
0
41
1
10
-0.211247740470355
20
35.9855824733589
30
0
41
1
10
-0.255176566689812
20
35.9195942701279
30
0
41
1
10
-0.321111484128352
20
35.8763680926841
30
0
41
1
10
-0.369683193047621
20
35.8663178783903
30
0
41
1
10
-0.39491379981115
20
35.8653895174204
30
0
0
SPLINE
5
1C5
100
AcDbEntity
8
SK1
62
256
6
ByLayer
370
18
48
1
60
0
100
AcDbSpline
70
4
71
2
72
6
73
3
40
0
40
0
40
0
40
1
40
1
40
1
41
1
10
-0.39491379981115
20
35.8653762243039
30
0
41
1
10
-1.1949768888756
20
35.8452785780294
30
0
41
1
10
-1.99503997793917
20
35.8251809317473
30
0
0
SPLINE
5
1C6
100
AcDbEntity
8
SK1
62
256
6
ByLayer
370
18
48
1
60
0
100
AcDbSpline
70
4
71
2
72
6
73
3
40
0
40
0
40
0
40
1
40
1
40
1
41
1
10
-1.99503997793943
20
-35.8251811094741
30
0
41
1
10
-1.19497688887586
20
-35.8452787557246
30
0
41
1
10
-0.394913799811434
20
-35.8653764019675
30
0
0
SPLINE
5
1C7
100
AcDbEntity
8
SK1
62
256
6
ByLayer
370
18
48
1
60
0
100
AcDbSpline
70
4
71
3
72
13
73
9
40
0
40
0
40
0
40
0
40
0.239471162860123
40
0.368379894974465
40
0.500021131905154
40
0.631658853855645
40
0.760557894165859
40
1
40
1
40
1
40
1
41
1
10
-1.99503997793917
20
35.8251942148273
30
0
41
1
10
-2.02111001788324
20
35.8247924479739
30
0
41
1
10
-2.05884008786538
20
35.8309639254267
30
0
41
1
10
-2.10627671849542
20
35.8540046625366
30
0
41
1
10
-2.13886340553941
20
35.8791686789068
30
0
41
1
10
-2.16563563428861
20
35.9104461500348
30
0
41
1
10
-2.19103262331009
20
35.9566591505759
30
0
41
1
10
-2.19909176796341
20
35.9940272211736
30
0
41
1
10
-2.19999999999987
20
36.0200816554224
30
0
0
SPLINE
5
1C8
100
AcDbEntity
8
SK1
62
256
6
ByLayer
370
18
48
1
60
0
100
AcDbSpline
70
4
71
3
72
13
73
9
40
0
40
0
40
0
40
0
40
0.239442105709448
40
0.368341145979431
40
0.499978867915451
40
0.631620104860488
40
0.760528837014914
40
1
40
1
40
1
40
1
41
1
10
-2.20000000000013
20
-36.0200818341074
30
0
41
1
10
-2.19909176796173
20
-35.9940273998955
30
0
41
1
10
-2.19103262330839
20
-35.9566593293522
30
0
41
1
10
-2.16563563428642
20
-35.9104463288838
30
0
41
1
10
-2.1388634055364
20
-35.8791688578038
30
0
41
1
10
-2.10627671849207
20
-35.854004841473
30
0
41
1
10
-2.05884008785986
20
-35.8309641043989
30
0
41
1
10
-2.02111001788052
20
-35.8247926269554
30
0
41
1
10
-1.99503997793943
20
-35.82519439381
30
0
0
SPLINE
5
1C9
100
AcDbEntity
8
SK1
62
256
6
ByLayer
370
18
48
1
60
0
100
AcDbSpline
70
4
71
2
72
6
73
3
40
0
40
0
40
0
40
1
40
1
40
1
41
1
10
-2.19999999999987
20
35.9985719120492
30
0
41
1
10
-30.1000000035744
20
35.2981890859067
30
0
41
1
10
-57.9999999999999
20
34.597800310042
30
0
0
SPLINE
5
1CA
100
AcDbEntity
8
SK1
62
256
6
ByLayer
370
18
48
1
60
0
100
AcDbSpline
70
4
71
2
72
6
73
3
40
0
40
0
40
0
40
1
40
1
40
1
41
1
10
-58.0000000000001
20
-34.5978000890186
30
0
41
1
10
-30.1000000035745
20
-35.2981888603888
30
0
41
1
10
-2.20000000000013
20
-35.9985716822014
30
0
0
SPLINE
5
1CB
100
AcDbEntity
8
1
62
256
6
ByLayer
370
18
48
1
60
0
100
AcDbSpline
70
4
71
3
72
9
73
5
40
0
40
0
40
0
40
0
40
0.490376292276329
40
1
40
1
40
1
40
1
41
1
10
952.938958324597
20
7.4756182038725
30
0
41
1
10
952.948882516925
20
7.27262443255751
30
0
41
1
10
952.96915590877
20
6.8707996817119
30
0
41
1
10
952.989517205354
20
6.49898523390851
30
0
41
1
10
952.999903499254
20
6.31898840870736
30
0
0
LINE
5
94
100
AcDbEntity
8
SK4
62
256
6
ByLayer
370
18
48
0.05
60
0
100
AcDbLine
10
4
20
0
30
0
11
944
21
0
31
0
39
0
210
0
220
0
230
1
0
LINE
5
96
100
AcDbEntity
8
81
62
256
6
ByLayer
370
18
48
1
60
0
100
AcDbLine
10
955
20
10
30
0
11
960
21
10
31
0
39
0
210
0
220
0
230
1
0
LINE
5
97
100
AcDbEntity
8
4
62
256
6
ByLayer
370
18
48
0.05
60
0
100
AcDbLine
10
944
20
10
30
0
11
955
21
10
31
0
39
0
210
0
220
0
230
1
0
LINE
5
99
100
AcDbEntity
8
80
62
256
6
ByLayer
370
18
48
1
60
0
100
AcDbLine
10
0
20
0
30
0
11
-5
21
0
31
0
39
0
210
0
220
0
230
1
0
LINE
5
9A
100
AcDbEntity
8
SK1
62
256
6
ByLayer
370
18
48
1
60
0
100
AcDbLine
10
-0.2
20
-6.815135
30
0
11
-0.2
21
-37.983485
31
0
39
0
210
0
220
0
230
1
0
LINE
5
9C
100
AcDbEntity
8
SK1
62
256
6
ByLayer
370
18
48
1
60
0
100
AcDbLine
10
-0.2
20
37.983485
30
0
11
-0.2
21
6.815135
31
0
39
0
210
0
220
0
230
1
0
LINE
5
9D
100
AcDbEntity
8
SK1
62
256
6
ByLayer
370
13
48
1
60
0
100
AcDbLine
10
-1.307107
20
4.605927
30
0
11
-1.307107
21
-4.605926
31
0
39
0
210
0
220
0
230
1
0
LINE
5
9E
100
AcDbEntity
8
1
62
256
6
ByLayer
370
13
48
1
60
0
100
AcDbLine
10
13.355662
20
47.532474
30
0
11
13.355662
21
15.513346
31
0
39
0
210
0
220
0
230
1
0
LINE
5
A0
100
AcDbEntity
8
1
62
256
6
ByLayer
370
13
48
1
60
0
100
AcDbLine
10
13.788675
20
47.699112
30
0
11
13.788675
21
14.993155
31
0
39
0
210
0
220
0
230
1
0
LINE
5
A1
100
AcDbEntity
8
1
62
256
6
ByLayer
370
13
48
1
60
0
100
AcDbLine
10
18.211325
20
-14.993155
30
0
11
18.211325
21
-47.699112
31
0
39
0
210
0
220
0
230
1
0
LINE
5
A2
100
AcDbEntity
8
1
62
256
6
ByLayer
370
13
48
1
60
0
100
AcDbLine
10
18.644338
20
-15.513346
30
0
11
18.644338
21
-47.532474
31
0
39
0
210
0
220
0
230
1
0
LINE
5
A3
100
AcDbEntity
8
1
62
256
6
ByLayer
370
13
48
1
60
0
100
AcDbLine
10
18.211325
20
47.699112
30
0
11
18.211325
21
14.993155
31
0
39
0
210
0
220
0
230
1
0
LINE
5
A4
100
AcDbEntity
8
1
62
256
6
ByLayer
370
13
48
1
60
0
100
AcDbLine
10
18.644338
20
47.532474
30
0
11
18.644338
21
15.513346
31
0
39
0
210
0
220
0
230
1
0
LINE
5
A5
100
AcDbEntity
8
1
62
256
6
ByLayer
370
13
48
1
60
0
100
AcDbLine
10
13.355662
20
-15.513346
30
0
11
13.355662
21
-47.532474
31
0
39
0
210
0
220
0
230
1
0
LINE
5
A6
100
AcDbEntity
8
1
62
256
6
ByLayer
370
13
48
1
60
0
100
AcDbLine
10
13.788675
20
-14.993155
30
0
11
13.788675
21
-47.699112
31
0
39
0
210
0
220
0
230
1
0
LINE
5
A7
100
AcDbEntity
8
1
62
256
6
ByLayer
370
18
48
1
60
0
100
AcDbLine
10
944
20
49.8
30
0
11
944
21
-49.8
31
0
39
0
210
0
220
0
230
1
0
LINE
5
A8
100
AcDbEntity
8
1
62
256
6
ByLayer
370
18
48
1
60
0
100
AcDbLine
10
0
20
-49.7
30
0
11
0
21
49.7
31
0
39
0
210
0
220
0
230
1
0
LINE
5
A9
100
AcDbEntity
8
1
62
256
6
ByLayer
370
13
48
1
60
0
100
AcDbLine
10
943.8
20
50
30
0
11
943.8
21
-50
31
0
39
0
210
0
220
0
230
1
0
LINE
5
AA
100
AcDbEntity
8
1
62
256
6
ByLayer
370
18
48
1
60
0
100
AcDbLine
10
0.3
20
-50
30
0
11
0.3
21
50
31
0
39
0
210
0
220
0
230
1
0
LINE
5
AB
100
AcDbEntity
8
1
62
256
6
ByLayer
370
18
48
1
60
0
100
AcDbLine
10
18.211325
20
14.993155
30
0
11
13.788675
21
14.993155
31
0
39
0
210
0
220
0
230
1
0
LINE
5
AC
100
AcDbEntity
8
1
62
256
6
ByLayer
370
18
48
1
60
0
100
AcDbLine
10
13.788675
20
47.699112
30
0
11
18.211325
21
47.699112
31
0
39
0
210
0
220
0
230
1
0
LINE
5
AD
100
AcDbEntity
8
1
62
256
6
ByLayer
370
18
48
1
60
0
100
AcDbLine
10
13.788675
20
-14.993155
30
0
11
18.211325
21
-14.993155
31
0
39
0
210
0
220
0
230
1
0
LINE
5
AE
100
AcDbEntity
8
1
62
256
6
ByLayer
370
18
48
1
60
0
100
AcDbLine
10
18.211325
20
-47.699112
30
0
11
13.788675
21
-47.699112
31
0
39
0
210
0
220
0
230
1
0
LINE
5
AF
100
AcDbEntity
8
1
62
256
6
ByLayer
370
18
48
1
60
0
100
AcDbLine
10
962.434561
20
36
30
0
11
953.9905
21
36
31
0
39
0
210
0
220
0
230
1
0
LINE
5
B0
100
AcDbEntity
8
1
62
256
6
ByLayer
370
18
48
1
60
0
100
AcDbLine
10
953.9905
20
36
30
0
11
953.9905
21
-16
31
0
39
0
210
0
220
0
230
1
0
LINE
5
B1
100
AcDbEntity
8
1
62
256
6
ByLayer
370
18
48
1
60
0
100
AcDbLine
10
962.434561
20
-16
30
0
11
953.9905
21
-16
31
0
39
0
210
0
220
0
230
1
0
LINE
5
B2
100
AcDbEntity
8
1
62
256
6
ByLayer
370
18
48
1
60
0
100
AcDbLine
10
968.4905
20
-10.786801
30
0
11
968.4905
21
30.786801
31
0
39
0
210
0
220
0
230
1
0
LINE
5
B3
100
AcDbEntity
8
1
62
256
6
ByLayer
370
18
48
1
60
0
100
AcDbLine
10
969.4905
20
29.513103
30
0
11
969.4905
21
-9.513103
31
0
39
0
210
0
220
0
230
1
0
LINE
5
B4
100
AcDbEntity
8
1
62
256
6
ByLayer
370
18
48
1
60
0
100
AcDbLine
10
948.78803
20
32.034245
30
0
11
949.255643
21
34.371066
31
0
39
0
210
0
220
0
230
1
0
LINE
5
B5
100
AcDbEntity
8
1
62
256
6
ByLayer
370
18
48
1
60
0
100
AcDbLine
10
947.173103
20
32.672769
30
0
11
947.536563
21
34.489103
31
0
39
0
210
0
220
0
230
1
0
LINE
5
B6
100
AcDbEntity
8
1
62
256
6
ByLayer
370
18
48
1
60
0
100
AcDbLine
10
946.689518
20
33.362792
30
0
11
947.536563
21
34.489103
31
0
39
0
210
0
220
0
230
1
0
LINE
5
B7
100
AcDbEntity
8
1
62
256
6
ByLayer
370
18
48
1
60
0
100
AcDbLine
10
947.536563
20
34.489103
30
0
11
949.255643
21
34.371066
31
0
39
0
210
0
220
0
230
1
0
LINE
5
B8
100
AcDbEntity
8
1
62
256
6
ByLayer
370
18
48
1
60
0
100
AcDbLine
10
949.255643
20
34.371066
30
0
11
950.127678
21
33.126717
31
0
39
0
210
0
220
0
230
1
0
LINE
5
B9
100
AcDbEntity
8
1
62
256
6
ByLayer
370
18
48
1
60
0
100
AcDbLine
10
950.127678
20
33.126717
30
0
11
949.280633
21
32.000407
31
0
39
0
210
0
220
0
230
1
0
LINE
5
BA
100
AcDbEntity
8
1
62
256
6
ByLayer
370
18
48
1
60
0
100
AcDbLine
10
949.280633
20
32.000407
30
0
11
947.561553
21
32.118444
31
0
39
0
210
0
220
0
230
1
0
LINE
5
BB
100
AcDbEntity
8
1
62
256
6
ByLayer
370
18
48
1
60
0
100
AcDbLine
10
947.561553
20
32.118444
30
0
11
946.689518
21
33.362792
31
0
39
0
210
0
220
0
230
1
0
LINE
5
BC
100
AcDbEntity
8
1
62
256
6
ByLayer
370
18
48
1
60
0
100
AcDbLine
10
955.32476
20
-28.98873
30
0
11
955.32476
21
-28.945246
31
0
39
0
210
0
220
0
230
1
0
LINE
5
BD
100
AcDbEntity
8
1
62
256
6
ByLayer
370
18
48
1
60
0
100
AcDbLine
10
955.32476
20
48.945246
30
0
11
955.32476
21
48.98873
31
0
39
0
210
0
220
0
230
1
0
LINE
5
BE
100
AcDbEntity
8
1
62
256
6
ByLayer
370
13
48
1
60
0
100
AcDbLine
10
954.650481
20
49.638928
30
0
11
954.650481
21
49.652087
31
0
39
0
210
0
220
0
230
1
0
LINE
5
BF
100
AcDbEntity
8
1
62
256
6
ByLayer
370
13
48
1
60
0
100
AcDbLine
10
954.650481
20
-29.652087
30
0
11
954.650481
21
-29.638928
31
0
39
0
210
0
220
0
230
1
0
LINE
5
C0
100
AcDbEntity
8
1
62
256
6
ByLayer
370
18
48
1
60
0
100
AcDbLine
10
955.32476
20
48.836869
30
0
11
955.32476
21
48.923754
31
0
39
0
210
0
220
0
230
1
0
LINE
5
C1
100
AcDbEntity
8
1
62
256
6
ByLayer
370
18
48
1
60
0
100
AcDbLine
10
955.32476
20
-28.923754
30
0
11
955.32476
21
-28.836869
31
0
39
0
210
0
220
0
230
1
0
LINE
5
C2
100
AcDbEntity
8
1
62
256
6
ByLayer
370
13
48
1
60
0
100
AcDbLine
10
954.650481
20
49.547142
30
0
11
954.650481
21
49.573446
31
0
39
0
210
0
220
0
230
1
0
LINE
5
C3
100
AcDbEntity
8
1
62
256
6
ByLayer
370
13
48
1
60
0
100
AcDbLine
10
954.650481
20
-29.573446
30
0
11
954.650481
21
-29.547142
31
0
39
0
210
0
220
0
230
1
0
LINE
5
C4
100
AcDbEntity
8
1
62
256
6
ByLayer
370
18
48
1
60
0
100
AcDbLine
10
955.32476
20
-28.800723
30
0
11
955.32476
21
-28.669949
31
0
39
0
210
0
220
0
230
1
0
LINE
5
C5
100
AcDbEntity
8
1
62
256
6
ByLayer
370
18
48
1
60
0
100
AcDbLine
10
955.32476
20
48.669949
30
0
11
955.32476
21
48.800723
31
0
39
0
210
0
220
0
230
1
0
LINE
5
C6
100
AcDbEntity
8
1
62
256
6
ByLayer
370
13
48
1
60
0
100
AcDbLine
10
954.650481
20
49.398037
30
0
11
954.650481
21
49.437637
31
0
39
0
210
0
220
0
230
1
0
LINE
5
C7
100
AcDbEntity
8
1
62
256
6
ByLayer
370
13
48
1
60
0
100
AcDbLine
10
954.650481
20
-29.437637
30
0
11
954.650481
21
-29.398037
31
0
39
0
210
0
220
0
230
1
0
LINE
5
C8
100
AcDbEntity
8
1
62
256
6
ByLayer
370
18
48
1
60
0
100
AcDbLine
10
955.32476
20
-28.619083
30
0
11
955.32476
21
-28.443763
31
0
39
0
210
0
220
0
230
1
0
LINE
5
C9
100
AcDbEntity
8
1
62
256
6
ByLayer
370
18
48
1
60
0
100
AcDbLine
10
955.32476
20
48.443763
30
0
11
955.32476
21
48.619083
31
0
39
0
210
0
220
0
230
1
0
LINE
5
CA
100
AcDbEntity
8
1
62
256
6
ByLayer
370
13
48
1
60
0
100
AcDbLine
10
954.650481
20
-29.244068
30
0
11
954.650481
21
-29.190871
31
0
39
0
210
0
220
0
230
1
0
LINE
5
CB
100
AcDbEntity
8
1
62
256
6
ByLayer
370
13
48
1
60
0
100
AcDbLine
10
954.650481
20
49.190871
30
0
11
954.650481
21
49.244068
31
0
39
0
210
0
220
0
230
1
0
LINE
5
CC
100
AcDbEntity
8
1
62
256
6
ByLayer
370
18
48
1
60
0
100
AcDbLine
10
955.32476
20
48.157444
30
0
11
955.32476
21
48.378003
31
0
39
0
210
0
220
0
230
1
0
LINE
5
CD
100
AcDbEntity
8
1
62
256
6
ByLayer
370
18
48
1
60
0
100
AcDbLine
10
955.32476
20
-28.378003
30
0
11
955.32476
21
-28.157444
31
0
39
0
210
0
220
0
230
1
0
LINE
5
CE
100
AcDbEntity
8
1
62
256
6
ByLayer
370
13
48
1
60
0
100
AcDbLine
10
954.650481
20
-28.991877
30
0
11
954.650481
21
-28.92486
31
0
39
0
210
0
220
0
230
1
0
LINE
5
CF
100
AcDbEntity
8
1
62
256
6
ByLayer
370
13
48
1
60
0
100
AcDbLine
10
954.650481
20
48.92486
30
0
11
954.650481
21
48.991877
31
0
39
0
210
0
220
0
230
1
0
LINE
5
D0
100
AcDbEntity
8
1
62
256
6
ByLayer
370
18
48
1
60
0
100
AcDbLine
10
955.32476
20
-28.076352
30
0
11
955.32476
21
-27.808628
31
0
39
0
210
0
220
0
230
1
0
LINE
5
D1
100
AcDbEntity
8
1
62
256
6
ByLayer
370
18
48
1
60
0
100
AcDbLine
10
955.32476
20
47.808628
30
0
11
955.32476
21
48.076352
31
0
39
0
210
0
220
0
230
1
0
LINE
5
D2
100
AcDbEntity
8
1
62
256
6
ByLayer
370
13
48
1
60
0
100
AcDbLine
10
954.650481
20
-28.679918
30
0
11
954.650481
21
-28.598932
31
0
39
0
210
0
220
0
230
1
0
LINE
5
D3
100
AcDbEntity
8
1
62
256
6
ByLayer
370
13
48
1
60
0
100
AcDbLine
10
954.650481
20
48.598932
30
0
11
954.650481
21
48.679918
31
0
39
0
210
0
220
0
230
1
0
LINE
5
D4
100
AcDbEntity
8
1
62
256
6
ByLayer
370
18
48
1
60
0
100
AcDbLine
10
955.32476
20
-27.712678
30
0
11
955.32476
21
-27.398013
31
0
39
0
210
0
220
0
230
1
0
LINE
5
D5
100
AcDbEntity
8
1
62
256
6
ByLayer
370
18
48
1
60
0
100
AcDbLine
10
955.32476
20
47.398013
30
0
11
955.32476
21
47.712678
31
0
39
0
210
0
220
0
230
1
0
LINE
5
D6
100
AcDbEntity
8
1
62
256
6
ByLayer
370
13
48
1
60
0
100
AcDbLine
10
954.650481
20
-28.306732
30
0
11
954.650481
21
-28.210965
31
0
39
0
210
0
220
0
230
1
0
LINE
5
D7
100
AcDbEntity
8
1
62
256
6
ByLayer
370
13
48
1
60
0
100
AcDbLine
10
954.650481
20
48.210965
30
0
11
954.650481
21
48.306732
31
0
39
0
210
0
220
0
230
1
0
LINE
5
D8
100
AcDbEntity
8
1
62
256
6
ByLayer
370
18
48
1
60
0
100
AcDbLine
10
955.32476
20
-27.285166
30
0
11
955.32476
21
-26.92047
31
0
39
0
210
0
220
0
230
1
0
LINE
5
D9
100
AcDbEntity
8
1
62
256
6
ByLayer
370
18
48
1
60
0
100
AcDbLine
10
955.32476
20
46.92047
30
0
11
955.32476
21
47.285166
31
0
39
0
210
0
220
0
230
1
0
LINE
5
DA
100
AcDbEntity
8
1
62
256
6
ByLayer
370
13
48
1
60
0
100
AcDbLine
10
954.650481
20
-27.870507
30
0
11
954.650481
21
-27.760446
31
0
39
0
210
0
220
0
230
1
0
LINE
5
DB
100
AcDbEntity
8
1
62
256
6
ByLayer
370
13
48
1
60
0
100
AcDbLine
10
954.650481
20
47.760446
30
0
11
954.650481
21
47.870507
31
0
39
0
210
0
220
0
230
1
0
LINE
5
DC
100
AcDbEntity
8
1
62
256
6
ByLayer
370
18
48
1
60
0
100
AcDbLine
10
955.32476
20
-26.79159
30
0
11
955.32476
21
-26.375385
31
0
39
0
210
0
220
0
230
1
0
LINE
5
DD
100
AcDbEntity
8
1
62
256
6
ByLayer
370
18
48
1
60
0
100
AcDbLine
10
955.32476
20
46.375385
30
0
11
955.32476
21
46.79159
31
0
39
0
210
0
220
0
230
1
0
LINE
5
DE
100
AcDbEntity
8
1
62
256
6
ByLayer
370
13
48
1
60
0
100
AcDbLine
10
954.650481
20
-27.369037
30
0
11
954.650481
21
-27.242916
31
0
39
0
210
0
220
0
230
1
0
LINE
5
DF
100
AcDbEntity
8
1
62
256
6
ByLayer
370
13
48
1
60
0
100
AcDbLine
10
954.650481
20
47.242916
30
0
11
954.650481
21
47.369037
31
0
39
0
210
0
220
0
230
1
0
LINE
5
E0
100
AcDbEntity
8
1
62
256
6
ByLayer
370
18
48
1
60
0
100
AcDbLine
10
955.32476
20
-26.229251
30
0
11
955.32476
21
-15.999016
31
0
39
0
210
0
220
0
230
1
0
LINE
5
E1
100
AcDbEntity
8
1
62
256
6
ByLayer
370
18
48
1
60
0
100
AcDbLine
10
955.32476
20
35.999016
30
0
11
955.32476
21
46.229251
31
0
39
0
210
0
220
0
230
1
0
LINE
5
E2
100
AcDbEntity
8
1
62
256
6
ByLayer
370
13
48
1
60
0
100
AcDbLine
10
954.650481
20
-26.799654
30
0
11
954.650481
21
-26.657055
31
0
39
0
210
0
220
0
230
1
0
LINE
5
E3
100
AcDbEntity
8
1
62
256
6
ByLayer
370
13
48
1
60
0
100
AcDbLine
10
954.650481
20
46.657055
30
0
11
954.650481
21
46.799654
31
0
39
0
210
0
220
0
230
1
0
LINE
5
E4
100
AcDbEntity
8
1
62
256
6
ByLayer
370
18
48
1
60
0
100
AcDbLine
10
955.32476
20
46.37645
30
0
11
955.32476
21
46.229251
31
0
39
0
210
0
220
0
230
1
0
LINE
5
E5
100
AcDbEntity
8
1
62
256
6
ByLayer
370
18
48
1
60
0
100
AcDbLine
10
955.32476
20
46.921316
30
0
11
955.32476
21
46.79159
31
0
39
0
210
0
220
0
230
1
0
LINE
5
E6
100
AcDbEntity
8
1
62
256
6
ByLayer
370
18
48
1
60
0
100
AcDbLine
10
955.32476
20
47.398143
30
0
11
955.32476
21
47.285166
31
0
39
0
210
0
220
0
230
1
0
LINE
5
E7
100
AcDbEntity
8
1
62
256
6
ByLayer
370
18
48
1
60
0
100
AcDbLine
10
955.32476
20
47.809504
30
0
11
955.32476
21
47.712678
31
0
39
0
210
0
220
0
230
1
0
LINE
5
E8
100
AcDbEntity
8
1
62
256
6
ByLayer
370
18
48
1
60
0
100
AcDbLine
10
955.32476
20
48.157517
30
0
11
955.32476
21
48.076352
31
0
39
0
210
0
220
0
230
1
0
LINE
5
E9
100
AcDbEntity
8
1
62
256
6
ByLayer
370
18
48
1
60
0
100
AcDbLine
10
955.32476
20
48.443902
30
0
11
955.32476
21
48.378003
31
0
39
0
210
0
220
0
230
1
0
LINE
5
EA
100
AcDbEntity
8
1
62
256
6
ByLayer
370
18
48
1
60
0
100
AcDbLine
10
955.32476
20
48.670028
30
0
11
955.32476
21
48.619083
31
0
39
0
210
0
220
0
230
1
0
LINE
5
EB
100
AcDbEntity
8
1
62
256
6
ByLayer
370
18
48
1
60
0
100
AcDbLine
10
955.32476
20
48.836949
30
0
11
955.32476
21
48.800723
31
0
39
0
210
0
220
0
230
1
0
LINE
5
EC
100
AcDbEntity
8
1
62
256
6
ByLayer
370
18
48
1
60
0
100
AcDbLine
10
955.32476
20
48.945425
30
0
11
955.32476
21
48.923754
31
0
39
0
210
0
220
0
230
1
0
LINE
5
ED
100
AcDbEntity
8
1
62
256
6
ByLayer
370
18
48
1
60
0
100
AcDbLine
10
955.32476
20
48.995943
30
0
11
955.32476
21
48.98873
31
0
39
0
210
0
220
0
230
1
0
LINE
5
EE
100
AcDbEntity
8
1
62
256
6
ByLayer
370
18
48
1
60
0
100
AcDbLine
10
955.32476
20
-28.98873
30
0
11
955.32476
21
-28.995943
31
0
39
0
210
0
220
0
230
1
0
LINE
5
EF
100
AcDbEntity
8
1
62
256
6
ByLayer
370
18
48
1
60
0
100
AcDbLine
10
955.32476
20
-28.923754
30
0
11
955.32476
21
-28.945425
31
0
39
0
210
0
220
0
230
1
0
LINE
5
F0
100
AcDbEntity
8
1
62
256
6
ByLayer
370
18
48
1
60
0
100
AcDbLine
10
955.32476
20
-28.800723
30
0
11
955.32476
21
-28.836949
31
0
39
0
210
0
220
0
230
1
0
LINE
5
F1
100
AcDbEntity
8
1
62
256
6
ByLayer
370
18
48
1
60
0
100
AcDbLine
10
955.32476
20
-28.619083
30
0
11
955.32476
21
-28.670028
31
0
39
0
210
0
220
0
230
1
0
LINE
5
F2
100
AcDbEntity
8
1
62
256
6
ByLayer
370
18
48
1
60
0
100
AcDbLine
10
955.32476
20
-28.378003
30
0
11
955.32476
21
-28.443902
31
0
39
0
210
0
220
0
230
1
0
LINE
5
F3
100
AcDbEntity
8
1
62
256
6
ByLayer
370
18
48
1
60
0
100
AcDbLine
10
955.32476
20
-28.076352
30
0
11
955.32476
21
-28.157517
31
0
39
0
210
0
220
0
230
1
0
LINE
5
F4
100
AcDbEntity
8
1
62
256
6
ByLayer
370
18
48
1
60
0
100
AcDbLine
10
955.32476
20
-27.712678
30
0
11
955.32476
21
-27.809504
31
0
39
0
210
0
220
0
230
1
0
LINE
5
F5
100
AcDbEntity
8
1
62
256
6
ByLayer
370
18
48
1
60
0
100
AcDbLine
10
955.32476
20
-27.285166
30
0
11
955.32476
21
-27.398143
31
0
39
0
210
0
220
0
230
1
0
LINE
5
F6
100
AcDbEntity
8
1
62
256
6
ByLayer
370
18
48
1
60
0
100
AcDbLine
10
955.32476
20
-26.79159
30
0
11
955.32476
21
-26.921316
31
0
39
0
210
0
220
0
230
1
0
LINE
5
F7
100
AcDbEntity
8
1
62
256
6
ByLayer
370
18
48
1
60
0
100
AcDbLine
10
955.32476
20
-26.229251
30
0
11
955.32476
21
-26.37645
31
0
39
0
210
0
220
0
230
1
0
LINE
5
F8
100
AcDbEntity
8
1
62
256
6
ByLayer
370
18
48
1
60
0
100
AcDbLine
10
954.968301
20
-26.236758
30
0
11
954.968301
21
-15.999874
31
0
39
0
210
0
220
0
230
1
0
LINE
5
F9
100
AcDbEntity
8
1
62
256
6
ByLayer
370
18
48
1
60
0
100
AcDbLine
10
954.968301
20
35.999874
30
0
11
954.968301
21
46.236758
31
0
39
0
210
0
220
0
230
1
0
LINE
5
FA
100
AcDbEntity
8
1
62
256
6
ByLayer
370
18
48
1
60
0
100
AcDbLine
10
945.417888
20
33.843215
30
0
11
945.417863
21
33.843088
31
0
39
0
210
0
220
0
230
1
0
LINE
5
FB
100
AcDbEntity
8
1
62
256
6
ByLayer
370
18
48
1
60
0
100
AcDbLine
10
954.32476
20
50
30
0
11
954.32476
21
46.660501
31
0
39
0
210
0
220
0
230
1
0
LINE
5
FC
100
AcDbEntity
8
1
62
256
6
ByLayer
370
18
48
1
60
0
100
AcDbLine
10
954.32476
20
-30
30
0
11
954.32476
21
-26.660501
31
0
39
0
210
0
220
0
230
1
0
LINE
5
FD
100
AcDbEntity
8
1
62
256
6
ByLayer
370
13
48
1
60
0
100
AcDbLine
10
953.5
20
-30
30
0
11
953.5
21
47.518519
31
0
39
0
210
0
220
0
230
1
0
LINE
5
FE
100
AcDbEntity
8
1
62
256
6
ByLayer
370
18
48
1
60
0
100
AcDbLine
10
953
20
-49.5
30
0
11
953
21
45.5
31
0
39
0
210
0
220
0
230
1
0
LINE
5
FF
100
AcDbEntity
8
1
62
256
6
ByLayer
370
13
48
1
60
0
100
AcDbLine
10
944.4
20
50
30
0
11
944.4
21
-50
31
0
39
0
210
0
220
0
230
1
0
LINE
5
100
100
AcDbEntity
8
1
62
256
6
ByLayer
370
18
48
1
60
0
100
AcDbLine
10
952.5
20
-50
30
0
11
952.5
21
45.959596
31
0
39
0
210
0
220
0
230
1
0
LINE
5
101
100
AcDbEntity
8
1
62
256
6
ByLayer
370
18
48
1
60
0
100
AcDbLine
10
947.983624
20
-11.560143
30
0
11
948.183809
21
-12.17485
31
0
39
0
210
0
220
0
230
1
0
LINE
5
102
100
AcDbEntity
8
1
62
256
6
ByLayer
370
18
48
1
60
0
100
AcDbLine
10
948.563192
20
-11.532039
30
0
11
948.183809
21
-12.17485
31
0
39
0
210
0
220
0
230
1
0
LINE
5
103
100
AcDbEntity
8
1
62
256
6
ByLayer
370
18
48
1
60
0
100
AcDbLine
10
948.183809
20
-12.17485
30
0
11
946.464729
21
-12.267897
31
0
39
0
210
0
220
0
230
1
0
LINE
5
104
100
AcDbEntity
8
1
62
256
6
ByLayer
370
18
48
1
60
0
100
AcDbLine
10
0
20
-49.7
30
0
11
0.3
21
-50
31
0
39
0
210
0
220
0
230
1
0
LINE
5
105
100
AcDbEntity
8
1
62
256
6
ByLayer
370
18
48
1
60
0
100
AcDbLine
10
0.3
20
50
30
0
11
0
21
49.7
31
0
39
0
210
0
220
0
230
1
0
LINE
5
106
100
AcDbEntity
8
1
62
256
6
ByLayer
370
18
48
1
60
0
100
AcDbLine
10
943.8
20
50
30
0
11
0.3
21
50
31
0
39
0
210
0
220
0
230
1
0
LINE
5
107
100
AcDbEntity
8
1
62
256
6
ByLayer
370
18
48
1
60
0
100
AcDbLine
10
0.3
20
-50
30
0
11
943.8
21
-50
31
0
39
0
210
0
220
0
230
1
0
LINE
5
108
100
AcDbEntity
8
1
62
256
6
ByLayer
370
18
48
1
60
0
100
AcDbLine
10
970.982434
20
-13.242738
30
0
11
970.97811
21
-12.979558
31
0
39
0
210
0
220
0
230
1
0
LINE
5
109
100
AcDbEntity
8
1
62
256
6
ByLayer
370
18
48
1
60
0
100
AcDbLine
10
967.754797
20
-16.55941
30
0
11
968.016987
21
-16.536201
31
0
39
0
210
0
220
0
230
1
0
LINE
5
10A
100
AcDbEntity
8
1
62
256
6
ByLayer
370
18
48
1
60
0
100
AcDbLine
10
964.79397
20
-14.016483
30
0
11
967.564784
21
-16.511335
31
0
39
0
210
0
220
0
230
1
0
LINE
5
10B
100
AcDbEntity
8
1
62
256
6
ByLayer
370
18
48
1
60
0
100
AcDbLine
10
970.910437
20
-12.795611
30
0
11
968.56889
21
-10.687273
31
0
39
0
210
0
220
0
230
1
0
LINE
5
10C
100
AcDbEntity
8
1
62
256
6
ByLayer
370
18
48
1
60
0
100
AcDbLine
10
954.55213
20
49.77263
30
0
11
954.32476
21
50
31
0
39
0
210
0
220
0
230
1
0
LINE
5
10D
100
AcDbEntity
8
1
62
256
6
ByLayer
370
18
48
1
60
0
100
AcDbLine
10
954.32476
20
-30
30
0
11
954.55213
21
-29.77263
31
0
39
0
210
0
220
0
230
1
0
LINE
5
10E
100
AcDbEntity
8
1
62
256
6
ByLayer
370
18
48
1
60
0
100
AcDbLine
10
953.5
20
-30
30
0
11
954.32476
21
-30
31
0
39
0
210
0
220
0
230
1
0
LINE
5
10F
100
AcDbEntity
8
1
62
256
6
ByLayer
370
18
48
1
60
0
100
AcDbLine
10
954.32476
20
50
30
0
11
953
21
50
31
0
39
0
210
0
220
0
230
1
0
LINE
5
110
100
AcDbEntity
8
1
62
256
6
ByLayer
370
18
48
1
60
0
100
AcDbLine
10
952.5
20
-50
30
0
11
953
21
-49.5
31
0
39
0
210
0
220
0
230
1
0
LINE
5
111
100
AcDbEntity
8
1
62
256
6
ByLayer
370
18
48
1
60
0
100
AcDbLine
10
953.02
20
50
30
0
11
944.4
21
50
31
0
39
0
210
0
220
0
230
1
0
LINE
5
112
100
AcDbEntity
8
1
62
256
6
ByLayer
370
18
48
1
60
0
100
AcDbLine
10
944.4
20
-50
30
0
11
952.5
21
-50
31
0
39
0
210
0
220
0
230
1
0
LINE
5
113
100
AcDbEntity
8
1
62
256
6
ByLayer
370
18
48
1
60
0
100
AcDbLine
10
967.933249
20
36.631445
30
0
11
967.671059
21
36.654654
31
0
39
0
210
0
220
0
230
1
0
LINE
5
114
100
AcDbEntity
8
1
62
256
6
ByLayer
370
18
48
1
60
0
100
AcDbLine
10
970.894372
20
33.074803
30
0
11
970.898696
21
33.337982
31
0
39
0
210
0
220
0
230
1
0
LINE
5
115
100
AcDbEntity
8
1
62
256
6
ByLayer
370
18
48
1
60
0
100
AcDbLine
10
968.490256
20
30.787113
30
0
11
970.826699
21
32.890855
31
0
39
0
210
0
220
0
230
1
0
LINE
5
116
100
AcDbEntity
8
1
62
256
6
ByLayer
370
18
48
1
60
0
100
AcDbLine
10
967.481046
20
36.606579
30
0
11
964.696662
21
34.099508
31
0
39
0
210
0
220
0
230
1
0
LINE
5
117
100
AcDbEntity
8
SK2
62
256
6
ByLayer
370
18
48
1
60
0
100
AcDbLine
10
-66.6
20
-50
30
0
11
-66.6
21
50
31
0
39
0
210
0
220
0
230
1
0
LINE
5
119
100
AcDbEntity
8
SK2
62
256
6
ByLayer
370
18
48
1
60
0
100
AcDbLine
10
-1.2875
20
50
30
0
11
-68.6
21
50
31
0
39
0
210
0
220
0
230
1
0
LINE
5
11A
100
AcDbEntity
8
SK2
62
256
6
ByLayer
370
18
48
1
60
0
100
AcDbLine
10
-1.2875
20
-50
30
0
11
-68.6
21
-50
31
0
39
0
210
0
220
0
230
1
0
LINE
5
11B
100
AcDbEntity
8
1
62
256
6
ByLayer
370
18
48
1
60
1
100
AcDbLine
10
-66.6
20
50
30
0
11
-66.139216
21
46.500002
31
0
39
0
210
0
220
0
230
1
0
LINE
5
11C
100
AcDbEntity
8
1
62
256
6
ByLayer
370
18
48
1
60
1
100
AcDbLine
10
-66.139216
20
46.500002
30
0
11
-67.060784
21
46.499998
31
0
39
0
210
0
220
0
230
1
0
LINE
5
11D
100
AcDbEntity
8
1
62
256
6
ByLayer
370
18
48
1
60
1
100
AcDbLine
10
-67.060784
20
46.499998
30
0
11
-66.6
21
50
31
0
39
0
210
0
220
0
230
1
0
LINE
5
11E
100
AcDbEntity
8
1
62
256
6
ByLayer
370
18
48
1
60
1
100
AcDbLine
10
-66.6
20
-50
30
0
11
-67.060784
21
-46.500002
31
0
39
0
210
0
220
0
230
1
0
LINE
5
11F
100
AcDbEntity
8
1
62
256
6
ByLayer
370
18
48
1
60
1
100
AcDbLine
10
-67.060784
20
-46.500002
30
0
11
-66.139216
21
-46.499998
31
0
39
0
210
0
220
0
230
1
0
LINE
5
120
100
AcDbEntity
8
1
62
256
6
ByLayer
370
18
48
1
60
1
100
AcDbLine
10
-66.139216
20
-46.499998
30
0
11
-66.6
21
-50
31
0
39
0
210
0
220
0
230
1
0
LINE
5
121
100
AcDbEntity
8
SK2
62
256
6
ByLayer
370
18
48
1
60
0
100
AcDbLine
10
991.73317
20
-50
30
0
11
991.73317
21
50
31
0
39
0
210
0
220
0
230
1
0
LINE
5
122
100
AcDbEntity
8
SK2
62
256
6
ByLayer
370
18
48
1
60
0
100
AcDbLine
10
945.3875
20
50
30
0
11
993.73317
21
50
31
0
39
0
210
0
220
0
230
1
0
LINE
5
123
100
AcDbEntity
8
SK2
62
256
6
ByLayer
370
18
48
1
60
0
100
AcDbLine
10
945.3875
20
-50
30
0
11
993.73317
21
-50
31
0
39
0
210
0
220
0
230
1
0
LINE
5
124
100
AcDbEntity
8
1
62
256
6
ByLayer
370
18
48
1
60
1
100
AcDbLine
10
991.73317
20
50
30
0
11
992.193954
21
46.500002
31
0
39
0
210
0
220
0
230
1
0
LINE
5
125
100
AcDbEntity
8
1
62
256
6
ByLayer
370
18
48
1
60
1
100
AcDbLine
10
992.193954
20
46.500002
30
0
11
991.272387
21
46.499998
31
0
39
0
210
0
220
0
230
1
0
LINE
5
126
100
AcDbEntity
8
1
62
256
6
ByLayer
370
18
48
1
60
1
100
AcDbLine
10
991.272387
20
46.499998
30
0
11
991.73317
21
50
31
0
39
0
210
0
220
0
230
1
0
LINE
5
127
100
AcDbEntity
8
1
62
256
6
ByLayer
370
18
48
1
60
1
100
AcDbLine
10
991.73317
20
-50
30
0
11
991.272387
21
-46.500002
31
0
39
0
210
0
220
0
230
1
0
LINE
5
128
100
AcDbEntity
8
1
62
256
6
ByLayer
370
18
48
1
60
1
100
AcDbLine
10
991.272387
20
-46.500002
30
0
11
992.193954
21
-46.499998
31
0
39
0
210
0
220
0
230
1
0
LINE
5
129
100
AcDbEntity
8
1
62
256
6
ByLayer
370
18
48
1
60
1
100
AcDbLine
10
992.193954
20
-46.499998
30
0
11
991.73317
21
-50
31
0
39
0
210
0
220
0
230
1
0
LINE
5
12A
100
AcDbEntity
8
SK2
62
256
6
ByLayer
370
13
48
1
60
0
100
AcDbLine
10
980.10817
20
50
30
0
11
980.10817
21
-30
31
0
39
0
210
0
220
0
230
1
0
LINE
5
12B
100
AcDbEntity
8
SK2
62
256
6
ByLayer
370
13
48
1
60
0
100
AcDbLine
10
955.91226
20
-30
30
0
11
982.10817
21
-30
31
0
39
0
210
0
220
0
230
1
0
LINE
5
12C
100
AcDbEntity
8
SK2
62
256
6
ByLayer
370
13
48
1
60
0
100
AcDbLine
10
955.91226
20
50
30
0
11
982.10817
21
50
31
0
39
0
210
0
220
0
230
1
0
LINE
5
12D
100
AcDbEntity
8
1
62
256
6
ByLayer
370
18
48
1
60
1
100
AcDbLine
10
980.10817
20
-30
30
0
11
979.647387
21
-26.500002
31
0
39
0
210
0
220
0
230
1
0
LINE
5
12E
100
AcDbEntity
8
1
62
256
6
ByLayer
370
18
48
1
60
1
100
AcDbLine
10
979.647387
20
-26.500002
30
0
11
980.568954
21
-26.499998
31
0
39
0
210
0
220
0
230
1
0
LINE
5
12F
100
AcDbEntity
8
1
62
256
6
ByLayer
370
18
48
1
60
1
100
AcDbLine
10
980.568954
20
-26.499998
30
0
11
980.10817
21
-30
31
0
39
0
210
0
220
0
230
1
0
LINE
5
130
100
AcDbEntity
8
1
62
256
6
ByLayer
370
18
48
1
60
1
100
AcDbLine
10
980.10817
20
50
30
0
11
980.568954
21
46.500002
31
0
39
0
210
0
220
0
230
1
0
LINE
5
131
100
AcDbEntity
8
1
62
256
6
ByLayer
370
18
48
1
60
1
100
AcDbLine
10
980.568954
20
46.500002
30
0
11
979.647387
21
46.499998
31
0
39
0
210
0
220
0
230
1
0
LINE
5
132
100
AcDbEntity
8
1
62
256
6
ByLayer
370
18
48
1
60
1
100
AcDbLine
10
979.647387
20
46.499998
30
0
11
980.10817
21
50
31
0
39
0
210
0
220
0
230
1
0
LINE
5
133
100
AcDbEntity
8
SK2
62
256
6
ByLayer
370
18
48
1
60
0
100
AcDbLine
10
0
20
56.197619
30
0
11
955
21
56.197619
31
0
39
0
210
0
220
0
230
1
0
LINE
5
134
100
AcDbEntity
8
SK2
62
256
6
ByLayer
370
18
48
1
60
0
100
AcDbLine
10
955
20
51.5875
30
0
11
955
21
58.197619
31
0
39
0
210
0
220
0
230
1
0
LINE
5
135
100
AcDbEntity
8
SK2
62
256
6
ByLayer
370
18
48
1
60
0
100
AcDbLine
10
0
20
51.2875
30
0
11
0
21
58.197619
31
0
39
0
210
0
220
0
230
1
0
LINE
5
136
100
AcDbEntity
8
1
62
256
6
ByLayer
370
18
48
1
60
1
100
AcDbLine
10
955
20
56.197619
30
0
11
951.500002
21
55.736835
31
0
39
0
210
0
220
0
230
1
0
LINE
5
137
100
AcDbEntity
8
1
62
256
6
ByLayer
370
18
48
1
60
1
100
AcDbLine
10
951.500002
20
55.736835
30
0
11
951.499998
21
56.658402
31
0
39
0
210
0
220
0
230
1
0
LINE
5
138
100
AcDbEntity
8
1
62
256
6
ByLayer
370
18
48
1
60
1
100
AcDbLine
10
951.499998
20
56.658402
30
0
11
955
21
56.197619
31
0
39
0
210
0
220
0
230
1
0
LINE
5
139
100
AcDbEntity
8
1
62
256
6
ByLayer
370
18
48
1
60
1
100
AcDbLine
10
0
20
56.197619
30
0
11
3.499998
21
56.658402
31
0
39
0
210
0
220
0
230
1
0
LINE
5
13A
100
AcDbEntity
8
1
62
256
6
ByLayer
370
18
48
1
60
1
100
AcDbLine
10
3.499998
20
56.658402
30
0
11
3.500002
21
55.736835
31
0
39
0
210
0
220
0
230
1
0
LINE
5
13B
100
AcDbEntity
8
1
62
256
6
ByLayer
370
18
48
1
60
1
100
AcDbLine
10
3.500002
20
55.736835
30
0
11
0
21
56.197619
31
0
39
0
210
0
220
0
230
1
0
LINE
5
1D0
100
AcDbEntity
8
1
62
256
6
ByLayer
370
18
48
1
60
1
100
AcDbLine
10
-66.6
20
50
30
0
11
-66.139216
21
46.500002
31
0
39
0
210
0
220
0
230
1
0
LINE
5
1D1
100
AcDbEntity
8
1
62
256
6
ByLayer
370
18
48
1
60
1
100
AcDbLine
10
-66.139216
20
46.500002
30
0
11
-67.060784
21
46.499998
31
0
39
0
210
0
220
0
230
1
0
LINE
5
1D2
100
AcDbEntity
8
1
62
256
6
ByLayer
370
18
48
1
60
1
100
AcDbLine
10
-67.060784
20
46.499998
30
0
11
-66.6
21
50
31
0
39
0
210
0
220
0
230
1
0
LINE
5
1D4
100
AcDbEntity
8
1
62
256
6
ByLayer
370
18
48
1
60
1
100
AcDbLine
10
-66.6
20
-50
30
0
11
-67.060784
21
-46.500002
31
0
39
0
210
0
220
0
230
1
0
LINE
5
1D5
100
AcDbEntity
8
1
62
256
6
ByLayer
370
18
48
1
60
1
100
AcDbLine
10
-67.060784
20
-46.500002
30
0
11
-66.139216
21
-46.499998
31
0
39
0
210
0
220
0
230
1
0
LINE
5
1D6
100
AcDbEntity
8
1
62
256
6
ByLayer
370
18
48
1
60
1
100
AcDbLine
10
-66.139216
20
-46.499998
30
0
11
-66.6
21
-50
31
0
39
0
210
0
220
0
230
1
0
LINE
5
1DA
100
AcDbEntity
8
1
62
256
6
ByLayer
370
18
48
1
60
1
100
AcDbLine
10
991.73317
20
50
30
0
11
992.193954
21
46.500002
31
0
39
0
210
0
220
0
230
1
0
LINE
5
1DB
100
AcDbEntity
8
1
62
256
6
ByLayer
370
18
48
1
60
1
100
AcDbLine
10
992.193954
20
46.500002
30
0
11
991.272387
21
46.499998
31
0
39
0
210
0
220
0
230
1
0
LINE
5
1DC
100
AcDbEntity
8
1
62
256
6
ByLayer
370
18
48
1
60
1
100
AcDbLine
10
991.272387
20
46.499998
30
0
11
991.73317
21
50
31
0
39
0
210
0
220
0
230
1
0
LINE
5
1DE
100
AcDbEntity
8
1
62
256
6
ByLayer
370
18
48
1
60
1
100
AcDbLine
10
991.73317
20
-50
30
0
11
991.272387
21
-46.500002
31
0
39
0
210
0
220
0
230
1
0
LINE
5
1DF
100
AcDbEntity
8
1
62
256
6
ByLayer
370
18
48
1
60
1
100
AcDbLine
10
991.272387
20
-46.500002
30
0
11
992.193954
21
-46.499998
31
0
39
0
210
0
220
0
230
1
0
LINE
5
1E0
100
AcDbEntity
8
1
62
256
6
ByLayer
370
18
48
1
60
1
100
AcDbLine
10
992.193954
20
-46.499998
30
0
11
991.73317
21
-50
31
0
39
0
210
0
220
0
230
1
0
LINE
5
1E6
100
AcDbEntity
8
1
62
256
6
ByLayer
370
18
48
1
60
1
100
AcDbLine
10
980.10817
20
-30
30
0
11
979.647387
21
-26.500002
31
0
39
0
210
0
220
0
230
1
0
LINE
5
1E7
100
AcDbEntity
8
1
62
256
6
ByLayer
370
18
48
1
60
1
100
AcDbLine
10
979.647387
20
-26.500002
30
0
11
980.568954
21
-26.499998
31
0
39
0
210
0
220
0
230
1
0
LINE
5
1E8
100
AcDbEntity
8
1
62
256
6
ByLayer
370
18
48
1
60
1
100
AcDbLine
10
980.568954
20
-26.499998
30
0
11
980.10817
21
-30
31
0
39
0
210
0
220
0
230
1
0
LINE
5
1EA
100
AcDbEntity
8
1
62
256
6
ByLayer
370
18
48
1
60
1
100
AcDbLine
10
980.10817
20
50
30
0
11
980.568954
21
46.500002
31
0
39
0
210
0
220
0
230
1
0
LINE
5
1EB
100
AcDbEntity
8
1
62
256
6
ByLayer
370
18
48
1
60
1
100
AcDbLine
10
980.568954
20
46.500002
30
0
11
979.647387
21
46.499998
31
0
39
0
210
0
220
0
230
1
0
LINE
5
1EC
100
AcDbEntity
8
1
62
256
6
ByLayer
370
18
48
1
60
1
100
AcDbLine
10
979.647387
20
46.499998
30
0
11
980.10817
21
50
31
0
39
0
210
0
220
0
230
1
0
LINE
5
1EF
100
AcDbEntity
8
1
62
256
6
ByLayer
370
18
48
1
60
1
100
AcDbLine
10
955
20
56.197619
30
0
11
951.500002
21
55.736835
31
0
39
0
210
0
220
0
230
1
0
LINE
5
1F0
100
AcDbEntity
8
1
62
256
6
ByLayer
370
18
48
1
60
1
100
AcDbLine
10
951.500002
20
55.736835
30
0
11
951.499998
21
56.658402
31
0
39
0
210
0
220
0
230
1
0
LINE
5
1F1
100
AcDbEntity
8
1
62
256
6
ByLayer
370
18
48
1
60
1
100
AcDbLine
10
951.499998
20
56.658402
30
0
11
955
21
56.197619
31
0
39
0
210
0
220
0
230
1
0
LINE
5
1F3
100
AcDbEntity
8
1
62
256
6
ByLayer
370
18
48
1
60
1
100
AcDbLine
10
0
20
56.197619
30
0
11
3.499998
21
56.658402
31
0
39
0
210
0
220
0
230
1
0
LINE
5
1F4
100
AcDbEntity
8
1
62
256
6
ByLayer
370
18
48
1
60
1
100
AcDbLine
10
3.499998
20
56.658402
30
0
11
3.500002
21
55.736835
31
0
39
0
210
0
220
0
230
1
0
LINE
5
1F5
100
AcDbEntity
8
1
62
256
6
ByLayer
370
18
48
1
60
1
100
AcDbLine
10
3.500002
20
55.736835
30
0
11
0
21
56.197619
31
0
39
0
210
0
220
0
230
1
0
MTEXT
5
1CC
100
AcDbEntity
8
SK2
62
256
6
ByLayer
370
18
48
1
60
0
100
AcDbMText
10
-68.164634
20
-5.400922
30
0
210
0
220
0
230
1
1
%%c
40
3.5
41
0
44
1.084337
50
90
71
7
72
5
7
iso_b_vert
0
MTEXT
5
1CF
100
AcDbEntity
8
SK2
62
256
6
ByLayer
370
18
48
1
60
0
100
AcDbMText
10
-68.164634
20
1.571734
30
0
210
0
220
0
230
1
1
\W0.6217;100
40
3.5
41
0
44
1.084337
50
90
71
7
72
5
7
iso_b_vert
0
MTEXT
5
1D8
100
AcDbEntity
8
SK2
62
256
6
ByLayer
370
18
48
1
60
0
100
AcDbMText
10
990.168537
20
-5.400922
30
0
210
0
220
0
230
1
1
%%c
40
3.5
41
0
44
1.084337
50
90
71
7
72
5
7
iso_b_vert
0
MTEXT
5
1D9
100
AcDbEntity
8
SK2
62
256
6
ByLayer
370
18
48
1
60
0
100
AcDbMText
10
990.168537
20
1.571734
30
0
210
0
220
0
230
1
1
\W0.6217;100
40
3.5
41
0
44
1.084337
50
90
71
7
72
5
7
iso_b_vert
0
MTEXT
5
1E2
100
AcDbEntity
8
SK2
62
256
6
ByLayer
370
18
48
1
60
0
100
AcDbMText
10
977.887287
20
16.622966
30
0
210
0
220
0
230
1
1
\W1.1313;{\H1.88x;)}
40
3.5
41
0
44
1.084337
50
90
71
7
72
5
7
iso_b_vert
0
MTEXT
5
1E3
100
AcDbEntity
8
SK2
62
256
6
ByLayer
370
18
48
1
60
0
100
AcDbMText
10
977.887287
20
1.242034
30
0
210
0
220
0
230
1
1
\W1.1313;{\H1.88x;(}
40
3.5
41
0
44
1.084337
50
90
71
7
72
5
7
iso_b_vert
0
MTEXT
5
1E4
100
AcDbEntity
8
SK2
62
256
6
ByLayer
370
18
48
1
60
0
100
AcDbMText
10
977.887287
20
5.469378
30
0
210
0
220
0
230
1
1
%%c
40
3.5
41
0
44
1.084337
50
90
71
7
72
5
7
iso_b_vert
0
MTEXT
5
1E5
100
AcDbEntity
8
SK2
62
256
6
ByLayer
370
18
48
1
60
0
100
AcDbMText
10
977.887287
20
12.442034
30
0
210
0
220
0
230
1
1
\W0.6740;80
40
3.5
41
0
44
1.084337
50
90
71
7
72
5
7
iso_b_vert
0
MTEXT
5
1EE
100
AcDbEntity
8
SK2
62
256
6
ByLayer
370
18
48
1
60
0
100
AcDbMText
10
474.287301
20
57.230252
30
0
210
0
220
0
230
1
1
\W0.7138;955
40
3.5
41
0
44
1.084337
50
0
71
7
72
5
7
iso_b_vert
0
MTEXT
5
1F7
100
AcDbEntity
8
SK6
62
256
6
ByLayer
370
18
48
1
60
0
100
AcDbMText
10
430.704056
20
-75.567391
30
0
210
0
220
0
230
1
1
\W0.7379;HT30D-C10 100 955R80
40
3.5
41
0
44
1.084337
50
0
71
7
72
5
7
iso_b_vert
0
HATCH
5
1D3
100
AcDbEntity
8
SK2
62
256
6
ByLayer
370
13
48
1
60
0
100
AcDbHatch
10
0
20
0
30
0
210
0
220
0
230
1
2
ANSI31
70
0
71
0
91
1
92
5
93
3
72
1
10
-66.6000000000003
20
49.9999999999964
11
-66.1392162584475
21
46.5000016925496
72
1
10
-66.1392162584475
20
46.5000016925496
11
-67.060783741553
21
46.4999983074432
72
1
10
-67.060783741553
20
46.4999983074432
11
-66.6000000000003
21
49.9999999999964
97
0
75
0
76
1
52
0
41
0.0062
77
0
78
1
53
45
43
0
44
0
45
-0.0139193969876572
46
0.0139193969876572
79
0
47
0
98
1
10
0
20
0
0
HATCH
5
1D7
100
AcDbEntity
8
SK2
62
256
6
ByLayer
370
13
48
1
60
0
100
AcDbHatch
10
0
20
0
30
0
210
0
220
0
230
1
2
ANSI31
70
0
71
0
91
1
92
5
93
3
72
1
10
-66.6000000000003
20
-50.0000000000036
11
-67.060783741553
21
-46.5000016925568
72
1
10
-67.060783741553
20
-46.5000016925568
11
-66.1392162584475
21
-46.4999983074504
72
1
10
-66.1392162584475
20
-46.4999983074504
11
-66.6000000000003
21
-50.0000000000036
97
0
75
0
76
1
52
0
41
0.0062
77
0
78
1
53
45
43
0
44
0
45
-0.0139193969876572
46
0.0139193969876572
79
0
47
0
98
1
10
0
20
0
0
HATCH
5
1DD
100
AcDbEntity
8
SK2
62
256
6
ByLayer
370
13
48
1
60
0
100
AcDbHatch
10
0
20
0
30
0
210
0
220
0
230
1
2
ANSI31
70
0
71
0
91
1
92
5
93
3
72
1
10
991.733170336776
20
49.9999999999964
11
992.193954078328
21
46.5000016925496
72
1
10
992.193954078328
20
46.5000016925496
11
991.272386595223
21
46.4999983074432
72
1
10
991.272386595223
20
46.4999983074432
11
991.733170336776
21
49.9999999999964
97
0
75
0
76
1
52
0
41
0.0062
77
0
78
1
53
45
43
0
44
0
45
-0.0139193969876572
46
0.0139193969876572
79
0
47
0
98
1
10
0
20
0
0
HATCH
5
1E1
100
AcDbEntity
8
SK2
62
256
6
ByLayer
370
13
48
1
60
0
100
AcDbHatch
10
0
20
0
30
0
210
0
220
0
230
1
2
ANSI31
70
0
71
0
91
1
92
5
93
3
72
1
10
991.733170336776
20
-50.0000000000036
11
991.272386595223
21
-46.5000016925568
72
1
10
991.272386595223
20
-46.5000016925568
11
992.193954078328
21
-46.4999983074504
72
1
10
992.193954078328
20
-46.4999983074504
11
991.733170336776
21
-50.0000000000036
97
0
75
0
76
1
52
0
41
0.0062
77
0
78
1
53
45
43
0
44
0
45
-0.0139193969876572
46
0.0139193969876572
79
0
47
0
98
1
10
0
20
0
0
HATCH
5
1E9
100
AcDbEntity
8
SK2
62
256
6
ByLayer
370
13
48
1
60
0
100
AcDbHatch
10
0
20
0
30
0
210
0
220
0
230
1
2
ANSI31
70
0
71
0
91
1
92
5
93
3
72
1
10
980.108170336776
20
-30.0000000000036
11
979.647386595223
21
-26.5000016925568
72
1
10
979.647386595223
20
-26.5000016925568
11
980.568954078328
21
-26.4999983074504
72
1
10
980.568954078328
20
-26.4999983074504
11
980.108170336776
21
-30.0000000000036
97
0
75
0
76
1
52
0
41
0.0062
77
0
78
1
53
45
43
0
44
0
45
-0.0139193969876572
46
0.0139193969876572
79
0
47
0
98
1
10
0
20
0
0
HATCH
5
1ED
100
AcDbEntity
8
SK2
62
256
6
ByLayer
370
13
48
1
60
0
100
AcDbHatch
10
0
20
0
30
0
210
0
220
0
230
1
2
ANSI31
70
0
71
0
91
1
92
5
93
3
72
1
10
980.108170336776
20
49.9999999999964
11
980.568954078328
21
46.5000016925496
72
1
10
980.568954078328
20
46.5000016925496
11
979.647386595223
21
46.4999983074432
72
1
10
979.647386595223
20
46.4999983074432
11
980.108170336776
21
49.9999999999964
97
0
75
0
76
1
52
0
41
0.0062
77
0
78
1
53
45
43
0
44
0
45
-0.0139193969876572
46
0.0139193969876572
79
0
47
0
98
1
10
0
20
0
0
HATCH
5
1F2
100
AcDbEntity
8
SK2
62
256
6
ByLayer
370
13
48
1
60
0
100
AcDbHatch
10
0
20
0
30
0
210
0
220
0
230
1
2
ANSI31
70
0
71
0
91
1
92
5
93
3
72
1
10
955.000000000001
20
56.1976187170363
11
951.500001692554
21
55.7368349754835
72
1
10
951.500001692554
20
55.7368349754835
11
951.499998307447
21
56.6584024585891
72
1
10
951.499998307447
20
56.6584024585891
11
955.000000000001
21
56.1976187170363
97
0
75
0
76
1
52
0
41
0.0062
77
0
78
1
53
45
43
0
44
0
45
-0.0139193969876572
46
0.0139193969876572
79
0
47
0
98
1
10
0
20
0
0
HATCH
5
1F6
100
AcDbEntity
8
SK2
62
256
6
ByLayer
370
13
48
1
60
0
100
AcDbHatch
10
0
20
0
30
0
210
0
220
0
230
1
2
ANSI31
70
0
71
0
91
1
92
5
93
3
72
1
10
0
20
56.1976187170363
11
3.49999830744682
21
56.6584024585891
72
1
10
3.49999830744682
20
56.6584024585891
11
3.50000169255318
21
55.7368349754835
72
1
10
3.50000169255318
20
55.7368349754835
11
0
21
56.1976187170363
97
0
75
0
76
1
52
0
41
0.0062
77
0
78
1
53
45
43
0
44
0
45
-0.0139193969876572
46
0.0139193969876572
79
0
47
0
98
1
10
0
20
0
0
ENDSEC
0
SECTION
2
OBJECTS
0
DICTIONARY
5
266
330
0
100
AcDbDictionary
280
0
281
1
3
ACAD_GROUP
350
267
3
ACAD_MLINESTYLE
350
268
0
DICTIONARY
5
267
330
0
100
AcDbDictionary
280
0
281
1
0
DICTIONARY
5
268
330
0
100
AcDbDictionary
280
0
281
1
3
Standard
350
18
0
MLINESTYLE
5
18
330
268
100
AcDbMlineStyle
2
Standard
70
0
3

62
256
51
90
52
90
71
2
49
-0.5
62
256
6
ByLayer
49
0.5
62
256
6
ByLayer
0
RASTERVARIABLES
5
254
330

100
AcDbRasterVariables
90
0
70
1
71
1
72
1
0
ENDSEC
0
EOF
