0
SECTION
2
HEADER
9
$ACADVER
1
AC1015
9
$DWGCODEPAGE
3
ANSI_1252
9
$HANDSEED
5
317
9
$ANGBASE
50
0
9
$ANGDIR
70
0
9
$ATTMODE
70
1
9
$AUNITS
70
0
9
$AUPREC
70
0
9
$CECOLOR
62
256
9
$CELTSCALE
40
1
9
$CELTYPE
6
ByLayer
9
$CELWEIGHT
370
18
9
$CLAYER
8
0
9
$CMLJUST
70
0
9
$CMLSCALE
40
1
9
$CMLSTYLE
2
Standard
9
$DIMSTYLE
2
Standard
9
$TEXTSIZE
40
0.2
9
$TEXTSTYLE
7
Standard
9
$LUNITS
70
2
9
$LUPREC
70
4
9
$EXTNAMES
290
1
9
$INSUNITS
70
4
9
$LTSCALE
40
1
9
$LWDISPLAY
290
1
9
$PDMODE
70
0
9
$PDSIZE
40
0
9
$PLINEGEN
70
0
0
ENDSEC
0
SECTION
2
CLASSES
0
CLASS
1
RASTERVARIABLES
2
AcDbRasterVariables
3
ISM
90
0
280
0
281
0
0
ENDSEC
0
SECTION
2
TABLES
0
TABLE
2
VPORT
5
30d
100
AcDbSymbolTable
0
VPORT
5
1
100
AcDbSymbolTableRecord
100
AcDbViewportTableRecord
2
*Active
70
0
10
0
20
0
11
1
21
1
12
-1
22
1
13
0
23
0
14
0.5
24
0.5
15
10
25
10
16
0
26
0
36
1
17
0
27
0
37
0
0
ENDTAB
0
TABLE
2
LTYPE
5
30e
100
AcDbSymbolTable
0
LTYPE
5
14
100
AcDbSymbolTableRecord
100
AcDbLinetypeTableRecord
70
0
2
ByBlock
3

72
65
73
0
40
0
0
LTYPE
5
15
100
AcDbSymbolTableRecord
100
AcDbLinetypeTableRecord
70
0
2
ByLayer
3

72
65
73
0
40
0
0
LTYPE
5
16
100
AcDbSymbolTableRecord
100
AcDbLinetypeTableRecord
70
0
2
Continuous
3
Solid line
72
65
73
0
40
0
0
LTYPE
5
6E
100
AcDbSymbolTableRecord
100
AcDbLinetypeTableRecord
70
0
2
CENTER
3
____ _ ____ _ ____ _ ____
72
65
73
4
40
47.5
49
22
74
0
49
-8.5
74
0
49
8.5
74
0
49
-8.5
74
0
0
LTYPE
5
6F
100
AcDbSymbolTableRecord
100
AcDbLinetypeTableRecord
70
0
2
DASHED
3
__ __ __ __ __ __ __ __ __
72
65
73
2
40
25.72
49
12.86
74
0
49
-12.86
74
0
0
ENDTAB
0
TABLE
2
LAYER
5
30f
100
AcDbSymbolTable
0
LAYER
5
10
100
AcDbSymbolTableRecord
100
AcDbLayerTableRecord
2
0
70
0
62
7
6
Continuous
290
1
370
-3
390
0
0
LAYER
5
71
100
AcDbSymbolTableRecord
100
AcDbLayerTableRecord
2
2
70
0
62
7
6
Continuous
290
1
370
-3
390
0
0
LAYER
5
80
100
AcDbSymbolTableRecord
100
AcDbLayerTableRecord
2
81
70
0
62
-3
6
Continuous
290
1
370
-3
390
0
0
LAYER
5
82
100
AcDbSymbolTableRecord
100
AcDbLayerTableRecord
2
80
70
0
62
-6
6
Continuous
290
1
370
-3
390
0
0
LAYER
5
87
100
AcDbSymbolTableRecord
100
AcDbLayerTableRecord
2
4
70
0
62
-2
6
CENTER
290
1
370
-3
390
0
0
LAYER
5
8A
100
AcDbSymbolTableRecord
100
AcDbLayerTableRecord
2
1
70
0
62
4
6
Continuous
290
1
370
-3
390
0
0
LAYER
5
2f9
100
AcDbSymbolTableRecord
100
AcDbLayerTableRecord
2
SK4
70
0
62
2
6
CENTER
290
1
370
-3
390
0
0
LAYER
5
2fa
100
AcDbSymbolTableRecord
100
AcDbLayerTableRecord
2
SK1
70
0
62
4
6
Continuous
290
1
370
-3
390
0
0
LAYER
5
2fb
100
AcDbSymbolTableRecord
100
AcDbLayerTableRecord
2
SK2
70
0
62
7
6
Continuous
290
1
370
-3
390
0
0
LAYER
5
2fc
100
AcDbSymbolTableRecord
100
AcDbLayerTableRecord
2
SK6
70
0
62
5
6
Continuous
290
1
370
-3
390
0
0
ENDTAB
0
TABLE
2
STYLE
5
310
100
AcDbSymbolTable
0
STYLE
5
11
100
AcDbSymbolTableRecord
100
AcDbTextStyleTableRecord
2
Standard
3
txt
70
0
71
0
40
0
41
1
42
0
50
0
0
STYLE
5
27D
100
AcDbSymbolTableRecord
100
AcDbTextStyleTableRecord
2
iso_b_vert
3
simplex.shx
70
0
71
0
40
0
41
1
42
0
50
0
0
STYLE
5
27E
100
AcDbSymbolTableRecord
100
AcDbTextStyleTableRecord
2
DWGDirectTextStyle
3
simplex
70
0
71
0
40
0
41
1
42
0
50
0
0
ENDTAB
0
TABLE
2
DIMSTYLE
5
311
100
AcDbSymbolTable
100
AcDbDimStyleTable
0
DIMSTYLE
105
27
100
AcDbSymbolTableRecord
100
AcDbDimStyleTableRecord
2
Standard
70
0
3
<>
41
0.18
42
0.0625
44
0.18
140
0.18
147
0.09
73
0
74
0
77
1
271
2
275
0
278
52
280
0
340
11
0
ENDTAB
0
TABLE
2
VIEW
5
312
100
AcDbSymbolTable
0
ENDTAB
0
TABLE
2
UCS
5
313
100
AcDbSymbolTable
0
ENDTAB
0
TABLE
2
APPID
5
314
100
AcDbSymbolTable
0
APPID
5
12
100
AcDbSymbolTableRecord
100
AcDbRegAppTableRecord
2
ACAD
70
0
0
APPID
5
2F5
100
AcDbSymbolTableRecord
100
AcDbRegAppTableRecord
2
ACAD_MLEADERVER
70
0
0
ENDTAB
0
TABLE
2
BLOCK_RECORD
5
315
100
AcDbSymbolTable
0
BLOCK_RECORD
5
1F
100
AcDbSymbolTableRecord
100
AcDbBlockTableRecord
2
*Model_Space
340
0
70
0
0
BLOCK_RECORD
5
1B
100
AcDbSymbolTableRecord
100
AcDbBlockTableRecord
2
*Paper_Space
340
0
70
0
0
BLOCK_RECORD
5
23
100
AcDbSymbolTableRecord
100
AcDbBlockTableRecord
2
*Paper_Space0
340
0
70
0
0
ENDTAB
0
ENDSEC
0
SECTION
2
BLOCKS
0
BLOCK
5
20
100
AcDbEntity
8
0
100
AcDbBlockBegin
2
*Model_Space
70
0
10
0
20
0
30
0
3
*Model_Space
0
ENDBLK
5
21
100
AcDbEntity
8
0
100
AcDbBlockEnd
0
BLOCK
5
1C
100
AcDbEntity
8
0
100
AcDbBlockBegin
2
*Paper_Space
70
0
10
0
20
0
30
0
3
*Paper_Space
0
ENDBLK
5
1D
100
AcDbEntity
8
0
100
AcDbBlockEnd
0
BLOCK
5
24
100
AcDbEntity
8
0
100
AcDbBlockBegin
2
*Paper_Space0
70
0
10
0
20
0
30
0
3
*Paper_Space0
0
ENDBLK
5
25
100
AcDbEntity
8
0
100
AcDbBlockEnd
0
ENDSEC
0
SECTION
2
ENTITIES
0
ARC
5
19C
100
AcDbEntity
8
SK1
62
256
6
ByLayer
370
18
48
1
60
0
100
AcDbCircle
39
0
10
-0.6
20
38.9
30
0
40
0.999999999999997
210
0
220
0
230
1
100
AcDbArc
50
293.578178
51
306.869898
0
ARC
5
19D
100
AcDbEntity
8
SK1
62
256
6
ByLayer
370
18
48
1
60
0
100
AcDbCircle
39
0
10
-0.6
20
-38.9
30
0
40
0.999999999999997
210
0
220
0
230
1
100
AcDbArc
50
53.130102
51
66.421822
0
ARC
5
19E
100
AcDbEntity
8
1
62
256
6
ByLayer
370
18
48
1
60
0
100
AcDbCircle
39
0
10
961.8
20
-49.8
30
0
40
0.2
210
0
220
0
230
1
100
AcDbArc
50
270
51
360
0
ARC
5
19F
100
AcDbEntity
8
1
62
256
6
ByLayer
370
18
48
1
60
0
100
AcDbCircle
39
0
10
961.8
20
49.8
30
0
40
0.2
210
0
220
0
230
1
100
AcDbArc
50
360
51
90
0
ARC
5
1A0
100
AcDbEntity
8
1
62
256
6
ByLayer
370
18
48
1
60
0
100
AcDbCircle
39
0
10
974.8
20
16.900505
30
0
40
0.2
210
0
220
0
230
1
100
AcDbArc
50
0
51
90
0
ARC
5
1A1
100
AcDbEntity
8
1
62
256
6
ByLayer
370
18
48
1
60
0
100
AcDbCircle
39
0
10
974.8
20
23.300505
30
0
40
0.2
210
0
220
0
230
1
100
AcDbArc
50
270
51
0
0
ARC
5
1A2
100
AcDbEntity
8
1
62
256
6
ByLayer
370
18
48
1
60
0
100
AcDbCircle
39
0
10
980.4
20
15.700505
30
0
40
0.6
210
0
220
0
230
1
100
AcDbArc
50
270
51
360
0
ARC
5
1A3
100
AcDbEntity
8
1
62
256
6
ByLayer
370
18
48
1
60
0
100
AcDbCircle
39
0
10
980.4
20
24.500505
30
0
40
0.6
210
0
220
0
230
1
100
AcDbArc
50
360
51
90
0
ARC
5
1A4
100
AcDbEntity
8
1
62
256
6
ByLayer
370
18
48
1
60
0
100
AcDbCircle
39
0
10
974.8
20
-23.300505
30
0
40
0.2
210
0
220
0
230
1
100
AcDbArc
50
0
51
90
0
ARC
5
1A5
100
AcDbEntity
8
1
62
256
6
ByLayer
370
18
48
1
60
0
100
AcDbCircle
39
0
10
974.8
20
-16.900505
30
0
40
0.2
210
0
220
0
230
1
100
AcDbArc
50
270
51
0
0
ARC
5
1A6
100
AcDbEntity
8
1
62
256
6
ByLayer
370
18
48
1
60
0
100
AcDbCircle
39
0
10
980.4
20
-24.500505
30
0
40
0.6
210
0
220
0
230
1
100
AcDbArc
50
270
51
360
0
ARC
5
1A7
100
AcDbEntity
8
1
62
256
6
ByLayer
370
18
48
1
60
0
100
AcDbCircle
39
0
10
980.4
20
-15.700505
30
0
40
0.6
210
0
220
0
230
1
100
AcDbArc
50
360
51
90
0
ARC
5
1A8
100
AcDbEntity
8
1
62
256
6
ByLayer
370
18
48
1
60
0
100
AcDbCircle
39
0
10
974.8
20
-43.099495
30
0
40
0.2
210
0
220
0
230
1
100
AcDbArc
50
0
51
90
0
ARC
5
1A9
100
AcDbEntity
8
1
62
256
6
ByLayer
370
18
48
1
60
0
100
AcDbCircle
39
0
10
974.8
20
-36.699495
30
0
40
0.2
210
0
220
0
230
1
100
AcDbArc
50
270
51
0
0
ARC
5
1AA
100
AcDbEntity
8
1
62
256
6
ByLayer
370
18
48
1
60
0
100
AcDbCircle
39
0
10
980.4
20
-44.299495
30
0
40
0.6
210
0
220
0
230
1
100
AcDbArc
50
270
51
360
0
ARC
5
1AB
100
AcDbEntity
8
1
62
256
6
ByLayer
370
18
48
1
60
0
100
AcDbCircle
39
0
10
980.4
20
-35.499495
30
0
40
0.6
210
0
220
0
230
1
100
AcDbArc
50
360
51
90
0
ARC
5
1AC
100
AcDbEntity
8
1
62
256
6
ByLayer
370
18
48
1
60
0
100
AcDbCircle
39
0
10
974.8
20
36.699495
30
0
40
0.2
210
0
220
0
230
1
100
AcDbArc
50
0
51
90
0
ARC
5
1AD
100
AcDbEntity
8
1
62
256
6
ByLayer
370
18
48
1
60
0
100
AcDbCircle
39
0
10
974.8
20
43.099495
30
0
40
0.2
210
0
220
0
230
1
100
AcDbArc
50
270
51
0
0
ARC
5
1AE
100
AcDbEntity
8
1
62
256
6
ByLayer
370
18
48
1
60
0
100
AcDbCircle
39
0
10
980.4
20
35.499495
30
0
40
0.6
210
0
220
0
230
1
100
AcDbArc
50
270
51
360
0
ARC
5
1AF
100
AcDbEntity
8
1
62
256
6
ByLayer
370
18
48
1
60
0
100
AcDbCircle
39
0
10
980.4
20
44.299495
30
0
40
0.6
210
0
220
0
230
1
100
AcDbArc
50
360
51
90
0
ARC
5
1B0
100
AcDbEntity
8
1
62
256
6
ByLayer
370
18
48
1
60
0
100
AcDbCircle
39
0
10
965.6
20
-9.4
30
0
40
0.6
210
0
220
0
230
1
100
AcDbArc
50
180
51
270
0
ARC
5
1B1
100
AcDbEntity
8
1
62
256
6
ByLayer
370
18
48
1
60
0
100
AcDbCircle
39
0
10
962.25
20
-49.75
30
0
40
0.25
210
0
220
0
230
1
100
AcDbArc
50
180
51
270
0
ARC
5
1B2
100
AcDbEntity
8
1
62
256
6
ByLayer
370
18
48
1
60
0
100
AcDbCircle
39
0
10
962.25
20
49.75
30
0
40
0.25
210
0
220
0
230
1
100
AcDbArc
50
90
51
180
0
ELLIPSE
5
1B3
100
AcDbEntity
8
1
62
256
6
ByLayer
370
18
48
1
60
0
100
AcDbEllipse
10
-7.094011
20
0
30
0
11
23.418544699454
21
49.3543728818745
31
0
210
0
220
0
230
1
40
0.341999
41
-1.09444724969935
42
-0.154598522698914
0
ELLIPSE
5
1B4
100
AcDbEntity
8
1
62
256
6
ByLayer
370
18
48
1
60
0
100
AcDbEllipse
10
39.094011
20
0
30
0
11
23.4185446994523
21
-49.3543728818717
31
0
210
0
220
0
230
1
40
0.341999
41
-2.98699413089087
42
-2.0471454038904
0
ELLIPSE
5
1B5
100
AcDbEntity
8
1
62
256
6
ByLayer
370
18
48
1
60
0
100
AcDbEllipse
10
39.094011
20
0
30
0
11
23.4185446994533
21
49.3543728818732
31
0
210
0
220
0
230
1
40
0.341999
41
2.04714540389043
42
2.98699413089088
0
ELLIPSE
5
1B6
100
AcDbEntity
8
1
62
256
6
ByLayer
370
18
48
1
60
0
100
AcDbEllipse
10
-7.094011
20
0
30
0
11
23.4185446994533
21
-49.3543728818737
31
0
210
0
220
0
230
1
40
0.341999
41
0.154598522698916
42
1.09444724969937
0
ELLIPSE
5
1B7
100
AcDbEntity
8
1
62
256
6
ByLayer
370
13
48
1
60
0
100
AcDbEllipse
10
965.6
20
-49.594
30
0
11
0.6
21
0
31
0
210
0
220
0
230
1
40
0.951165
41
1.5707963267949
42
2.66063207077949
0
POINT
5
70
100
AcDbEntity
8
2
62
256
6
ByLayer
370
18
48
1
60
0
100
AcDbPoint
10
971
20
20.100505
30
0
39
0
210
0
220
0
230
1
50
360
0
POINT
5
72
100
AcDbEntity
8
2
62
256
6
ByLayer
370
18
48
1
60
0
100
AcDbPoint
10
633
20
0
30
0
39
0
210
0
220
0
230
1
50
360
0
POINT
5
73
100
AcDbEntity
8
2
62
256
6
ByLayer
370
18
48
1
60
0
100
AcDbPoint
10
903
20
0
30
0
39
0
210
0
220
0
230
1
50
360
0
POINT
5
74
100
AcDbEntity
8
2
62
256
6
ByLayer
370
18
48
1
60
0
100
AcDbPoint
10
971
20
39.899495
30
0
39
0
210
0
220
0
230
1
50
360
0
POINT
5
75
100
AcDbEntity
8
2
62
256
6
ByLayer
370
18
48
1
60
0
100
AcDbPoint
10
962
20
0
30
0
39
0
210
0
220
0
230
1
50
360
0
POINT
5
76
100
AcDbEntity
8
2
62
256
6
ByLayer
370
18
48
1
60
0
100
AcDbPoint
10
975
20
39.899495
30
0
39
0
210
0
220
0
230
1
50
360
0
POINT
5
77
100
AcDbEntity
8
2
62
256
6
ByLayer
370
18
48
1
60
0
100
AcDbPoint
10
975
20
-20.100505
30
0
39
0
210
0
220
0
230
1
50
360
0
POINT
5
78
100
AcDbEntity
8
2
62
256
6
ByLayer
370
18
48
1
60
0
100
AcDbPoint
10
971
20
20.100505
30
0
39
0
210
0
220
0
230
1
50
360
0
POINT
5
79
100
AcDbEntity
8
2
62
256
6
ByLayer
370
18
48
1
60
0
100
AcDbPoint
10
971
20
-20.100505
30
0
39
0
210
0
220
0
230
1
50
360
0
POINT
5
7A
100
AcDbEntity
8
2
62
256
6
ByLayer
370
18
48
1
60
0
100
AcDbPoint
10
962
20
0
30
0
39
0
210
0
220
0
230
1
50
360
0
POINT
5
7B
100
AcDbEntity
8
2
62
256
6
ByLayer
370
18
48
1
60
0
100
AcDbPoint
10
962
20
0
30
0
39
0
210
0
220
0
230
1
50
360
0
POINT
5
7C
100
AcDbEntity
8
2
62
256
6
ByLayer
370
18
48
1
60
0
100
AcDbPoint
10
971
20
-39.899495
30
0
39
0
210
0
220
0
230
1
50
360
0
POINT
5
7D
100
AcDbEntity
8
2
62
256
6
ByLayer
370
18
48
1
60
0
100
AcDbPoint
10
971
20
-39.899495
30
0
39
0
210
0
220
0
230
1
50
360
0
POINT
5
7E
100
AcDbEntity
8
2
62
256
6
ByLayer
370
18
48
1
60
0
100
AcDbPoint
10
965.225
20
30
30
0
39
0
210
0
220
0
230
1
50
360
0
POINT
5
7F
100
AcDbEntity
8
81
62
256
6
ByLayer
370
18
48
1
60
0
100
AcDbPoint
10
968
20
30
30
0
39
0
210
0
220
0
230
1
50
360
0
POINT
5
81
100
AcDbEntity
8
80
62
256
6
ByLayer
370
18
48
1
60
0
100
AcDbPoint
10
0
20
0
30
0
39
0
210
0
220
0
230
1
50
360
0
SPLINE
5
1B8
100
AcDbEntity
8
SK1
62
256
6
ByLayer
370
18
48
1
60
0
100
AcDbSpline
70
4
71
2
72
6
73
3
40
0
40
0
40
0
40
1
40
1
40
1
41
1
10
-57.9999999999999
20
34.6181755422316
30
0
41
1
10
-59.0000000184052
20
34.040899650239
30
0
41
1
10
-59.9999999999999
20
33.4636240941155
30
0
0
SPLINE
5
1B9
100
AcDbEntity
8
SK1
62
256
6
ByLayer
370
18
48
1
60
0
100
AcDbSpline
70
4
71
2
72
6
73
3
40
0
40
0
40
0
40
1
40
1
40
1
41
1
10
-60.0000000000001
20
-33.463624270945
30
0
41
1
10
-59.0000000184071
20
-34.0408998263443
30
0
41
1
10
-58.0000000000001
20
-34.6181757176365
30
0
0
SPLINE
5
1BA
100
AcDbEntity
8
SK1
62
256
6
ByLayer
370
18
48
1
60
0
100
AcDbSpline
70
4
71
3
72
11
73
7
40
0
40
0
40
0
40
0
40
0.238883862180892
40
0.497413574887387
40
0.757381157998943
40
1
40
1
40
1
40
1
41
1
10
-0.394913799811434
20
-35.8653896963417
30
0
41
1
10
-0.369683193050832
20
-35.8663180573075
30
0
41
1
10
-0.321111484140317
20
-35.8763682715858
30
0
41
1
10
-0.255176566703568
20
-35.9195944489529
30
0
41
1
10
-0.211247740473596
20
-35.9855826520852
30
0
41
1
10
-0.200957281154615
20
-36.0346194146337
30
0
41
1
10
-0.200000000000131
20
-36.0602771366802
30
0
0
SPLINE
5
1BB
100
AcDbEntity
8
SK1
62
256
6
ByLayer
370
18
48
1
60
0
100
AcDbSpline
70
4
71
3
72
11
73
7
40
0
40
0
40
0
40
0
40
0.242618842122764
40
0.502586425289053
40
0.761116137943224
40
1
40
1
40
1
40
1
41
1
10
-0.199999999999818
20
36.0602769580581
30
0
41
1
10
-0.200957281151574
20
36.0346192359749
30
0
41
1
10
-0.211247740470355
20
35.9855824733589
30
0
41
1
10
-0.255176566689812
20
35.9195942701279
30
0
41
1
10
-0.321111484128352
20
35.8763680926841
30
0
41
1
10
-0.369683193047621
20
35.8663178783903
30
0
41
1
10
-0.39491379981115
20
35.8653895174204
30
0
0
SPLINE
5
1BC
100
AcDbEntity
8
SK1
62
256
6
ByLayer
370
18
48
1
60
0
100
AcDbSpline
70
4
71
2
72
6
73
3
40
0
40
0
40
0
40
1
40
1
40
1
41
1
10
-0.39491379981115
20
35.8653762243039
30
0
41
1
10
-1.1949768888756
20
35.8452785780294
30
0
41
1
10
-1.99503997793917
20
35.8251809317473
30
0
0
SPLINE
5
1BD
100
AcDbEntity
8
SK1
62
256
6
ByLayer
370
18
48
1
60
0
100
AcDbSpline
70
4
71
2
72
6
73
3
40
0
40
0
40
0
40
1
40
1
40
1
41
1
10
-1.99503997793943
20
-35.8251811094741
30
0
41
1
10
-1.19497688887586
20
-35.8452787557246
30
0
41
1
10
-0.394913799811434
20
-35.8653764019675
30
0
0
SPLINE
5
1BE
100
AcDbEntity
8
SK1
62
256
6
ByLayer
370
18
48
1
60
0
100
AcDbSpline
70
4
71
3
72
13
73
9
40
0
40
0
40
0
40
0
40
0.239471162860123
40
0.368379894974465
40
0.500021131905154
40
0.631658853855645
40
0.760557894165859
40
1
40
1
40
1
40
1
41
1
10
-1.99503997793917
20
35.8251942148273
30
0
41
1
10
-2.02111001788324
20
35.8247924479739
30
0
41
1
10
-2.05884008786538
20
35.8309639254267
30
0
41
1
10
-2.10627671849542
20
35.8540046625366
30
0
41
1
10
-2.13886340553941
20
35.8791686789068
30
0
41
1
10
-2.16563563428861
20
35.9104461500348
30
0
41
1
10
-2.19103262331009
20
35.9566591505759
30
0
41
1
10
-2.19909176796341
20
35.9940272211736
30
0
41
1
10
-2.19999999999987
20
36.0200816554224
30
0
0
SPLINE
5
1BF
100
AcDbEntity
8
SK1
62
256
6
ByLayer
370
18
48
1
60
0
100
AcDbSpline
70
4
71
3
72
13
73
9
40
0
40
0
40
0
40
0
40
0.239442105709448
40
0.368341145979431
40
0.499978867915451
40
0.631620104860488
40
0.760528837014914
40
1
40
1
40
1
40
1
41
1
10
-2.20000000000013
20
-36.0200818341074
30
0
41
1
10
-2.19909176796173
20
-35.9940273998955
30
0
41
1
10
-2.19103262330839
20
-35.9566593293522
30
0
41
1
10
-2.16563563428642
20
-35.9104463288838
30
0
41
1
10
-2.1388634055364
20
-35.8791688578038
30
0
41
1
10
-2.10627671849207
20
-35.854004841473
30
0
41
1
10
-2.05884008785986
20
-35.8309641043989
30
0
41
1
10
-2.02111001788052
20
-35.8247926269554
30
0
41
1
10
-1.99503997793943
20
-35.82519439381
30
0
0
SPLINE
5
1C0
100
AcDbEntity
8
SK1
62
256
6
ByLayer
370
18
48
1
60
0
100
AcDbSpline
70
4
71
2
72
6
73
3
40
0
40
0
40
0
40
1
40
1
40
1
41
1
10
-2.19999999999987
20
35.9985719120492
30
0
41
1
10
-30.1000000035744
20
35.2981890859067
30
0
41
1
10
-57.9999999999999
20
34.597800310042
30
0
0
SPLINE
5
1C1
100
AcDbEntity
8
SK1
62
256
6
ByLayer
370
18
48
1
60
0
100
AcDbSpline
70
4
71
2
72
6
73
3
40
0
40
0
40
0
40
1
40
1
40
1
41
1
10
-58.0000000000001
20
-34.5978000890186
30
0
41
1
10
-30.1000000035745
20
-35.2981888603888
30
0
41
1
10
-2.20000000000013
20
-35.9985716822014
30
0
0
SPLINE
5
1C2
100
AcDbEntity
8
SK1
62
256
6
ByLayer
370
18
48
1
60
0
100
AcDbSpline
70
4
71
3
72
55
73
51
40
0
40
0
40
0
40
0
40
0.0021426929108273
40
0.0298014009835575
40
0.0574601090562877
40
0.0851188171290178
40
0.112777525201748
40
0.140436233274478
40
0.168094941347208
40
0.195753649419938
40
0.223412357492668
40
0.251071065565399
40
0.278729773638129
40
0.306388481710859
40
0.334047189783589
40
0.361705897856319
40
0.389364605929049
40
0.403193959965415
40
0.41702331400178
40
0.430852668038145
40
0.44468202207451
40
0.458511376110875
40
0.47234073014724
40
0.486170084183605
40
0.493084761201787
40
0.49999943821997
40
0.506914115238153
40
0.513828792256335
40
0.5276581462927
40
0.541487500329065
40
0.55531685436543
40
0.569146208401795
40
0.58297556243816
40
0.596804916474525
40
0.610634270510891
40
0.638292978583621
40
0.665951686656351
40
0.693610394729081
40
0.721269102801811
40
0.748927810874541
40
0.776586518947271
40
0.804245227020002
40
0.831903935092732
40
0.859562643165462
40
0.887221351238192
40
0.914880059310922
40
0.942538767383652
40
0.970197475456382
40
0.997856183529113
40
1
40
1
40
1
40
1
41
1
10
-60.0000000000001
20
-33.4636353450899
30
0
41
1
10
-60.0000000000001
20
-33.4633418350181
30
0
41
1
10
-60.0000000000001
20
-33.4548082611017
30
0
41
1
10
-60.0000000000001
20
-33.3205056815015
30
0
41
1
10
-60.0000000000001
20
-32.8505413890955
30
0
41
1
10
-60.0000000000001
20
-32.1329294130155
30
0
41
1
10
-60.0000000000001
20
-31.1885173778895
30
0
41
1
10
-60.0000000000001
20
-30.033383709577
30
0
41
1
10
-60.0000000000001
20
-28.6802027696426
30
0
41
1
10
-60.0000000000001
20
-27.1391563014212
30
0
41
1
10
-60.0000000000001
20
-25.4186126805196
30
0
41
1
10
-60.0000000000001
20
-23.5255321087807
30
0
41
1
10
-60.0000000000001
20
-21.4658195107746
30
0
41
1
10
-60.0000000000001
20
-19.2446308945637
30
0
41
1
10
-60.0000000000001
20
-16.8668253225732
30
0
41
1
10
-60.0000000000001
20
-14.3374601373515
30
0
41
1
10
-60
20
-12.1145030090861
30
0
41
1
10
-60
20
-10.2537713764772
30
0
41
1
10
-60
20
-8.83314461375005
30
0
41
1
10
-60
20
-7.38364733925624
30
0
41
1
10
-60
20
-5.91000562514989
30
0
41
1
10
-60
20
-4.4200428506075
30
0
41
1
10
-60
20
-2.92703470265559
30
0
41
1
10
-60
20
-1.70333091645796
30
0
41
1
10
-60
20
-0.720500335383463
30
0
41
1
10
-60
20
-1.53638666E-08
30
0
41
1
10
-60
20
0.720500611729165
30
0
41
1
10
-60
20
1.70333122668194
30
0
41
1
10
-60
20
2.92703464210848
30
0
41
1
10
-60
20
4.42004263163022
30
0
41
1
10
-60
20
5.9100059937137
30
0
41
1
10
-60
20
7.38364757350564
30
0
41
1
10
-60
20
8.83314440595325
30
0
41
1
10
-60
20
10.2537717697711
30
0
41
1
10
-59.9999999999999
20
12.1145025622944
30
0
41
1
10
-59.9999999999999
20
14.3374601761271
30
0
41
1
10
-59.9999999999999
20
16.8668255987006
30
0
41
1
10
-59.9999999999999
20
19.244630869401
30
0
41
1
10
-59.9999999999999
20
21.4658194114311
30
0
41
1
10
-59.9999999999999
20
23.5255322928728
30
0
41
1
10
-59.9999999999999
20
25.4186124925266
30
0
41
1
10
-59.9999999999999
20
27.1391563797825
30
0
41
1
10
-59.9999999999999
20
28.6802025797168
30
0
41
1
10
-59.9999999999999
20
30.0333837103401
30
0
41
1
10
-59.9999999999999
20
31.1885173679486
30
0
41
1
10
-59.9999999999999
20
32.1329288173201
30
0
41
1
10
-59.9999999999999
20
32.8505413389775
30
0
41
1
10
-59.9999999999999
20
33.3205059792771
30
0
41
1
10
-59.9999999999999
20
33.4548110634113
30
0
41
1
10
-59.9999999999999
20
33.4633423484581
30
0
41
1
10
-59.9999999999999
20
33.4636356543976
30
0
0
SPLINE
5
1C3
100
AcDbEntity
8
SK1
62
256
6
ByLayer
370
18
48
1
60
0
100
AcDbSpline
70
4
71
3
72
35
73
31
40
0
40
0
40
0
40
0
40
0.249999999999997
40
0.249999999999997
40
0.374999999999998
40
0.374999999999998
40
0.499999999999999
40
0.499999999999999
40
0.624999999999999
40
0.624999999999999
40
0.687500000000001
40
0.687500000000001
40
0.750000000000002
40
0.750000000000002
40
0.812500000000004
40
0.812500000000004
40
0.843750000000004
40
0.843750000000004
40
0.875000000000005
40
0.875000000000005
40
0.906250000000006
40
0.906250000000006
40
0.921875000000006
40
0.921875000000006
40
0.937500000000007
40
0.937500000000007
40
0.953125000000007
40
0.953125000000007
40
0.968750000000008
40
1
40
1
40
1
40
1
41
1
10
-0.200000000000017
20
-6.81513478724611
30
0
41
1
10
-0.200338559745831
20
-6.75019455649687
30
0
41
1
10
-0.202015290054646
20
-6.68521895117203
30
0
41
1
10
-0.207341087389409
20
-6.58770581547981
30
0
41
1
10
-0.209590420526951
20
-6.55519323641431
30
0
41
1
10
-0.215316946322531
20
-6.4901547060374
30
0
41
1
10
-0.218787497090688
20
-6.45762862829321
30
0
41
1
10
-0.227462754000754
20
-6.39257019354176
30
0
41
1
10
-0.23263600663239
20
-6.36013139183518
30
0
41
1
10
-0.242440199067005
20
-6.31178890673766
30
0
41
1
10
-0.246061015445633
20
-6.29569872196828
30
0
41
1
10
-0.254247154374525
20
-6.26378985464163
30
0
41
1
10
-0.258796103956485
20
-6.24800183842427
30
0
41
1
10
-0.26928915316779
20
-6.21693652516302
30
0
41
1
10
-0.275203088231365
20
-6.20164812034517
30
0
41
1
10
-0.285975269686759
20
-6.17941326237553
30
0
41
1
10
-0.289887109237753
20
-6.1721194929425
30
0
41
1
10
-0.298743534933749
20
-6.15791144208123
30
0
41
1
10
-0.303619948323529
20
-6.15109580779926
30
0
41
1
10
-0.314768934999933
20
-6.13864094702626
30
0
41
1
10
-0.32096631649344
20
-6.13307709934361
30
0
41
1
10
-0.331608689070237
20
-6.12677507307677
30
0
41
1
10
-0.335424941304297
20
-6.12501830371843
30
0
41
1
10
-0.343229294830081
20
-6.12257787152618
30
0
41
1
10
-0.347325836481844
20
-6.12186429918972
30
0
41
1
10
-0.355452660466
20
-6.12159300997945
30
0
41
1
10
-0.359469499195768
20
-6.12201356674984
30
0
41
1
10
-0.367420535136233
20
-6.12384711124531
30
0
41
1
10
-0.378768531813392
20
-6.12796735398592
30
0
41
1
10
-0.388797444116932
20
-6.13511490508347
30
0
41
1
10
-0.39491379981132
20
-6.1404895479867
30
0
0
SPLINE
5
1C4
100
AcDbEntity
8
SK1
62
256
6
ByLayer
370
18
48
1
60
0
100
AcDbSpline
70
4
71
3
72
38
73
34
40
0
40
0
40
0
40
0
40
0.0156250000000012
40
0.0156250000000012
40
0.0312500000000023
40
0.0312500000000023
40
0.0468750000000035
40
0.0468750000000035
40
0.0625000000000046
40
0.0625000000000046
40
0.0781250000000058
40
0.0781250000000058
40
0.093750000000007
40
0.093750000000007
40
0.125000000000007
40
0.125000000000007
40
0.156250000000007
40
0.156250000000007
40
0.187500000000006
40
0.187500000000006
40
0.250000000000006
40
0.250000000000006
40
0.312500000000005
40
0.312500000000005
40
0.375000000000005
40
0.375000000000005
40
0.500000000000004
40
0.500000000000004
40
0.625000000000003
40
0.625000000000003
40
0.750000000000002
40
0.750000000000002
40
1
40
1
40
1
40
1
41
1
10
-0.394913799811263
20
6.14048931519881
30
0
41
1
10
-0.391859175197254
20
6.13780511628147
30
0
41
1
10
-0.388686559823725
20
6.13529574333785
30
0
41
1
10
-0.382033424453482
20
6.13073337924817
30
0
41
1
10
-0.37852947079017
20
6.12866765624966
30
0
41
1
10
-0.37121101952664
20
6.12522181033523
30
0
41
1
10
-0.367433379654869
20
6.12385483366967
30
0
41
1
10
-0.359574524938068
20
6.12203263759289
30
0
41
1
10
-0.35547204290279
20
6.12159560817219
30
0
41
1
10
-0.34738263983391
20
6.12185872817406
30
0
41
1
10
-0.343285185316574
20
6.12256411001283
30
0
41
1
10
-0.335452839534213
20
6.1250054440053
30
0
41
1
10
-0.331693726093022
20
6.1267288459369
30
0
41
1
10
-0.320936929416774
20
6.13308563425852
30
0
41
1
10
-0.314749234501505
20
6.13865828268484
30
0
41
1
10
-0.303586892285011
20
6.15113696370872
30
0
41
1
10
-0.298759657726578
20
6.15789253941819
30
0
41
1
10
-0.289962437596159
20
6.17199129036317
30
0
41
1
10
-0.285990787434173
20
6.17937676918206
30
0
41
1
10
-0.275088323518133
20
6.20189327718197
30
0
41
1
10
-0.269151523758893
20
6.21729962361047
30
0
41
1
10
-0.258638343325884
20
6.24851404682823
30
0
41
1
10
-0.254096489237071
20
6.2643324397734
30
0
41
1
10
-0.245933915331676
20
6.29623991319608
30
0
41
1
10
-0.242319543002253
20
6.31233859574394
30
0
41
1
10
-0.232501591303219
20
6.36088659443806
30
0
41
1
10
-0.227355749960736
20
6.39329057484417
30
0
41
1
10
-0.218731591997454
20
6.45813108693864
30
0
41
1
10
-0.21527619678875
20
6.49056858627654
30
0
41
1
10
-0.209571318882297
20
6.555459254276
30
0
41
1
10
-0.207328217206253
20
6.58791268903786
30
0
41
1
10
-0.202014906793778
20
6.68528329279224
30
0
41
1
10
-0.200338479334306
20
6.75020990600598
30
0
41
1
10
-0.199999999999989
20
6.81513476249575
30
0
0
SPLINE
5
1C5
100
AcDbEntity
8
SK1
62
256
6
ByLayer
370
13
48
1
60
0
100
AcDbSpline
70
4
71
3
72
27
73
23
40
0
40
0
40
0
40
0
40
0.0125014892351884
40
0.0431281927711946
40
0.0737548963072009
40
0.104381599843207
40
0.135008303379213
40
0.196261710451226
40
0.257515117523238
40
0.318768524595251
40
0.380021931667263
40
0.441275338739275
40
0.502528745811288
40
0.5637821528833
40
0.625035559955313
40
0.686288967027325
40
0.747542374099338
40
0.80879578117135
40
0.870049188243363
40
0.931302595315375
40
0.992556002387388
40
1
40
1
40
1
40
1
41
1
10
-0.39491379981132
20
-6.14048954798812
30
0
41
1
10
-0.39491379981132
20
-6.36440300196199
30
0
41
1
10
-0.39491379981132
20
-7.13289945093021
30
0
41
1
10
-0.39491379981132
20
-8.42331075216447
30
0
41
1
10
-0.39491379981132
20
-9.98816040557102
30
0
41
1
10
-0.394913799811349
20
-11.5102859417502
30
0
41
1
10
-0.394913799811349
20
-13.4834575653737
30
0
41
1
10
-0.394913799811349
20
-15.8428434722906
30
0
41
1
10
-0.394913799811349
20
-18.5056011360314
30
0
41
1
10
-0.394913799811377
20
-20.9993892841997
30
0
41
1
10
-0.394913799811377
20
-23.3230322455299
30
0
41
1
10
-0.394913799811377
20
-25.4742063724191
30
0
41
1
10
-0.394913799811405
20
-27.449451757043
30
0
41
1
10
-0.394913799811405
20
-29.2440107058567
30
0
41
1
10
-0.394913799811405
20
-30.8516499008688
30
0
41
1
10
-0.394913799811405
20
-32.2643689271589
30
0
41
1
10
-0.394913799811405
20
-33.4720135663698
30
0
41
1
10
-0.394913799811434
20
-34.4615411736756
30
0
41
1
10
-0.394913799811434
20
-35.2159258037197
30
0
41
1
10
-0.394913799811434
20
-35.7124173230212
30
0
41
1
10
-0.394913799811434
20
-35.8588061164071
30
0
41
1
10
-0.394913799811434
20
-35.8655011560558
30
0
41
1
10
-0.394913799811434
20
-35.8653758453687
30
0
0
SPLINE
5
1C6
100
AcDbEntity
8
SK1
62
256
6
ByLayer
370
18
48
1
60
0
100
AcDbSpline
70
4
71
3
72
44
73
40
40
0
40
0
40
0
40
0
40
0.0312499999999969
40
0.0312499999999969
40
0.0468749999999956
40
0.0468749999999956
40
0.0624999999999944
40
0.0781249999999932
40
0.0781249999999932
40
0.0859374999999929
40
0.0859374999999929
40
0.0937499999999926
40
0.109374999999992
40
0.109374999999992
40
0.124999999999992
40
0.124999999999992
40
0.156249999999991
40
0.156249999999991
40
0.18749999999999
40
0.18749999999999
40
0.218749999999989
40
0.218749999999989
40
0.249999999999988
40
0.249999999999988
40
0.312499999999988
40
0.312499999999988
40
0.374999999999987
40
0.374999999999987
40
0.437499999999987
40
0.437499999999987
40
0.499999999999987
40
0.499999999999987
40
0.62499999999999
40
0.62499999999999
40
0.749999999999993
40
0.749999999999993
40
0.874999999999997
40
0.874999999999997
40
1
40
1
40
1
40
1
41
1
10
-0.39491379981132
20
-6.14048954798812
30
0
41
1
10
-0.411320296904194
20
-6.15490647656026
30
0
41
1
10
-0.428692575635296
20
-6.16812049444115
30
0
41
1
10
-0.456847871703985
20
-6.18533833468359
30
0
41
1
10
-0.466645793041778
20
-6.190662165194
30
0
41
1
10
-0.486679220255837
20
-6.20001925474503
30
0
41
1
10
-0.507195340378559
20
-6.20812819851409
30
0
41
1
10
-0.528819088976064
20
-6.21337534589202
30
0
41
1
10
-0.545522979159642
20
-6.21605544304009
30
0
41
1
10
-0.551173881687731
20
-6.21673571501583
30
0
41
1
10
-0.562387828318549
20
-6.21763160756586
30
0
41
1
10
-0.579171588290023
20
-6.21829610951232
30
0
41
1
10
-0.595845611378707
20
-6.21695442895037
30
0
41
1
10
-0.617982640268394
20
-6.21342877796661
30
0
41
1
10
-0.629092493063609
20
-6.21075953330535
30
0
41
1
10
-0.661178894788975
20
-6.20061034113303
30
0
41
1
10
-0.681215510343293
20
-6.19103427162474
30
0
41
1
10
-0.719340518859042
20
-6.16783435052412
30
0
41
1
10
-0.736840009746544
20
-6.15457756836202
30
0
41
1
10
-0.769702703210783
20
-6.12594888888395
30
0
41
1
10
-0.785070378501985
20
-6.11054891190958
30
0
41
1
10
-0.814264246961585
20
-6.07816953792792
30
0
41
1
10
-0.827902203448076
20
-6.06139145953347
30
0
41
1
10
-0.866591379680074
20
-6.00998831052675
30
0
41
1
10
-0.889552422423549
20
-5.97421011732268
30
0
41
1
10
-0.93205245088015
20
-5.90079746755288
30
0
41
1
10
-0.951550604545673
20
-5.8631417358763
30
0
41
1
10
-0.988106509998431
20
-5.78648090037512
30
0
41
1
10
-1.00516682254644
20
-5.7474209945816
30
0
41
1
10
-1.03715984705502
20
-5.66894819794635
30
0
41
1
10
-1.0521344144392
20
-5.62944051499005
30
0
41
1
10
-1.09469182958466
20
-5.51026258495523
30
0
41
1
10
-1.11994311520161
20
-5.42994544157921
30
0
41
1
10
-1.1662622239964
20
-5.2680431737038
30
0
41
1
10
-1.18730158957433
20
-5.18645153904424
30
0
41
1
10
-1.22623577285506
20
-5.02222827252785
30
0
41
1
10
-1.24411971327538
20
-4.93959396507074
30
0
41
1
10
-1.27738506598777
20
-4.77341902800811
30
0
41
1
10
-1.2927621929098
20
-4.68987741371876
30
0
41
1
10
-1.30710678118655
20
-4.60592606074874
30
0
0
SPLINE
5
1C7
100
AcDbEntity
8
SK1
62
256
6
ByLayer
370
18
48
1
60
0
100
AcDbSpline
70
4
71
3
72
52
73
48
40
0
40
0
40
0
40
0
40
0.124999999999997
40
0.124999999999997
40
0.249999999999993
40
0.249999999999993
40
0.312499999999993
40
0.312499999999993
40
0.374999999999993
40
0.374999999999993
40
0.499999999999988
40
0.499999999999988
40
0.562499999999987
40
0.562499999999987
40
0.624999999999986
40
0.624999999999986
40
0.687499999999985
40
0.687499999999985
40
0.718749999999985
40
0.718749999999985
40
0.749999999999985
40
0.749999999999985
40
0.781249999999984
40
0.781249999999984
40
0.812499999999984
40
0.812499999999984
40
0.828124999999985
40
0.828124999999985
40
0.843749999999986
40
0.843749999999986
40
0.859374999999988
40
0.859374999999988
40
0.874999999999989
40
0.89062499999999
40
0.89062499999999
40
0.898437499999991
40
0.898437499999991
40
0.906249999999991
40
0.921874999999992
40
0.921874999999992
40
0.937499999999993
40
0.937499999999993
40
0.968749999999995
40
0.968749999999995
40
0.984374999999998
40
0.984374999999998
40
1
40
1
40
1
40
1
41
1
10
-1.30710678118652
20
4.60592664169553
30
0
41
1
10
-1.29275891091695
20
4.68989714720857
30
0
41
1
10
-1.27736962638437
20
4.77350841426141
30
0
41
1
10
-1.24404820493325
20
4.9399397228791
30
0
41
1
10
-1.22612064508869
20
5.02276061332566
30
0
41
1
10
-1.19681208321498
20
5.14631322592794
30
0
41
1
10
-1.18663768174733
20
5.18738396050338
30
0
41
1
10
-1.16535505328312
20
5.26927678319413
30
0
41
1
10
-1.15423917443448
20
5.31012638756459
30
0
41
1
10
-1.11931731285438
20
5.43201276986741
30
0
41
1
10
-1.09398428792127
20
5.51239595526584
30
0
41
1
10
-1.05148525648869
20
5.63117963544465
30
0
41
1
10
-1.03656113937748
20
5.67047297182705
30
0
41
1
10
-1.00477875230897
20
5.74831460023262
30
0
41
1
10
-0.98792647788153
20
5.78686496693513
30
0
41
1
10
-0.951618923970926
20
5.86299160032428
30
0
41
1
10
-0.932180037806262
20
5.90057354452273
30
0
41
1
10
-0.900153001667064
20
5.95590061943511
30
0
41
1
10
-0.888962127258139
20
5.9742145038457
30
0
41
1
10
-0.865496992525976
20
6.01015344582646
30
0
41
1
10
-0.853252514704224
20
6.02774095695474
30
0
41
1
10
-0.827458831985751
20
6.06194863274374
30
0
41
1
10
-0.813913312977633
20
6.07857148158422
30
0
41
1
10
-0.785075891824761
20
6.11052946629451
30
0
41
1
10
-0.769793584513906
20
6.12587159294549
30
0
41
1
10
-0.744972277821574
20
6.14749176791878
30
0
41
1
10
-0.736378832912976
20
6.15445714630403
30
0
41
1
10
-0.718692978023824
20
6.16759076245791
30
0
41
1
10
-0.709571748065656
20
6.17378612133842
30
0
41
1
10
-0.690657240434462
20
6.18528091245651
30
0
41
1
10
-0.680808653574928
20
6.19060634315309
30
0
41
1
10
-0.660548602982999
20
6.20002330412603
30
0
41
1
10
-0.63986137796212
20
6.20815612202625
30
0
41
1
10
-0.618206929166234
20
6.21338279886066
30
0
41
1
10
-0.601549235398664
20
6.21605069297289
30
0
41
1
10
-0.595894684359621
20
6.21673259001068
30
0
41
1
10
-0.584623491536121
20
6.2176327300308
30
0
41
1
10
-0.567784303200085
20
6.2182961509402
30
0
41
1
10
-0.55114318445527
20
6.21694745395433
30
0
41
1
10
-0.529123888329934
20
6.21343336489906
30
0
41
1
10
-0.518101951885455
20
6.21078160435087
30
0
41
1
10
-0.486210164870357
20
6.20067411916989
30
0
41
1
10
-0.466388186231001
20
6.19116060030751
30
0
41
1
10
-0.438186505727458
20
6.17393188540939
30
0
41
1
10
-0.429090292917067
20
6.16771263779106
30
0
41
1
10
-0.411568394116813
20
6.15460321336286
30
0
41
1
10
-0.403113287056044
20
6.14769447379137
30
0
41
1
10
-0.394913799811263
20
6.14048931519875
30
0
0
SPLINE
5
1C8
100
AcDbEntity
8
SK1
62
256
6
ByLayer
370
13
48
1
60
0
100
AcDbSpline
70
4
71
3
72
27
73
23
40
0
40
0
40
0
40
0
40
0.0074621415305275
40
0.0687144286261715
40
0.129966715721815
40
0.191219002817459
40
0.252471289913103
40
0.313723577008747
40
0.374975864104391
40
0.436228151200035
40
0.497480438295679
40
0.558732725391323
40
0.619985012486967
40
0.681237299582611
40
0.742489586678255
40
0.803741873773899
40
0.864994160869543
40
0.895620304417365
40
0.926246447965187
40
0.956872591513008
40
0.98749873506083
40
1
40
1
40
1
40
1
41
1
10
-0.394913799811178
20
35.8653747195708
30
0
41
1
10
-0.394913799811178
20
35.8655045632699
30
0
41
1
10
-0.39491379981115
20
35.8588269020956
30
0
41
1
10
-0.39491379981115
20
35.7124176199326
30
0
41
1
10
-0.39491379981115
20
35.2159257001026
30
0
41
1
10
-0.39491379981115
20
34.4615405790489
30
0
41
1
10
-0.394913799811178
20
33.4720136264138
30
0
41
1
10
-0.394913799811178
20
32.2643688967805
30
0
41
1
10
-0.394913799811178
20
30.8516497262062
30
0
41
1
10
-0.394913799811178
20
29.2440107893824
30
0
41
1
10
-0.394913799811178
20
27.4494515900979
30
0
41
1
10
-0.394913799811206
20
25.4742065689819
30
0
41
1
10
-0.394913799811206
20
23.3230321121426
30
0
41
1
10
-0.394913799811206
20
20.9993893665863
30
0
41
1
10
-0.394913799811235
20
18.505601336728
30
0
41
1
10
-0.394913799811235
20
15.8428433477203
30
0
41
1
10
-0.394913799811235
20
13.4834574083321
30
0
41
1
10
-0.394913799811235
20
11.510286218877
30
0
41
1
10
-0.394913799811263
20
9.98816027318446
30
0
41
1
10
-0.394913799811263
20
8.42331104678902
30
0
41
1
10
-0.394913799811263
20
7.13289939289211
30
0
41
1
10
-0.394913799811263
20
6.36440284602151
30
0
41
1
10
-0.394913799811263
20
6.14048931519881
30
0
0
SPLINE
5
1C9
100
AcDbEntity
8
SK1
62
256
6
ByLayer
370
18
48
1
60
0
100
AcDbSpline
70
4
71
3
72
29
73
25
40
0
40
0
40
0
40
0
40
0.125
40
0.125
40
0.25
40
0.25
40
0.3125
40
0.3125
40
0.34375
40
0.34375
40
0.375
40
0.375
40
0.5
40
0.5
40
0.625
40
0.625
40
0.75
40
0.75
40
0.78125
40
0.78125
40
0.8125
40
0.875
40
0.875
40
1
40
1
40
1
40
1
41
1
10
-1.30710678118655
20
-4.60592606074869
30
0
41
1
10
-1.37081125400846
20
-4.23309718755536
30
0
41
1
10
-1.42988244415665
20
-3.85762223498023
30
0
41
1
10
-1.53601697125637
20
-3.10046674502002
30
0
41
1
10
-1.58309608481946
20
-2.71879180004015
30
0
41
1
10
-1.6418538836833
20
-2.14065366130035
30
0
41
1
10
-1.65945940647146
20
-1.94700181642941
30
0
41
1
10
-1.68249845293482
20
-1.65497671689536
30
0
41
1
10
-1.68961870290613
20
-1.55733947190663
30
0
41
1
10
-1.70266427629372
20
-1.36168548678421
30
0
41
1
10
-1.70857393117737
20
-1.2639093425509
30
0
41
1
10
-1.73495061568829
20
-0.775288794588619
30
0
41
1
10
-1.7457641954185
20
-0.385233065375189
30
0
41
1
10
-1.74561737258446
20
0.393133285396345
30
0
41
1
10
-1.73466515643025
20
0.781444423561027
30
0
41
1
10
-1.69273604411049
20
1.55642983746571
30
0
41
1
10
-1.66186877360201
20
1.94311068769235
30
0
41
1
10
-1.61291274879554
20
2.42556605138475
30
0
41
1
10
-1.60259660498775
20
2.52208429114984
30
0
41
1
10
-1.58103161178599
20
2.714623369474
30
0
41
1
10
-1.54729100893732
20
3.0026557867829
30
0
41
1
10
-1.50965797271613
20
3.28847396604806
30
0
41
1
10
-1.42991858386861
20
3.85743979515036
30
0
41
1
10
-1.37079534340222
20
4.23319113014099
30
0
41
1
10
-1.30710678118652
20
4.60592664169553
30
0
0
SPLINE
5
1CA
100
AcDbEntity
8
SK1
62
256
6
ByLayer
370
13
48
1
60
0
100
AcDbSpline
70
4
71
3
72
55
73
51
40
0
40
0
40
0
40
0
40
0.0031237097897997
40
0.0307298994145936
40
0.0583360890393875
40
0.0859422786641814
40
0.113548468288975
40
0.141154657913769
40
0.168760847538563
40
0.196367037163357
40
0.223973226788151
40
0.251579416412945
40
0.279185606037739
40
0.306791795662533
40
0.334397985287327
40
0.36200417491212
40
0.389610364536914
40
0.403413459349311
40
0.417216554161708
40
0.431019648974105
40
0.444822743786502
40
0.458625838598899
40
0.472428933411296
40
0.486232028223693
40
0.493133575629891
40
0.50003512303609
40
0.506936670442288
40
0.513838217848487
40
0.527641312660884
40
0.541444407473281
40
0.555247502285678
40
0.569050597098075
40
0.582853691910472
40
0.596656786722869
40
0.610459881535265
40
0.638066071160059
40
0.665672260784853
40
0.693278450409647
40
0.720884640034441
40
0.748490829659235
40
0.776097019284029
40
0.803703208908823
40
0.831309398533617
40
0.858915588158411
40
0.886521777783205
40
0.914127967407998
40
0.941734157032792
40
0.969340346657586
40
0.99694653628238
40
1
40
1
40
1
40
1
41
1
10
-1.99503997793917
20
35.8251941568273
30
0
41
1
10
-1.99503997793917
20
35.8252016983985
30
0
41
1
10
-1.99503997793917
20
35.818040453079
30
0
41
1
10
-1.99503997793917
20
35.6723836848468
30
0
41
1
10
-1.99503997793917
20
35.1763357577499
30
0
41
1
10
-1.99503997793917
20
34.4225661075322
30
0
41
1
10
-1.99503997793917
20
33.4337942626939
30
0
41
1
10
-1.99503997793917
20
32.2270284220684
30
0
41
1
10
-1.99503997793917
20
30.8153057523624
30
0
41
1
10
-1.9950399779392
20
29.2087813923734
30
0
41
1
10
-1.9950399779392
20
27.4154610031465
30
0
41
1
10
-1.9950399779392
20
25.4415911921648
30
0
41
1
10
-1.9950399779392
20
23.2919475472126
30
0
41
1
10
-1.99503997793923
20
20.970019599504
30
0
41
1
10
-1.99503997793923
20
18.4781727978132
30
0
41
1
10
-1.99503997793923
20
15.8176474286293
30
0
41
1
10
-1.99503997793926
20
13.4605449192125
30
0
41
1
10
-1.99503997793926
20
11.4892556686531
30
0
41
1
10
-1.99503997793926
20
9.96882852636497
30
0
41
1
10
-1.99503997793926
20
8.40590997758017
30
0
41
1
10
-1.99503997793928
20
6.80062156131368
30
0
41
1
10
-1.99503997793928
20
5.15362303649027
30
0
41
1
10
-1.99503997793928
20
3.46682572646461
30
0
41
1
10
-1.99503997793928
20
2.03246205572793
30
0
41
1
10
-1.99503997793928
20
0.872327198701271
30
0
41
1
10
-1.99503997793928
20
1.87858404E-08
30
0
41
1
10
-1.99503997793931
20
-0.872327145714451
30
0
41
1
10
-1.99503997793931
20
-2.03246197307198
30
0
41
1
10
-1.99503997793931
20
-3.46682565849329
30
0
41
1
10
-1.99503997793931
20
-5.15362300763576
30
0
41
1
10
-1.99503997793931
20
-6.80062160559305
30
0
41
1
10
-1.99503997793934
20
-8.40590968396612
30
0
41
1
10
-1.99503997793934
20
-9.96882866001368
30
0
41
1
10
-1.99503997793934
20
-11.489255389582
30
0
41
1
10
-1.99503997793934
20
-13.4605450811038
30
0
41
1
10
-1.99503997793937
20
-15.8176475504657
30
0
41
1
10
-1.99503997793937
20
-18.4781725958541
30
0
41
1
10
-1.99503997793937
20
-20.9700195189174
30
0
41
1
10
-1.99503997793937
20
-23.2919476800301
30
0
41
1
10
-1.9950399779394
20
-25.4415909958108
30
0
41
1
10
-1.9950399779394
20
-27.4154611704439
30
0
41
1
10
-1.9950399779394
20
-29.2087813089343
30
0
41
1
10
-1.9950399779394
20
-30.8153059272805
30
0
41
1
10
-1.99503997793943
20
-32.2270284519257
30
0
41
1
10
-1.99503997793943
20
-33.4337942038213
30
0
41
1
10
-1.99503997793943
20
-34.4225667021769
30
0
41
1
10
-1.99503997793943
20
-35.1763358604717
30
0
41
1
10
-1.99503997793943
20
-35.672383387921
30
0
41
1
10
-1.99503997793943
20
-35.8178648656059
30
0
41
1
10
-1.99503997793943
20
-35.8251687389344
30
0
41
1
10
-1.9950399779394
20
-35.8251937271895
30
0
0
SPLINE
5
1CB
100
AcDbEntity
8
SK1
62
256
6
ByLayer
370
18
48
1
60
0
100
AcDbSpline
70
4
71
3
72
53
73
49
40
0
40
0
40
0
40
0
40
0.02128851928726
40
0.0494480151344268
40
0.0776075109815935
40
0.10576700682876
40
0.133926502675927
40
0.162085998523094
40
0.190245494370261
40
0.218404990217427
40
0.246564486064594
40
0.274723981911761
40
0.302883477758928
40
0.331042973606095
40
0.359202469453261
40
0.387361965300428
40
0.401441713224011
40
0.415521461147595
40
0.429601209071178
40
0.443680956994762
40
0.457760704918345
40
0.471840452841928
40
0.485920200765512
40
0.492960074727304
40
0.499999948689095
40
0.507039822650887
40
0.514079696612678
40
0.528159444536262
40
0.542239192459845
40
0.556318940383429
40
0.570398688307012
40
0.584478436230595
40
0.598558184154179
40
0.612637932077762
40
0.640797427924929
40
0.668956923772096
40
0.697116419619263
40
0.725275915466429
40
0.753435411313596
40
0.781594907160763
40
0.80975440300793
40
0.837913898855096
40
0.866073394702263
40
0.89423289054943
40
0.922392386396597
40
0.950551882243764
40
0.97871137809093
40
1
40
1
40
1
40
1
41
1
10
-2.19999999999987
20
35.998534324949
30
0
41
1
10
-2.19999999999987
20
35.9683617117368
30
0
41
1
10
-2.19999999999987
20
35.8259680635732
30
0
41
1
10
-2.19999999999987
20
35.36828810137
30
0
41
1
10
-2.19999999999987
20
34.6115343329044
30
0
41
1
10
-2.19999999999987
20
33.619101338222
30
0
41
1
10
-2.19999999999987
20
32.4080741929617
30
0
41
1
10
-2.19999999999987
20
30.9915199760065
30
0
41
1
10
-2.1999999999999
20
29.3795915759284
30
0
41
1
10
-2.1999999999999
20
27.5802648002379
30
0
41
1
10
-2.1999999999999
20
25.5997272652693
30
0
41
1
10
-2.1999999999999
20
23.4426614592353
30
0
41
1
10
-2.19999999999993
20
21.1124192921534
30
0
41
1
10
-2.19999999999993
20
18.6111604207771
30
0
41
1
10
-2.19999999999993
20
15.9398101657229
30
0
41
1
10
-2.19999999999996
20
13.5716364167829
30
0
41
1
10
-2.19999999999996
20
11.5912225613334
30
0
41
1
10
-2.19999999999996
20
10.0625587489356
30
0
41
1
10
-2.19999999999996
20
8.49027928497594
30
0
41
1
10
-2.19999999999999
20
6.8741257988703
30
0
41
1
10
-2.19999999999999
20
5.21416685618908
30
0
41
1
10
-2.19999999999999
20
3.51137573607468
30
0
41
1
10
-2.19999999999999
20
2.05962586413813
30
0
41
1
10
-2.19999999999999
20
0.88485774265564
30
0
41
1
10
-2.19999999999999
20
2.16043077E-08
30
0
41
1
10
-2.20000000000002
20
-0.884857708103027
30
0
41
1
10
-2.20000000000002
20
-2.0596258002638
30
0
41
1
10
-2.20000000000002
20
-3.5113756574965
30
0
41
1
10
-2.20000000000002
20
-5.21416680688048
30
0
41
1
10
-2.20000000000002
20
-6.87412587722235
30
0
41
1
10
-2.20000000000005
20
-8.49027898646239
30
0
41
1
10
-2.20000000000005
20
-10.0625588764647
30
0
41
1
10
-2.20000000000005
20
-11.5912222916892
30
0
41
1
10
-2.20000000000005
20
-13.5716365551607
30
0
41
1
10
-2.20000000000005
20
-15.9398103008149
30
0
41
1
10
-2.20000000000007
20
-18.6111602249392
30
0
41
1
10
-2.20000000000007
20
-21.1124192028391
30
0
41
1
10
-2.20000000000007
20
-23.4426615948154
30
0
41
1
10
-2.2000000000001
20
-25.5997270679033
30
0
41
1
10
-2.2000000000001
20
-27.5802649658272
30
0
41
1
10
-2.2000000000001
20
-29.3795914920701
30
0
41
1
10
-2.2000000000001
20
-30.991520149686
30
0
41
1
10
-2.20000000000013
20
-32.4080742253461
30
0
41
1
10
-2.20000000000013
20
-33.61910127367
30
0
41
1
10
-2.20000000000013
20
-34.6115349274624
30
0
41
1
10
-2.20000000000013
20
-35.3682882084332
30
0
41
1
10
-2.20000000000013
20
-35.8259684047678
30
0
41
1
10
-2.20000000000013
20
-35.9683620844967
30
0
41
1
10
-2.20000000000013
20
-35.9985346752189
30
0
0
SPLINE
5
1CC
100
AcDbEntity
8
SK1
62
256
6
ByLayer
370
18
48
1
60
0
100
AcDbSpline
70
4
71
3
72
53
73
49
40
0
40
0
40
0
40
0
40
0.0213321388804796
40
0.04948906897856
40
0.0776459990766403
40
0.105802929174721
40
0.133959859272801
40
0.162116789370881
40
0.190273719468961
40
0.218430649567042
40
0.246587579665122
40
0.274744509763203
40
0.302901439861283
40
0.331058369959363
40
0.359215300057444
40
0.387372230155524
40
0.401450695204564
40
0.415529160253604
40
0.429607625302644
40
0.443686090351684
40
0.457764555400725
40
0.471843020449765
40
0.485921485498805
40
0.492960718023325
40
0.499999950547845
40
0.507039183072365
40
0.514078415596885
40
0.528156880645926
40
0.542235345694966
40
0.556313810744006
40
0.570392275793046
40
0.584470740842086
40
0.598549205891126
40
0.612627670940166
40
0.640784601038247
40
0.668941531136327
40
0.697098461234407
40
0.725255391332488
40
0.753412321430568
40
0.781569251528648
40
0.809726181626729
40
0.837883111724809
40
0.866040041822889
40
0.89419697192097
40
0.92235390201905
40
0.95051083211713
40
0.97866776221521
40
1
40
1
40
1
40
1
41
1
10
-57.9999999999999
20
34.5977983365501
30
0
41
1
10
-57.9999999999999
20
34.5687765973107
30
0
41
1
10
-57.9999999999999
20
34.4314143242478
30
0
41
1
10
-57.9999999999999
20
33.9876977370148
30
0
41
1
10
-57.9999999999999
20
33.2524068213664
30
0
41
1
10
-57.9999999999999
20
32.2863061344951
30
0
41
1
10
-57.9999999999999
20
31.1059278263756
30
0
41
1
10
-57.9999999999999
20
29.7241238367491
30
0
41
1
10
-57.9999999999999
20
28.1510632386217
30
0
41
1
10
-57.9999999999999
20
26.3949365568698
30
0
41
1
10
-57.9999999999999
20
24.4623556934106
30
0
41
1
10
-57.9999999999999
20
22.3586727420947
30
0
41
1
10
-57.9999999999999
20
20.088229434133
30
0
41
1
10
-57.9999999999999
20
17.6546655565837
30
0
41
1
10
-57.9999999999999
20
15.0611717780169
30
0
41
1
10
-58
20
12.7726263697316
30
0
41
1
10
-58
20
10.8578399578044
30
0
41
1
10
-58
20
9.3884172423019
30
0
41
1
10
-58
20
7.88346485051159
30
0
41
1
10
-58
20
6.34545685846496
30
0
41
1
10
-58
20
4.77871390718593
30
0
41
1
10
-58
20
3.19095602751759
30
0
41
1
10
-58
20
1.86425397420436
30
0
41
1
10
-58
20
0.794733559135977
30
0
41
1
10
-58
20
1.3330919E-09
30
0
41
1
10
-58
20
-0.794733391997454
30
0
41
1
10
-58
20
-1.86425377524557
30
0
41
1
10
-58
20
-3.19095602522771
30
0
41
1
10
-58
20
-4.77871400499004
30
0
41
1
10
-58
20
-6.34545669175338
30
0
41
1
10
-58
20
-7.88346458723669
30
0
41
1
10
-58
20
-9.3884174138451
30
0
41
1
10
-58.0000000000001
20
-10.8578396203575
30
0
41
1
10
-58.0000000000001
20
-12.772626677226
30
0
41
1
10
-58.0000000000001
20
-15.0611718177695
30
0
41
1
10
-58.0000000000001
20
-17.6546653167194
30
0
41
1
10
-58.0000000000001
20
-20.0882294075912
30
0
41
1
10
-58.0000000000001
20
-22.3586728578046
30
0
41
1
10
-58.0000000000001
20
-24.4623555033231
30
0
41
1
10
-58.0000000000001
20
-26.3949367347438
30
0
41
1
10
-58.0000000000001
20
-28.1510631577775
30
0
41
1
10
-58.0000000000001
20
-29.724124019337
30
0
41
1
10
-58.0000000000001
20
-31.1059278405836
30
0
41
1
10
-58.0000000000001
20
-32.2863061107906
30
0
41
1
10
-58.0000000000001
20
-33.2524074165479
30
0
41
1
10
-58.0000000000001
20
-33.9876978128523
30
0
41
1
10
-58.0000000000001
20
-34.4314146222391
30
0
41
1
10
-58.0000000000001
20
-34.5687769359564
30
0
41
1
10
-58.0000000000002
20
-34.597798661984
30
0
0
SPLINE
5
1CD
100
AcDbEntity
8
1
62
256
6
ByLayer
370
18
48
1
60
0
100
AcDbSpline
70
4
71
3
72
28
73
24
40
0
40
0
40
0
40
0
40
0.0625000000000175
40
0.0625000000000175
40
0.0937500000000194
40
0.0937500000000194
40
0.125000000000021
40
0.125000000000021
40
0.250000000000018
40
0.250000000000018
40
0.375000000000014
40
0.375000000000014
40
0.437500000000016
40
0.437500000000016
40
0.500000000000017
40
0.500000000000017
40
0.625000000000013
40
0.625000000000013
40
0.750000000000009
40
0.750000000000009
40
0.875000000000004
40
0.875000000000004
40
1
40
1
40
1
40
1
41
1
10
18.2113248654053
20
47.699112336314
30
0
41
1
10
18.2270595596559
20
47.699112336314
30
0
41
1
10
18.2425066022339
20
47.6986325211243
30
0
41
1
10
18.265284104851
20
47.6972565620906
30
0
41
1
10
18.272810913383
20
47.6966882205613
30
0
41
1
10
18.2877376616229
20
47.6953394645317
30
0
41
1
10
18.2951724971557
20
47.6945543357693
30
0
41
1
10
18.3314372006436
20
47.690189691897
30
0
41
1
10
18.3578281265271
20
47.6853219328559
30
0
41
1
10
18.4069581904136
20
47.6736470656566
30
0
41
1
10
18.4288334491968
20
47.6670413844208
30
0
41
1
10
18.4588809702255
20
47.6563838934506
30
0
41
1
10
18.4684309157003
20
47.6527013060038
30
0
41
1
10
18.4867303490984
20
47.6451099305975
30
0
41
1
10
18.4955010868101
20
47.6411896516378
30
0
41
1
10
18.5204889532972
20
47.6292580497127
30
0
41
1
10
18.5354760545342
20
47.6210513457404
30
0
41
1
10
18.562944944888
20
47.6042440377894
30
0
41
1
10
18.5754177835218
20
47.5956422180835
30
0
41
1
10
18.5983196665244
20
47.5781044545094
30
0
41
1
10
18.6087450830626
20
47.5691680198121
30
0
41
1
10
18.6278436196426
20
47.5509978353522
30
0
41
1
10
18.6364974994729
20
47.541778524855
30
0
41
1
10
18.6443375672975
20
47.5324740593458
30
0
0
SPLINE
5
1CE
100
AcDbEntity
8
1
62
256
6
ByLayer
370
18
48
1
60
0
100
AcDbSpline
70
4
71
3
72
32
73
28
40
0
40
0
40
0
40
0
40
0.249999999999995
40
0.249999999999995
40
0.374999999999996
40
0.374999999999996
40
0.43749999999999
40
0.43749999999999
40
0.499999999999984
40
0.499999999999984
40
0.624999999999992
40
0.624999999999992
40
0.687499999999992
40
0.687499999999992
40
0.749999999999992
40
0.749999999999992
40
0.812499999999991
40
0.812499999999991
40
0.843749999999993
40
0.843749999999993
40
0.874999999999995
40
0.874999999999995
40
0.937499999999998
40
0.937499999999998
40
0.968749999999999
40
0.968749999999999
40
1
40
1
40
1
40
1
41
1
10
18.6443375672973
20
15.5133461831292
30
0
41
1
10
18.6286630435769
20
15.4563493271807
30
0
41
1
10
18.6099224010159
20
15.4004782360281
30
0
41
1
10
18.5756373106803
20
15.3189628763403
30
0
41
1
10
18.563169573401
20
15.2921769035834
30
0
41
1
10
18.5425188225859
20
15.2527254134147
30
0
41
1
10
18.5353085448822
20
15.2396968594119
30
0
41
1
10
18.520136596788
20
15.2139209621237
30
0
41
1
10
18.5121625348484
20
15.2011578148613
30
0
41
1
10
18.4871618698533
20
15.1637170876448
30
0
41
1
10
18.4690247593559
20
15.1397658465103
30
0
41
1
10
18.4387714809654
20
15.1059376964122
30
0
41
1
10
18.428159210711
20
15.095010803522
30
0
41
1
10
18.4060583457712
20
15.074362288657
30
0
41
1
10
18.3945344903244
20
15.0645964295525
30
0
41
1
10
18.3703588188408
20
15.0463962702365
30
0
41
1
10
18.3577088110857
20
15.0379598317319
30
0
41
1
10
18.3376838445829
20
15.0265455239635
30
0
41
1
10
18.3308009490982
20
15.0229343649007
30
0
41
1
10
18.316834097529
20
15.0162767768353
30
0
41
1
10
18.309748706295
20
15.0132261076343
30
0
41
1
10
18.2881674439404
20
15.0049610020095
30
0
41
1
10
18.2733483563929
20
15.0006283664657
30
0
41
1
10
18.250367935748
20
14.996181011478
30
0
41
1
10
18.2425805614475
20
14.9950458111052
30
0
41
1
10
18.2270026846867
20
14.9935361300597
30
0
41
1
10
18.2191806796093
20
14.9931545155677
30
0
41
1
10
18.2113248654052
20
14.9931545155677
30
0
0
SPLINE
5
1CF
100
AcDbEntity
8
1
62
256
6
ByLayer
370
18
48
1
60
0
100
AcDbSpline
70
4
71
3
72
28
73
24
40
0
40
0
40
0
40
0
40
0.0625000000000168
40
0.0625000000000168
40
0.0937500000000252
40
0.0937500000000252
40
0.125000000000034
40
0.125000000000034
40
0.250000000000047
40
0.250000000000047
40
0.37500000000006
40
0.37500000000006
40
0.43750000000006
40
0.43750000000006
40
0.500000000000061
40
0.500000000000061
40
0.625000000000046
40
0.625000000000046
40
0.75000000000003
40
0.75000000000003
40
0.875000000000015
40
0.875000000000015
40
1
40
1
40
1
40
1
41
1
10
13.7886751345949
20
14.9931545155678
30
0
41
1
10
13.7729404403443
20
14.9931545155678
30
0
41
1
10
13.7574933977663
20
14.9946812225929
30
0
41
1
10
13.7347158951492
20
14.9990572633152
30
0
41
1
10
13.7271890866172
20
15.0008645698075
30
0
41
1
10
13.7122623383773
20
15.005152395568
30
0
41
1
10
13.7048275028445
20
15.0076478892364
30
0
41
1
10
13.6685627993565
20
15.0215159830933
30
0
41
1
10
13.6421718734731
20
15.0369693753062
30
0
41
1
10
13.5930418095866
20
15.0739427918915
30
0
41
1
10
13.5711665508033
20
15.0948242086537
30
0
41
1
10
13.5411190297747
20
15.1284239846262
30
0
41
1
10
13.5315690842998
20
15.1400203146011
30
0
41
1
10
13.5132696509018
20
15.1638931870095
30
0
41
1
10
13.50449891319
20
15.1762057179682
30
0
41
1
10
13.479511046703
20
15.2136275524139
30
0
41
1
10
13.4645239454659
20
15.2392987486415
30
0
41
1
10
13.4370550551122
20
15.2917202176403
30
0
41
1
10
13.4245822164784
20
15.318474407119
30
0
41
1
10
13.4016803334758
20
15.372858967322
30
0
41
1
10
13.3912549169376
20
15.4004909261967
30
0
41
1
10
13.3721563803576
20
15.4565025709994
30
0
41
1
10
13.3635025005272
20
15.4848375519009
30
0
41
1
10
13.3556624327026
20
15.5133461831292
30
0
0
SPLINE
5
1D0
100
AcDbEntity
8
1
62
256
6
ByLayer
370
18
48
1
60
0
100
AcDbSpline
70
4
71
3
72
32
73
28
40
0
40
0
40
0
40
0
40
0.250000000000017
40
0.250000000000017
40
0.375000000000028
40
0.375000000000028
40
0.437500000000034
40
0.437500000000034
40
0.500000000000041
40
0.500000000000041
40
0.625000000000041
40
0.625000000000041
40
0.687500000000039
40
0.687500000000039
40
0.750000000000036
40
0.750000000000036
40
0.812500000000034
40
0.812500000000034
40
0.843750000000031
40
0.843750000000031
40
0.875000000000028
40
0.875000000000028
40
0.937500000000018
40
0.937500000000018
40
0.968750000000009
40
0.968750000000009
40
1
40
1
40
1
40
1
41
1
10
13.3556624327028
20
47.5324740593458
30
0
41
1
10
13.3713369564232
20
47.5510763302181
30
0
41
1
10
13.3900775989842
20
47.5691972862267
30
0
41
1
10
13.4243626893198
20
47.5954849905103
30
0
41
1
10
13.4368304265991
20
47.6040973909194
30
0
41
1
10
13.4574811774142
20
47.6167466147849
30
0
41
1
10
13.464691455118
20
47.6209179112661
30
0
41
1
10
13.4798634032122
20
47.6291590523765
30
0
41
1
10
13.4878374651517
20
47.6332339095114
30
0
41
1
10
13.5128381301468
20
47.6451715334099
30
0
41
1
10
13.5309752406443
20
47.6527863810657
30
0
41
1
10
13.5612285190347
20
47.663516301819
30
0
41
1
10
13.5718407892891
20
47.6669777320219
30
0
41
1
10
13.593941654229
20
47.6735117109474
30
0
41
1
10
13.6054655096757
20
47.6765983002466
30
0
41
1
10
13.6296411811593
20
47.6823452689501
30
0
41
1
10
13.6422911889144
20
47.6850063201912
30
0
41
1
10
13.6623161554173
20
47.6886039377399
30
0
41
1
10
13.669199050902
20
47.6897416143955
30
0
41
1
10
13.6831659024712
20
47.6918383367784
30
0
41
1
10
13.6902512937052
20
47.6927987245779
30
0
41
1
10
13.7118325560598
20
47.6953999741734
30
0
41
1
10
13.7266516436073
20
47.6967625554496
30
0
41
1
10
13.7496320642522
20
47.6981609444842
30
0
41
1
10
13.7574194385526
20
47.6985178150112
30
0
41
1
10
13.7729973153134
20
47.6989923891761
30
0
41
1
10
13.7808193203908
20
47.699112336314
30
0
41
1
10
13.788675134595
20
47.699112336314
30
0
0
SPLINE
5
1D1
100
AcDbEntity
8
1
62
256
6
ByLayer
370
18
48
1
60
0
100
AcDbSpline
70
4
71
3
72
28
73
24
40
0
40
0
40
0
40
0
40
0.0625000000000085
40
0.0625000000000085
40
0.0937500000000128
40
0.0937500000000128
40
0.125000000000017
40
0.125000000000017
40
0.250000000000025
40
0.250000000000025
40
0.375000000000034
40
0.375000000000034
40
0.437500000000035
40
0.437500000000035
40
0.500000000000036
40
0.500000000000036
40
0.625000000000027
40
0.625000000000027
40
0.750000000000018
40
0.750000000000018
40
0.875000000000009
40
0.875000000000009
40
1
40
1
40
1
40
1
41
1
10
13.7886751345946
20
-47.6991123363142
30
0
41
1
10
13.7729404403441
20
-47.6991123363142
30
0
41
1
10
13.757493397766
20
-47.6986325211244
30
0
41
1
10
13.734715895149
20
-47.6972565620907
30
0
41
1
10
13.7271890866169
20
-47.6966882205614
30
0
41
1
10
13.7122623383771
20
-47.6953394645319
30
0
41
1
10
13.7048275028442
20
-47.6945543357695
30
0
41
1
10
13.6685627993563
20
-47.6901896918971
30
0
41
1
10
13.6421718734729
20
-47.6853219328561
30
0
41
1
10
13.5930418095863
20
-47.6736470656567
30
0
41
1
10
13.5711665508031
20
-47.6670413844209
30
0
41
1
10
13.5411190297744
20
-47.6563838934508
30
0
41
1
10
13.5315690842996
20
-47.652701306004
30
0
41
1
10
13.5132696509016
20
-47.6451099305976
30
0
41
1
10
13.5044989131898
20
-47.6411896516379
30
0
41
1
10
13.4795110467028
20
-47.6292580497128
30
0
41
1
10
13.4645239454657
20
-47.6210513457406
30
0
41
1
10
13.4370550551119
20
-47.6042440377895
30
0
41
1
10
13.4245822164781
20
-47.5956422180836
30
0
41
1
10
13.4016803334755
20
-47.5781044545095
30
0
41
1
10
13.3912549169373
20
-47.5691680198123
30
0
41
1
10
13.3721563803573
20
-47.5509978353523
30
0
41
1
10
13.363502500527
20
-47.5417785248551
30
0
41
1
10
13.3556624327024
20
-47.5324740593459
30
0
0
SPLINE
5
1D2
100
AcDbEntity
8
1
62
256
6
ByLayer
370
18
48
1
60
0
100
AcDbSpline
70
4
71
3
72
32
73
28
40
0
40
0
40
0
40
0
40
0.249999999999983
40
0.249999999999983
40
0.374999999999975
40
0.374999999999975
40
0.437499999999973
40
0.437499999999973
40
0.499999999999972
40
0.499999999999972
40
0.624999999999982
40
0.624999999999982
40
0.687499999999985
40
0.687499999999985
40
0.749999999999988
40
0.749999999999988
40
0.812499999999991
40
0.812499999999991
40
0.843749999999993
40
0.843749999999993
40
0.874999999999995
40
0.874999999999995
40
0.937499999999997
40
0.937499999999997
40
0.968749999999998
40
0.968749999999998
40
1
40
1
40
1
40
1
41
1
10
13.3556624327025
20
-15.5133461831294
30
0
41
1
10
13.371336956423
20
-15.4563493271809
30
0
41
1
10
13.390077598984
20
-15.4004782360282
30
0
41
1
10
13.4243626893196
20
-15.3189628763404
30
0
41
1
10
13.4368304265989
20
-15.2921769035835
30
0
41
1
10
13.457481177414
20
-15.2527254134147
30
0
41
1
10
13.4646914551177
20
-15.239696859412
30
0
41
1
10
13.479863403212
20
-15.2139209621238
30
0
41
1
10
13.4878374651515
20
-15.2011578148614
30
0
41
1
10
13.5128381301466
20
-15.1637170876448
30
0
41
1
10
13.5309752406441
20
-15.1397658465103
30
0
41
1
10
13.5612285190345
20
-15.1059376964122
30
0
41
1
10
13.5718407892888
20
-15.0950108035221
30
0
41
1
10
13.5939416542287
20
-15.074362288657
30
0
41
1
10
13.6054655096755
20
-15.0645964295525
30
0
41
1
10
13.6296411811591
20
-15.0463962702365
30
0
41
1
10
13.6422911889142
20
-15.0379598317319
30
0
41
1
10
13.6623161554171
20
-15.0265455239636
30
0
41
1
10
13.6691990509017
20
-15.0229343649008
30
0
41
1
10
13.683165902471
20
-15.0162767768354
30
0
41
1
10
13.690251293705
20
-15.0132261076344
30
0
41
1
10
13.7118325560596
20
-15.0049610020095
30
0
41
1
10
13.7266516436071
20
-15.0006283664657
30
0
41
1
10
13.7496320642519
20
-14.9961810114781
30
0
41
1
10
13.7574194385524
20
-14.9950458111052
30
0
41
1
10
13.7729973153132
20
-14.9935361300598
30
0
41
1
10
13.7808193203906
20
-14.9931545155678
30
0
41
1
10
13.7886751345947
20
-14.9931545155678
30
0
0
SPLINE
5
1D3
100
AcDbEntity
8
1
62
256
6
ByLayer
370
18
48
1
60
0
100
AcDbSpline
70
4
71
3
72
28
73
24
40
0
40
0
40
0
40
0
40
0.0625000000000132
40
0.0625000000000132
40
0.0937500000000136
40
0.0937500000000136
40
0.125000000000014
40
0.125000000000014
40
0.250000000000012
40
0.250000000000012
40
0.37500000000001
40
0.37500000000001
40
0.437500000000009
40
0.437500000000009
40
0.500000000000009
40
0.500000000000009
40
0.625000000000007
40
0.625000000000007
40
0.750000000000005
40
0.750000000000005
40
0.875000000000002
40
0.875000000000002
40
1
40
1
40
1
40
1
41
1
10
18.2113248654051
20
-14.9931545155679
30
0
41
1
10
18.2270595596557
20
-14.9931545155679
30
0
41
1
10
18.2425066022337
20
-14.994681222593
30
0
41
1
10
18.2652841048507
20
-14.9990572633154
30
0
41
1
10
18.2728109133828
20
-15.0008645698076
30
0
41
1
10
18.2877376616226
20
-15.0051523955681
30
0
41
1
10
18.2951724971554
20
-15.0076478892365
30
0
41
1
10
18.3314372006434
20
-15.0215159830934
30
0
41
1
10
18.3578281265268
20
-15.0369693753063
30
0
41
1
10
18.4069581904133
20
-15.0739427918916
30
0
41
1
10
18.4288334491966
20
-15.0948242086539
30
0
41
1
10
18.4588809702252
20
-15.1284239846264
30
0
41
1
10
18.4684309157001
20
-15.1400203146012
30
0
41
1
10
18.4867303490981
20
-15.1638931870097
30
0
41
1
10
18.4955010868099
20
-15.1762057179684
30
0
41
1
10
18.5204889532969
20
-15.213627552414
30
0
41
1
10
18.535476054534
20
-15.2392987486416
30
0
41
1
10
18.5629449448878
20
-15.2917202176404
30
0
41
1
10
18.5754177835215
20
-15.3184744071191
30
0
41
1
10
18.5983196665241
20
-15.3728589673221
30
0
41
1
10
18.6087450830623
20
-15.4004909261968
30
0
41
1
10
18.6278436196423
20
-15.4565025709994
30
0
41
1
10
18.6364974994727
20
-15.484837551901
30
0
41
1
10
18.6443375672973
20
-15.5133461831292
30
0
0
SPLINE
5
1D4
100
AcDbEntity
8
1
62
256
6
ByLayer
370
18
48
1
60
0
100
AcDbSpline
70
4
71
3
72
32
73
28
40
0
40
0
40
0
40
0
40
0.250000000000008
40
0.250000000000008
40
0.375000000000006
40
0.375000000000006
40
0.437500000000007
40
0.437500000000007
40
0.500000000000009
40
0.500000000000009
40
0.625000000000012
40
0.625000000000012
40
0.687500000000011
40
0.687500000000011
40
0.75000000000001
40
0.75000000000001
40
0.812500000000009
40
0.812500000000009
40
0.843750000000007
40
0.843750000000007
40
0.875000000000004
40
0.875000000000004
40
0.937500000000001
40
0.937500000000001
40
0.968750000000001
40
0.968750000000001
40
1
40
1
40
1
40
1
41
1
10
18.6443375672971
20
-47.532474059346
30
0
41
1
10
18.6286630435766
20
-47.5510763302182
30
0
41
1
10
18.6099224010157
20
-47.5691972862268
30
0
41
1
10
18.5756373106801
20
-47.5954849905104
30
0
41
1
10
18.5631695734008
20
-47.6040973909196
30
0
41
1
10
18.5425188225857
20
-47.616746614785
30
0
41
1
10
18.5353085448819
20
-47.6209179112663
30
0
41
1
10
18.5201365967877
20
-47.6291590523766
30
0
41
1
10
18.5121625348482
20
-47.6332339095115
30
0
41
1
10
18.4871618698531
20
-47.64517153341
30
0
41
1
10
18.4690247593556
20
-47.6527863810658
30
0
41
1
10
18.4387714809652
20
-47.6635163018192
30
0
41
1
10
18.4281592107108
20
-47.666977732022
30
0
41
1
10
18.4060583457709
20
-47.6735117109475
30
0
41
1
10
18.3945344903242
20
-47.6765983002467
30
0
41
1
10
18.3703588188405
20
-47.6823452689503
30
0
41
1
10
18.3577088110855
20
-47.6850063201913
30
0
41
1
10
18.3376838445826
20
-47.68860393774
30
0
41
1
10
18.3308009490979
20
-47.6897416143957
30
0
41
1
10
18.3168340975287
20
-47.6918383367785
30
0
41
1
10
18.3097487062947
20
-47.692798724578
30
0
41
1
10
18.2881674439401
20
-47.6953999741735
30
0
41
1
10
18.2733483563926
20
-47.6967625554497
30
0
41
1
10
18.2503679357478
20
-47.6981609444843
30
0
41
1
10
18.2425805614473
20
-47.6985178150113
30
0
41
1
10
18.2270026846865
20
-47.6989923891762
30
0
41
1
10
18.2191806796091
20
-47.6991123363142
30
0
41
1
10
18.211324865405
20
-47.6991123363142
30
0
0
SPLINE
5
1D5
100
AcDbEntity
8
1
62
256
6
ByLayer
370
18
48
1
60
0
100
AcDbSpline
70
4
71
3
72
29
73
25
40
0
40
0
40
0
40
0
40
0.125
40
0.125
40
0.25
40
0.25
40
0.375
40
0.375
40
0.5
40
0.5
40
0.75
40
0.75
40
0.8125
40
0.8125
40
0.875
40
0.9375
40
0.96875
40
0.984375
40
0.9921875
40
0.994140625
40
0.994140625
40
0.99609375
40
0.99609375
40
1
40
1
40
1
40
1
41
1
10
965.068069438108
20
-49.3299769406329
30
0
41
1
10
965.081315085206
20
-49.3860135177145
30
0
41
1
10
965.089741899016
20
-49.4392504260932
30
0
41
1
10
965.100201811061
20
-49.5387957210982
30
0
41
1
10
965.10220977735
20
-49.5851284104517
30
0
41
1
10
965.101922846309
20
-49.6704054035192
30
0
41
1
10
965.099617102102
20
-49.7093581734793
30
0
41
1
10
965.092231212583
20
-49.7797505641462
30
0
41
1
10
965.087145748885
20
-49.8111936950854
30
0
41
1
10
965.06950084598
20
-49.8943465834169
30
0
41
1
10
965.054631190557
20
-49.9348416085506
30
0
41
1
10
965.036478141662
20
-49.9679014257092
30
0
41
1
10
965.032866274755
20
-49.9736305735745
30
0
41
1
10
965.025768367125
20
-49.9833704606152
30
0
41
1
10
965.018794793429
20
-49.9913951150935
30
0
41
1
10
965.010573513285
20
-49.9972884717333
30
0
41
1
10
965.005163667929
20
-49.9993243728011
30
0
41
1
10
965.002554277575
20
-49.9998306770755
30
0
41
1
10
965.001365994768
20
-49.9999482234895
30
0
41
1
10
965.000912764875
20
-49.9999747007778
30
0
41
1
10
965.000731778666
20
-49.9999837950899
30
0
41
1
10
965.000639153464
20
-49.9999876916257
30
0
41
1
10
965.000364418083
20
-49.9999969262183
30
0
41
1
10
965.00018189157
20
-50.0000000000036
30
0
41
1
10
965
20
-50.0000000000036
30
0
0
SPLINE
5
1D6
100
AcDbEntity
8
1
62
256
6
ByLayer
370
13
48
1
60
0
100
AcDbSpline
70
4
71
1
72
4
73
2
40
0
40
0
40
1
40
1
41
1
10
965.068069438109
20
-49.3299769406331
30
0
41
1
10
964.624793969866
20
-49.606017903526
30
0
0
SPLINE
5
1D7
100
AcDbEntity
8
1
62
256
6
ByLayer
370
18
48
1
60
0
100
AcDbSpline
70
4
71
3
72
32
73
28
40
0
40
0
40
0
40
0
40
0.0390639003433187
40
0.0390639003433187
40
0.0871107053261551
40
0.0871107053261551
40
0.135157510308992
40
0.135157510308992
40
0.231251120274662
40
0.231251120274662
40
0.279297925257497
40
0.279297925257497
40
0.327344730240333
40
0.327344730240333
40
0.423438340206001
40
0.423438340206001
40
0.471485145188831
40
0.471485145188831
40
0.519531950171662
40
0.519531950171662
40
0.615625560137326
40
0.615625560137326
40
0.807812780068663
40
0.807812780068663
40
0.903906390034332
40
0.903906390034332
40
1
40
1
40
1
40
1
41
1
10
967.567556367131
20
10.2426823441464
30
0
41
1
10
967.566214867563
20
10.2413278030124
30
0
41
1
10
967.564969015844
20
10.2400697049206
30
0
41
1
10
967.562418282625
20
10.2374937027342
30
0
41
1
10
967.561162433677
20
10.2362252665538
30
0
41
1
10
967.558973145788
20
10.2340138825078
30
0
41
1
10
967.558035604913
20
10.2330667908049
30
0
41
1
10
967.555782453196
20
10.2307905875831
30
0
41
1
10
967.55502129948
20
10.2300215197972
30
0
41
1
10
967.554990007903
20
10.2299899045417
30
0
41
1
10
967.555165390467
20
10.2301671038914
30
0
41
1
10
967.555896933859
20
10.2309061950888
30
0
41
1
10
967.556455981111
20
10.2314710025112
30
0
41
1
10
967.558654369785
20
10.2336918928528
30
0
41
1
10
967.560818210051
20
10.2358777498468
30
0
41
1
10
967.565025639673
20
10.2401269027355
30
0
41
1
10
967.566596637724
20
10.2417133320943
30
0
41
1
10
967.569995938922
20
10.2451455545755
30
0
41
1
10
967.57182715684
20
10.2469942925773
30
0
41
1
10
967.577684905715
20
10.2529071772642
30
0
41
1
10
967.582079041942
20
10.2573415387345
30
0
41
1
10
967.596526643567
20
10.2719157062131
30
0
41
1
10
967.60743414722
20
10.282911769542
30
0
41
1
10
967.625224277075
20
10.3008289871812
30
0
41
1
10
967.631425107864
20
10.3070714428226
30
0
41
1
10
967.644122351883
20
10.3198476390609
30
0
41
1
10
967.650618768129
20
10.3263814152407
30
0
41
1
10
967.65725
20
10.3330473922587
30
0
0
SPLINE
5
1D8
100
AcDbEntity
8
1
62
256
6
ByLayer
370
18
48
1
60
0
100
AcDbSpline
70
4
71
3
72
8
73
4
40
0
40
0
40
0
40
0
40
1
40
1
40
1
40
1
41
1
10
967.65725
20
10.3330473922587
30
0
41
1
10
967.880412287865
20
10.5573789660966
30
0
41
1
10
968.1030130494
20
10.7824508877856
30
0
41
1
10
968.325
20
11.0083320922884
30
0
0
SPLINE
5
1D9
100
AcDbEntity
8
1
62
256
6
ByLayer
370
18
48
1
60
0
100
AcDbSpline
70
4
71
3
72
8
73
4
40
0
40
0
40
0
40
0
40
1
40
1
40
1
40
1
41
1
10
968.325
20
11.0231368917627
30
0
41
1
10
968.102866984829
20
10.8070679535794
30
0
41
1
10
967.880270558999
20
10.5916373577182
30
0
41
1
10
967.65725
20
10.3767909999316
30
0
0
SPLINE
5
1DA
100
AcDbEntity
8
1
62
256
6
ByLayer
370
18
48
1
60
0
100
AcDbSpline
70
4
71
3
72
37
73
33
40
0
40
0
40
0
40
0
40
0.124999999999992
40
0.124999999999992
40
0.187499999999991
40
0.187499999999991
40
0.249999999999991
40
0.249999999999991
40
0.31249999999999
40
0.31249999999999
40
0.374999999999989
40
0.374999999999989
40
0.437499999999989
40
0.437499999999989
40
0.499999999999988
40
0.499999999999988
40
0.531249999999989
40
0.531249999999989
40
0.562499999999989
40
0.562499999999989
40
0.624999999999989
40
0.624999999999989
40
0.656249999999988
40
0.656249999999988
40
0.687499999999986
40
0.74999999999999
40
0.74999999999999
40
0.812499999999994
40
0.812499999999994
40
0.874999999999998
40
0.874999999999998
40
1
40
1
40
1
40
1
41
1
10
967.65725
20
10.3767909999316
30
0
41
1
10
967.643798365338
20
10.3638323977003
30
0
41
1
10
967.630961804452
20
10.3516045161741
30
0
41
1
10
967.61283825916
20
10.3346181668487
30
0
41
1
10
967.606972907654
20
10.3291708869076
30
0
41
1
10
967.59576372479
20
10.3188865545652
30
0
41
1
10
967.590524519823
20
10.3141453267093
30
0
41
1
10
967.580861475692
20
10.3055602184539
30
0
41
1
10
967.576422090347
20
10.3017029269769
30
0
41
1
10
967.568574540116
20
10.2951105215833
30
0
41
1
10
967.565262562609
20
10.2924557298136
30
0
41
1
10
967.559930736726
20
10.2885032456893
30
0
41
1
10
967.557905936576
20
10.2872026983079
30
0
41
1
10
967.55533038002
20
10.286142024436
30
0
41
1
10
967.554822528477
20
10.286397616933
30
0
41
1
10
967.555169656641
20
10.2878990913296
30
0
41
1
10
967.555471032383
20
10.2885867774321
30
0
41
1
10
967.556444479705
20
10.2903359121437
30
0
41
1
10
967.557119382553
20
10.2914003043401
30
0
41
1
10
967.559636609513
20
10.295065013613
30
0
41
1
10
967.561976614644
20
10.2981510134295
30
0
41
1
10
967.566371409227
20
10.3036387362955
30
0
41
1
10
967.567991959292
20
10.3056205270614
30
0
41
1
10
967.571462322212
20
10.3097937665283
30
0
41
1
10
967.577021750233
20
10.3163812284426
30
0
41
1
10
967.583542831282
20
10.3238581094886
30
0
41
1
10
967.592985140083
20
10.3345171018267
30
0
41
1
10
967.598114454227
20
10.3402287999899
30
0
41
1
10
967.608813091414
20
10.3520130649046
30
0
41
1
10
967.614397084543
20
10.358103004872
30
0
41
1
10
967.631764019017
20
10.3768889391192
30
0
41
1
10
967.644195707301
20
10.3901380753774
30
0
41
1
10
967.65725
20
10.4038851225575
30
0
0
SPLINE
5
1DB
100
AcDbEntity
8
1
62
256
6
ByLayer
370
18
48
1
60
0
100
AcDbSpline
70
4
71
3
72
8
73
4
40
0
40
0
40
0
40
0
40
1
40
1
40
1
40
1
41
1
10
967.65725
20
10.4038851225575
30
0
41
1
10
967.880586600133
20
10.6390735659187
30
0
41
1
10
968.103192833685
20
10.8751799435441
30
0
41
1
10
968.325
20
11.1122905993122
30
0
0
SPLINE
5
1DC
100
AcDbEntity
8
1
62
256
6
ByLayer
370
18
48
1
60
0
100
AcDbSpline
70
4
71
3
72
8
73
4
40
0
40
0
40
0
40
0
40
1
40
1
40
1
40
1
41
1
10
968.325
20
11.1569849296681
30
0
41
1
10
968.102747357519
20
10.9494787322602
30
0
41
1
10
967.880154410721
20
10.7424603564395
30
0
41
1
10
967.65725
20
10.5358884598966
30
0
0
SPLINE
5
1DD
100
AcDbEntity
8
1
62
256
6
ByLayer
370
18
48
1
60
0
100
AcDbSpline
70
4
71
3
72
37
73
33
40
0
40
0
40
0
40
0
40
0.125000000000004
40
0.125000000000004
40
0.187500000000006
40
0.187500000000006
40
0.250000000000008
40
0.250000000000008
40
0.31250000000001
40
0.31250000000001
40
0.375000000000012
40
0.375000000000012
40
0.437500000000014
40
0.437500000000014
40
0.468750000000015
40
0.468750000000015
40
0.500000000000015
40
0.500000000000015
40
0.562500000000017
40
0.562500000000017
40
0.593750000000018
40
0.593750000000018
40
0.625000000000018
40
0.687500000000016
40
0.687500000000016
40
0.750000000000013
40
0.750000000000013
40
0.875000000000011
40
0.875000000000011
40
0.937500000000005
40
0.937500000000005
40
1
40
1
40
1
40
1
41
1
10
967.65725
20
10.5358884598966
30
0
41
1
10
967.643481113526
20
10.5231284387606
30
0
41
1
10
967.630273784138
20
10.5111940458505
30
0
41
1
10
967.611547898444
20
10.4949017646558
30
0
41
1
10
967.605489814992
20
10.4897461337093
30
0
41
1
10
967.594178148089
20
10.4803929576707
30
0
41
1
10
967.588876835462
20
10.4761529417419
30
0
41
1
10
967.579099862891
20
10.4686929639785
30
0
41
1
10
967.57463253141
20
10.4654850531866
30
0
41
1
10
967.567013137968
20
10.4605061459991
30
0
41
1
10
967.56380782919
20
10.4586926905029
30
0
41
1
10
967.5587558925
20
10.4565886220188
30
0
41
1
10
967.557001638105
20
10.456338357056
30
0
41
1
10
967.55549790417
20
10.4571281691985
30
0
41
1
10
967.555184696729
20
10.4575861821227
30
0
41
1
10
967.554936749632
20
10.4588943620463
30
0
41
1
10
967.555004907661
20
10.4597489400652
30
0
41
1
10
967.555758100464
20
10.462828017713
30
0
41
1
10
967.556981441356
20
10.4655756808037
30
0
41
1
10
967.559786795892
20
10.4706323268725
30
0
41
1
10
967.56089034714
20
10.4724832399067
30
0
41
1
10
967.563367637925
20
10.4764192096251
30
0
41
1
10
967.567494977205
20
10.4826876227167
30
0
41
1
10
967.5727388874
20
10.489944833895
30
0
41
1
10
967.580597943671
20
10.500388049882
30
0
41
1
10
967.584983266588
20
10.5060187070887
30
0
41
1
10
967.598947779451
20
10.5234887079649
30
0
41
1
10
967.609415312622
20
10.5360257939407
30
0
41
1
10
967.626502436555
20
10.5558896518318
30
0
41
1
10
967.632448996398
20
10.5627078181886
30
0
41
1
10
967.644620476765
20
10.5764941382794
30
0
41
1
10
967.650862274447
20
10.5834822849443
30
0
41
1
10
967.65725
20
10.59055869674
30
0
0
SPLINE
5
1DE
100
AcDbEntity
8
1
62
256
6
ByLayer
370
18
48
1
60
0
100
AcDbSpline
70
4
71
3
72
8
73
4
40
0
40
0
40
0
40
0
40
1
40
1
40
1
40
1
41
1
10
967.65725
20
10.59055869674
30
0
41
1
10
967.880803440279
20
10.8382143276245
30
0
41
1
10
968.10341668238
20
11.086991403833
30
0
41
1
10
968.325
20
11.3369969486996
30
0
0
SPLINE
5
1DF
100
AcDbEntity
8
1
62
256
6
ByLayer
370
18
48
1
60
0
100
AcDbSpline
70
4
71
3
72
8
73
4
40
0
40
0
40
0
40
0
40
1
40
1
40
1
40
1
41
1
10
968.325
20
11.4124477014124
30
0
41
1
10
968.102649044268
20
11.2123562438266
30
0
41
1
10
967.880058917021
20
11.0126201411348
30
0
41
1
10
967.65725
20
10.8132091106719
30
0
0
SPLINE
5
1E0
100
AcDbEntity
8
1
62
256
6
ByLayer
370
18
48
1
60
0
100
AcDbSpline
70
4
71
3
72
37
73
33
40
0
40
0
40
0
40
0
40
0.12499999999999
40
0.12499999999999
40
0.187499999999985
40
0.187499999999985
40
0.249999999999979
40
0.249999999999979
40
0.312499999999974
40
0.312499999999974
40
0.343749999999972
40
0.343749999999972
40
0.374999999999971
40
0.374999999999971
40
0.437499999999966
40
0.437499999999966
40
0.468749999999966
40
0.468749999999966
40
0.499999999999966
40
0.531249999999966
40
0.531249999999966
40
0.562499999999966
40
0.562499999999966
40
0.624999999999971
40
0.624999999999971
40
0.687499999999976
40
0.687499999999976
40
0.749999999999981
40
0.749999999999981
40
0.87499999999999
40
0.87499999999999
40
1
40
1
40
1
40
1
41
1
10
967.65725
20
10.8132091106718
30
0
41
1
10
967.643139830643
20
10.8005806959341
30
0
41
1
10
967.629559018078
20
10.7889195642136
30
0
41
1
10
967.610252673758
20
10.7733906657221
30
0
41
1
10
967.604082847579
20
10.7686182878458
30
0
41
1
10
967.592547032076
20
10.7601475736912
30
0
41
1
10
967.587149089205
20
10.7564226178882
30
0
41
1
10
967.577237245028
20
10.7501965631537
30
0
41
1
10
967.572871992595
20
10.7477908749921
30
0
41
1
10
967.567297365674
20
10.7453330117451
30
0
41
1
10
967.565600365279
20
10.7447052392383
30
0
41
1
10
967.562547833039
20
10.7438558531027
30
0
41
1
10
967.561200657848
20
10.7436388831641
30
0
41
1
10
967.557776933759
20
10.7436190063523
30
0
41
1
10
967.556275948704
20
10.7444313933029
30
0
41
1
10
967.555165628217
20
10.7468576047476
30
0
41
1
10
967.554988464953
20
10.7478747156737
30
0
41
1
10
967.555012717228
20
10.7502577343429
30
0
41
1
10
967.555409032654
20
10.7529948562229
30
0
41
1
10
967.55649812322
20
10.7563916229008
30
0
41
1
10
967.557915779553
20
10.7601013344674
30
0
41
1
10
967.558793740426
20
10.7621217949978
30
0
41
1
10
967.561847178551
20
10.7685255027514
30
0
41
1
10
967.564442229072
20
10.7732657796037
30
0
41
1
10
967.570568351948
20
10.7835343889777
30
0
41
1
10
967.574102703825
20
10.789066586654
30
0
41
1
10
967.582003843321
20
10.8008265930553
30
0
41
1
10
967.586292918726
20
10.806939447235
30
0
41
1
10
967.600014594563
20
10.8258643797076
30
0
41
1
10
967.610290564235
20
10.8392552435937
30
0
41
1
10
967.632716631857
20
10.8673144377693
30
0
41
1
10
967.644695650877
20
10.8817638241085
30
0
41
1
10
967.65725
20
10.8964635441635
30
0
0
SPLINE
5
1E1
100
AcDbEntity
8
1
62
256
6
ByLayer
370
18
48
1
60
0
100
AcDbSpline
70
4
71
3
72
8
73
4
40
0
40
0
40
0
40
0
40
1
40
1
40
1
40
1
41
1
10
967.65725
20
10.8964635441635
30
0
41
1
10
967.881077169411
20
11.158539793508
30
0
41
1
10
968.103699542003
20
11.4219731118822
30
0
41
1
10
968.325
20
11.686895419376
30
0
0
SPLINE
5
1E2
100
AcDbEntity
8
1
62
256
6
ByLayer
370
18
48
1
60
0
100
AcDbSpline
70
4
71
3
72
8
73
4
40
0
40
0
40
0
40
0
40
1
40
1
40
1
40
1
41
1
10
968.325
20
11.794644085745
30
0
41
1
10
968.102568584439
20
11.6008590795893
30
0
41
1
10
967.87998075361
20
11.4073139085116
30
0
41
1
10
967.65725
20
11.2139878841724
30
0
0
SPLINE
5
1E3
100
AcDbEntity
8
1
62
256
6
ByLayer
370
18
48
1
60
0
100
AcDbSpline
70
4
71
3
72
38
73
34
40
0
40
0
40
0
40
0
40
0.0624999999999988
40
0.0624999999999988
40
0.124999999999998
40
0.124999999999998
40
0.187499999999997
40
0.187499999999997
40
0.218749999999998
40
0.218749999999998
40
0.249999999999999
40
0.249999999999999
40
0.312499999999999
40
0.312499999999999
40
0.374999999999999
40
0.374999999999999
40
0.4375
40
0.4375
40
0.5
40
0.5
40
0.5625
40
0.5625
40
0.625
40
0.625
40
0.6875
40
0.6875
40
0.75
40
0.75
40
0.875000000000004
40
0.875000000000004
40
0.937500000000002
40
0.937500000000002
40
1
40
1
40
1
40
1
41
1
10
967.65725
20
11.2139878841723
30
0
41
1
10
967.649998248352
20
11.2076935027597
30
0
41
1
10
967.642872285329
20
11.2016914787499
30
0
41
1
10
967.628908270403
20
11.1903590615612
30
0
41
1
10
967.622043357133
20
11.1850079480316
30
0
41
1
10
967.608778566715
20
11.1752135614554
30
0
41
1
10
967.602489822524
20
11.1708507685339
30
0
41
1
10
967.593642672276
20
11.1652209254723
30
0
41
1
10
967.590791730918
20
11.1634974103164
30
0
41
1
10
967.585305184796
20
11.1603870339517
30
0
41
1
10
967.58266567377
20
11.159000021454
30
0
41
1
10
967.575290151631
20
11.1554821987167
30
0
41
1
10
967.571024223356
20
11.1539485362584
30
0
41
1
10
967.563868724608
20
11.1526016613382
30
0
41
1
10
967.560970865644
20
11.1528189482064
30
0
41
1
10
967.556901537584
20
11.1550150300411
30
0
41
1
10
967.555674402096
20
11.1569674721107
30
0
41
1
10
967.554746624355
20
11.1624906166682
30
0
41
1
10
967.555059927398
20
11.1659838259066
30
0
41
1
10
967.55699699827
20
11.1741695899163
30
0
41
1
10
967.558643216243
20
11.1789115018425
30
0
41
1
10
967.562971002403
20
11.1891698710083
30
0
41
1
10
967.565650760817
20
11.1947032419517
30
0
41
1
10
967.571877672975
20
11.2064495998964
30
0
41
1
10
967.575436221925
20
11.2126802031213
30
0
41
1
10
967.58328902452
20
11.2256802453944
30
0
41
1
10
967.587530646947
20
11.2323648112928
30
0
41
1
10
967.601059291908
20
11.2528880270862
30
0
41
1
10
967.611140106773
20
11.2671903991121
30
0
41
1
10
967.627597125186
20
11.2894188238353
30
0
41
1
10
967.633314844532
20
11.2969663003283
30
0
41
1
10
967.645042340135
20
11.3121291963161
30
0
41
1
10
967.651068553406
20
11.3197671746192
30
0
41
1
10
967.65725
20
11.3274587017661
30
0
0
SPLINE
5
1E4
100
AcDbEntity
8
1
62
256
6
ByLayer
370
18
48
1
60
0
100
AcDbSpline
70
4
71
3
72
8
73
4
40
0
40
0
40
0
40
0
40
1
40
1
40
1
40
1
41
1
10
967.65725
20
11.3274587017661
30
0
41
1
10
967.881429112876
20
11.6064030728274
30
0
41
1
10
968.104063620197
20
11.8869809161297
30
0
41
1
10
968.325
20
12.1693545863059
30
0
0
SPLINE
5
1E5
100
AcDbEntity
8
1
62
256
6
ByLayer
370
18
48
1
60
0
100
AcDbSpline
70
4
71
3
72
8
73
4
40
0
40
0
40
0
40
0
40
1
40
1
40
1
40
1
41
1
10
968.325
20
12.3117873295046
30
0
41
1
10
968.102504008099
20
12.123172339577
30
0
41
1
10
967.879918034686
20
11.9346990350951
30
0
41
1
10
967.65725
20
11.7463549447996
30
0
0
SPLINE
5
1E6
100
AcDbEntity
8
1
62
256
6
ByLayer
370
18
48
1
60
0
100
AcDbSpline
70
4
71
3
72
41
73
37
40
0
40
0
40
0
40
0
40
0.0624999999999961
40
0.0624999999999961
40
0.0937499999999941
40
0.0937499999999941
40
0.124999999999992
40
0.124999999999992
40
0.187499999999991
40
0.187499999999991
40
0.218749999999991
40
0.218749999999991
40
0.249999999999991
40
0.249999999999991
40
0.312499999999988
40
0.312499999999988
40
0.374999999999985
40
0.374999999999985
40
0.437499999999982
40
0.437499999999982
40
0.499999999999979
40
0.499999999999979
40
0.531249999999979
40
0.531249999999979
40
0.56249999999998
40
0.624999999999983
40
0.624999999999983
40
0.687499999999986
40
0.687499999999986
40
0.749999999999989
40
0.749999999999989
40
0.874999999999992
40
0.874999999999992
40
0.937499999999996
40
0.937499999999996
40
1
40
1
40
1
40
1
41
1
10
967.65725
20
11.7463549447995
30
0
41
1
10
967.649763251248
20
11.7400222671657
30
0
41
1
10
967.642389836336
20
11.7340375370699
30
0
41
1
10
967.631528943309
20
11.7256743480597
30
0
41
1
10
967.627942008151
20
11.7229894371018
30
0
41
1
10
967.62084243178
20
11.7178491549191
30
0
41
1
10
967.617324342238
20
11.7153910546649
30
0
41
1
10
967.607084890952
20
11.7085299655557
30
0
41
1
10
967.600614151609
20
11.7045893511299
30
0
41
1
10
967.591531521163
20
11.699793263858
30
0
41
1
10
967.588590422335
20
11.6983741221883
30
0
41
1
10
967.583038456275
20
11.6959941267601
30
0
41
1
10
967.58043429458
20
11.6950338591092
30
0
41
1
10
967.573142092744
20
11.692849771261
30
0
41
1
10
967.568970586653
20
11.6923176093756
30
0
41
1
10
967.562114352937
20
11.6932504635218
30
0
41
1
10
967.559558688731
20
11.6947072992051
30
0
41
1
10
967.556092885347
20
11.6993801668612
30
0
41
1
10
967.555181203019
20
11.7026454486268
30
0
41
1
10
967.554868989464
20
11.710474223913
30
0
41
1
10
967.55544017896
20
11.7150509783154
30
0
41
1
10
967.557223542409
20
11.7227614725295
30
0
41
1
10
967.557977600155
20
11.7254847511243
30
0
41
1
10
967.559750869445
20
11.7311134356431
30
0
41
1
10
967.562810682998
20
11.7398469575105
30
0
41
1
10
967.566937717188
20
11.7493561728637
30
0
41
1
10
967.573244303111
20
11.7626196296264
30
0
41
1
10
967.576818603168
20
11.7695768804875
30
0
41
1
10
967.584605453415
20
11.7838617612728
30
0
41
1
10
967.588793283287
20
11.7911484887926
30
0
41
1
10
967.602116745497
20
11.8133803682566
30
0
41
1
10
967.612003374444
20
11.8286928791532
30
0
41
1
10
967.628114231621
20
11.852283634502
30
0
41
1
10
967.633716013417
20
11.8602730038298
30
0
41
1
10
967.645240588757
20
11.8763169923762
30
0
41
1
10
967.65116647228
20
11.8843773198534
30
0
41
1
10
967.65725
20
11.8924741626852
30
0
0
SPLINE
5
1E7
100
AcDbEntity
8
1
62
256
6
ByLayer
370
18
48
1
60
0
100
AcDbSpline
70
4
71
3
72
8
73
4
40
0
40
0
40
0
40
0
40
1
40
1
40
1
40
1
41
1
10
967.65725
20
11.8924741626852
30
0
41
1
10
967.88189214863
20
12.1914605821677
30
0
41
1
10
968.104543176151
20
12.4924100862354
30
0
41
1
10
968.325
20
12.7955228978934
30
0
0
SPLINE
5
1E8
100
AcDbEntity
8
1
62
256
6
ByLayer
370
18
48
1
60
0
100
AcDbSpline
70
4
71
3
72
8
73
4
40
0
40
0
40
0
40
0
40
1
40
1
40
1
40
1
41
1
10
968.325
20
12.976171083195
30
0
41
1
10
968.102455053618
20
12.791473119472
30
0
41
1
10
967.87987051103
20
12.6068387553641
30
0
41
1
10
967.65725
20
12.4222622506064
30
0
0
SPLINE
5
1E9
100
AcDbEntity
8
1
62
256
6
ByLayer
370
18
48
1
60
0
100
AcDbSpline
70
4
71
3
72
34
73
30
40
0
40
0
40
0
40
0
40
0.0625000000000039
40
0.0625000000000039
40
0.125000000000008
40
0.125000000000008
40
0.187500000000012
40
0.187500000000012
40
0.250000000000016
40
0.250000000000016
40
0.281250000000012
40
0.281250000000012
40
0.312500000000009
40
0.312500000000009
40
0.375000000000012
40
0.375000000000012
40
0.437500000000014
40
0.437500000000014
40
0.500000000000017
40
0.500000000000017
40
0.625000000000008
40
0.625000000000008
40
0.687500000000006
40
0.687500000000006
40
0.750000000000004
40
0.750000000000004
40
0.875000000000002
40
0.875000000000002
40
1
40
1
40
1
40
1
41
1
10
967.65725
20
12.4222622506062
30
0
41
1
10
967.649488908667
20
12.4158274656679
30
0
41
1
10
967.641823694214
20
12.4098102650535
30
0
41
1
10
967.626724760347
20
12.3987879481608
30
0
41
1
10
967.619237979794
20
12.3937564313458
30
0
41
1
10
967.605117818079
20
12.3853280135012
30
0
41
1
10
967.598426324621
20
12.381880439951
30
0
41
1
10
967.585937823284
20
12.3768533463347
30
0
41
1
10
967.580388451838
20
12.3753809352531
30
0
41
1
10
967.573200292553
20
12.374798538657
30
0
41
1
10
967.570990397782
20
12.3748750617341
30
0
41
1
10
967.566957676257
20
12.3755918689621
30
0
41
1
10
967.565156409234
20
12.3762325097826
30
0
41
1
10
967.560468966659
20
12.3789188623118
30
0
41
1
10
967.558236811847
20
12.3817509771211
30
0
41
1
10
967.55543401562
20
12.3891899335547
30
0
41
1
10
967.554885623818
20
12.3936910337038
30
0
41
1
10
967.555152947205
20
12.4039466916557
30
0
41
1
10
967.555987203674
20
12.4097589100336
30
0
41
1
10
967.560152348846
20
12.428353225876
30
0
41
1
10
967.565051940429
20
12.4422450004316
30
0
41
1
10
967.574644630836
20
12.4646672216891
30
0
41
1
10
967.578212811265
20
12.4723745289176
30
0
41
1
10
967.585881383973
20
12.4879715844663
30
0
41
1
10
967.589996860805
20
12.4958958630157
30
0
41
1
10
967.60308732435
20
12.5200009008856
30
0
41
1
10
967.612798206587
20
12.5365103042125
30
0
41
1
10
967.63395238208
20
12.5702974600624
30
0
41
1
10
967.645287045871
20
12.5873948524634
30
0
41
1
10
967.65725
20
12.6045642375996
30
0
0
SPLINE
5
1EA
100
AcDbEntity
8
1
62
256
6
ByLayer
370
18
48
1
60
0
100
AcDbSpline
70
4
71
3
72
8
73
4
40
0
40
0
40
0
40
0
40
1
40
1
40
1
40
1
41
1
10
967.65725
20
12.6045642375996
30
0
41
1
10
967.882519487208
20
12.9278738936867
30
0
41
1
10
968.105193688956
20
13.2535479598656
30
0
41
1
10
968.325
20
13.5818347905458
30
0
0
SPLINE
5
1EB
100
AcDbEntity
8
1
62
256
6
ByLayer
370
18
48
1
60
0
100
AcDbSpline
70
4
71
3
72
8
73
4
40
0
40
0
40
0
40
0
40
1
40
1
40
1
40
1
41
1
10
968.325
20
13.8059074196602
30
0
41
1
10
968.102424037712
20
13.6236219166424
30
0
41
1
10
967.879840463616
20
13.4413488054307
30
0
41
1
10
967.65725
20
13.2590869134425
30
0
0
SPLINE
5
1EC
100
AcDbEntity
8
1
62
256
6
ByLayer
370
18
48
1
60
0
100
AcDbSpline
70
4
71
3
72
41
73
37
40
0
40
0
40
0
40
0
40
0.0625000000000032
40
0.0625000000000032
40
0.0937500000000043
40
0.0937500000000043
40
0.125000000000005
40
0.156250000000006
40
0.156250000000006
40
0.187500000000007
40
0.187500000000007
40
0.250000000000011
40
0.250000000000011
40
0.281250000000016
40
0.281250000000016
40
0.312500000000022
40
0.312500000000022
40
0.343750000000027
40
0.343750000000027
40
0.375000000000033
40
0.375000000000033
40
0.437500000000031
40
0.437500000000031
40
0.500000000000028
40
0.500000000000028
40
0.562500000000026
40
0.562500000000026
40
0.625000000000024
40
0.625000000000024
40
0.750000000000015
40
0.750000000000015
40
0.812500000000011
40
0.812500000000011
40
0.875000000000007
40
0.875000000000007
40
1
40
1
40
1
40
1
41
1
10
967.65725
20
13.2590869134422
30
0
41
1
10
967.649153374727
20
13.2524572213292
30
0
41
1
10
967.641127045979
20
13.2463356573504
30
0
41
1
10
967.62921992007
20
13.2381141662927
30
0
41
1
10
967.625254105664
20
13.2355244371902
30
0
41
1
10
967.617523037254
20
13.230809192509
30
0
41
1
10
967.609970617246
20
13.2265400760035
30
0
41
1
10
967.602805945573
20
13.2232409599314
30
0
41
1
10
967.595857190031
20
13.2204831574502
30
0
41
1
10
967.592488182663
20
13.2193794114948
30
0
41
1
10
967.583055300929
20
13.2170437240547
30
0
41
1
10
967.577545205207
20
13.2167282314642
30
0
41
1
10
967.570498232641
20
13.2182053757143
30
0
41
1
10
967.568376011671
20
13.2190255394098
30
0
41
1
10
967.564654354123
20
13.2212434486857
30
0
41
1
10
967.563037757474
20
13.2226442666825
30
0
41
1
10
967.560259454652
20
13.2259905091082
30
0
41
1
10
967.559093183515
20
13.2279508001289
30
0
41
1
10
967.557226873325
20
13.2322983257687
30
0
41
1
10
967.55652113542
20
13.2346844343999
30
0
41
1
10
967.555000491748
20
13.2424007936191
30
0
41
1
10
967.554777789993
20
13.2482913628103
30
0
41
1
10
967.555632396812
20
13.2612669731208
30
0
41
1
10
967.556696677954
20
13.2681954682059
30
0
41
1
10
967.559808928574
20
13.2827351713954
30
0
41
1
10
967.561860013003
20
13.2903485056219
30
0
41
1
10
967.566791414079
20
13.3061519172577
30
0
41
1
10
967.569686859825
20
13.3143734572615
30
0
41
1
10
967.579284463712
20
13.3393301872973
30
0
41
1
10
967.586916033277
20
13.356484622389
30
0
41
1
10
967.599796548764
20
13.3828162732082
30
0
41
1
10
967.60433335595
20
13.3916953097537
30
0
41
1
10
967.6138631021
20
13.4096437969794
30
0
41
1
10
967.618869149208
20
13.4187353800855
30
0
41
1
10
967.634415525727
20
13.4460520121198
30
0
41
1
10
967.645494008421
20
13.4643541841935
30
0
41
1
10
967.65725
20
13.4827399736345
30
0
0
SPLINE
5
1ED
100
AcDbEntity
8
1
62
256
6
ByLayer
370
18
48
1
60
0
100
AcDbSpline
70
4
71
3
72
8
73
4
40
0
40
0
40
0
40
0
40
1
40
1
40
1
40
1
41
1
10
967.65725
20
13.4827399736345
30
0
41
1
10
967.883402868273
20
13.83643187531
30
0
41
1
10
968.106110862472
20
14.1929902479563
30
0
41
1
10
968.325
20
14.5527262815425
30
0
0
SPLINE
5
1EE
100
AcDbEntity
8
1
62
256
6
ByLayer
370
18
48
1
60
0
100
AcDbSpline
70
4
71
3
72
8
73
4
40
0
40
0
40
0
40
0
40
1
40
1
40
1
40
1
41
1
10
968.325
20
14.8281010413138
30
0
41
1
10
968.102418501529
20
14.6462345187485
30
0
41
1
10
967.879835104503
20
14.4643710942706
30
0
41
1
10
967.65725
20
14.2825104562819
30
0
0
SPLINE
5
1EF
100
AcDbEntity
8
1
62
256
6
ByLayer
370
18
48
1
60
0
100
AcDbSpline
70
4
71
3
72
39
73
35
40
0
40
0
40
0
40
0
40
0.0625000000000123
40
0.0625000000000123
40
0.125000000000025
40
0.125000000000025
40
0.156250000000029
40
0.156250000000029
40
0.187500000000034
40
0.218750000000039
40
0.218750000000039
40
0.250000000000044
40
0.250000000000044
40
0.281250000000048
40
0.281250000000048
40
0.312500000000053
40
0.312500000000053
40
0.375000000000058
40
0.375000000000058
40
0.406250000000061
40
0.406250000000061
40
0.437500000000064
40
0.437500000000064
40
0.500000000000056
40
0.500000000000056
40
0.562500000000049
40
0.562500000000049
40
0.625000000000041
40
0.625000000000041
40
0.750000000000027
40
0.750000000000027
40
0.875000000000014
40
0.875000000000014
40
1
40
1
40
1
40
1
41
1
10
967.65725
20
14.2825104562815
30
0
41
1
10
967.648730065731
20
14.2755493405085
30
0
41
1
10
967.640240384046
20
14.2692184592491
30
0
41
1
10
967.623341124263
20
14.2582367547028
30
0
41
1
10
967.615142835809
20
14.253733550016
30
0
41
1
10
967.603502565365
20
14.2489190584586
30
0
41
1
10
967.599690571782
20
14.2476279374665
30
0
41
1
10
967.592508199676
20
14.2458287087897
30
0
41
1
10
967.585753036205
20
14.2447933930799
30
0
41
1
10
967.57985489915
20
14.2452935266043
30
0
41
1
10
967.574396787441
20
14.2465837457067
30
0
41
1
10
967.571921227016
20
14.2476226683725
30
0
41
1
10
967.567549364675
20
14.2503791343421
30
0
41
1
10
967.565632865709
20
14.2521010550932
30
0
41
1
10
967.562294682936
20
14.2561774311314
30
0
41
1
10
967.560877068863
20
14.2585371215464
30
0
41
1
10
967.557390747716
20
14.2662780513443
30
0
41
1
10
967.556027508755
20
14.2723659173804
30
0
41
1
10
967.555089670381
20
14.2825705167262
30
0
41
1
10
967.554965589462
20
14.2861624354537
30
0
41
1
10
967.555050764295
20
14.2935457986914
30
0
41
1
10
967.555257937137
20
14.2973513922311
30
0
41
1
10
967.55630692986
20
14.3090646790526
30
0
41
1
10
967.557572712542
20
14.3172664856427
30
0
41
1
10
967.561013886187
20
14.3343034962873
30
0
41
1
10
967.563205111981
20
14.3431848907015
30
0
41
1
10
967.568289962251
20
14.3612170876251
30
0
41
1
10
967.571181138174
20
14.3703740972612
30
0
41
1
10
967.580731495714
20
14.3982003840189
30
0
41
1
10
967.58825670067
20
14.4172206819373
30
0
41
1
10
967.605186633247
20
14.4560235621067
30
0
41
1
10
967.614628433405
20
14.4758558461284
30
0
41
1
10
967.634871171201
20
14.5154772407574
30
0
41
1
10
967.645710540002
20
14.535358530117
30
0
41
1
10
967.65725
20
14.5553060181388
30
0
0
SPLINE
5
1F0
100
AcDbEntity
8
1
62
256
6
ByLayer
370
18
48
1
60
0
100
AcDbSpline
70
4
71
3
72
8
73
4
40
0
40
0
40
0
40
0
40
1
40
1
40
1
40
1
41
1
10
967.65725
20
14.5553060181388
30
0
41
1
10
967.884714477839
20
14.9485085551489
30
0
41
1
10
968.107474410812
20
15.3452292816054
30
0
41
1
10
968.325
20
15.7458643958687
30
0
0
SPLINE
5
1F1
100
AcDbEntity
8
1
62
256
6
ByLayer
370
18
48
1
60
0
100
AcDbSpline
70
4
71
3
72
8
73
4
40
0
40
0
40
0
40
0
40
1
40
1
40
1
40
1
41
1
10
968.325
20
16.0851014547519
30
0
41
1
10
968.10245879482
20
15.9006923009308
30
0
41
1
10
967.879873851596
20
15.7163535072999
30
0
41
1
10
967.65725
20
15.5320774075163
30
0
0
SPLINE
5
1F2
100
AcDbEntity
8
1
62
256
6
ByLayer
370
18
48
1
60
0
100
AcDbSpline
70
4
71
3
72
42
73
38
40
0
40
0
40
0
40
0
40
0.0312500000000031
40
0.0312500000000031
40
0.0625000000000061
40
0.0625000000000061
40
0.125000000000004
40
0.125000000000004
40
0.156250000000004
40
0.156250000000004
40
0.187500000000004
40
0.187500000000004
40
0.218750000000004
40
0.218750000000004
40
0.250000000000004
40
0.250000000000004
40
0.281250000000003
40
0.281250000000003
40
0.312500000000003
40
0.312500000000003
40
0.375000000000007
40
0.375000000000007
40
0.437500000000011
40
0.437500000000011
40
0.500000000000014
40
0.500000000000014
40
0.562500000000018
40
0.562500000000018
40
0.625000000000022
40
0.625000000000022
40
0.750000000000016
40
0.750000000000016
40
0.812500000000012
40
0.812500000000012
40
0.875000000000007
40
0.875000000000007
40
1
40
1
40
1
40
1
41
1
10
967.65725
20
15.5320774075157
30
0
41
1
10
967.652715784637
20
15.5283242269073
30
0
41
1
10
967.648171982642
20
15.5247757819624
30
0
41
1
10
967.639061851737
20
15.5181610054275
30
0
41
1
10
967.634463110044
20
15.5150753799355
30
0
41
1
10
967.620890781081
20
15.5068594070316
30
0
41
1
10
967.612184274073
20
15.502761757629
30
0
41
1
10
967.599785944165
20
15.4992975443772
30
0
41
1
10
967.595798736559
20
15.4986172460548
30
0
41
1
10
967.588437887232
20
15.4982785085208
30
0
41
1
10
967.585016590109
20
15.4986049370614
30
0
41
1
10
967.578687918255
20
15.5002433720449
30
0
41
1
10
967.575771253971
20
15.5015738595654
30
0
41
1
10
967.570642007269
20
15.5050687242725
30
0
41
1
10
967.56839631381
20
15.5072354093666
30
0
41
1
10
967.564466866063
20
15.5123093041729
30
0
41
1
10
967.562790610632
20
15.5152183613402
30
0
41
1
10
967.560004051664
20
15.521517305007
30
0
41
1
10
967.558878662108
20
15.5249254812285
30
0
41
1
10
967.556177071261
20
15.5358031836057
30
0
41
1
10
967.555271816217
20
15.543994233689
30
0
41
1
10
967.554835140454
20
15.5612291113961
30
0
41
1
10
967.555287739564
20
15.5702917827684
30
0
41
1
10
967.557198628639
20
15.5890883080329
30
0
41
1
10
967.558660813748
20
15.5988247001869
30
0
41
1
10
967.562414468342
20
15.6188535137192
30
0
41
1
10
967.564690590357
20
15.629054465759
30
0
41
1
10
967.569864147007
20
15.649637060084
30
0
41
1
10
967.572766885173
20
15.6600412676683
30
0
41
1
10
967.582286200838
20
15.6915449402736
30
0
41
1
10
967.589704686116
20
15.7129323093343
30
0
41
1
10
967.602170480305
20
15.7454949482774
30
0
41
1
10
967.606561134335
20
15.7564527325284
30
0
41
1
10
967.615723333452
20
15.7783994308831
30
0
41
1
10
967.620491747496
20
15.7893830822203
30
0
41
1
10
967.635333434929
20
15.8223630030814
30
0
41
1
10
967.645938290533
20
15.8443880604753
30
0
41
1
10
967.65725
20
15.8664489384971
30
0
0
SPLINE
5
1F3
100
AcDbEntity
8
1
62
256
6
ByLayer
370
18
48
1
60
0
100
AcDbSpline
70
4
71
3
72
8
73
4
40
0
40
0
40
0
40
0
40
1
40
1
40
1
40
1
41
1
10
967.65725
20
15.8664489384971
30
0
41
1
10
967.886818670973
20
16.3141696356092
30
0
41
1
10
968.109664772761
20
16.7663013177291
30
0
41
1
10
968.325
20
17.2233612280468
30
0
0
SPLINE
5
1F4
100
AcDbEntity
8
1
62
256
6
ByLayer
370
18
48
1
60
0
100
AcDbSpline
70
4
71
3
72
8
73
4
40
0
40
0
40
0
40
0
40
1
40
1
40
1
40
1
41
1
10
968.325
20
17.6483893748016
30
0
41
1
10
968.102604575939
20
17.4563695883278
30
0
41
1
10
967.880013178354
20
17.2646531498539
30
0
41
1
10
967.65725
20
17.073202611346
30
0
0
SPLINE
5
1F5
100
AcDbEntity
8
1
62
256
6
ByLayer
370
18
48
1
60
0
100
AcDbSpline
70
4
71
3
72
40
73
36
40
0
40
0
40
0
40
0
40
0.0312499999999942
40
0.0312499999999942
40
0.0624999999999884
40
0.0624999999999884
40
0.0937499999999825
40
0.0937499999999825
40
0.124999999999977
40
0.124999999999977
40
0.156249999999971
40
0.156249999999971
40
0.187499999999965
40
0.187499999999965
40
0.218749999999959
40
0.218749999999959
40
0.249999999999953
40
0.249999999999953
40
0.281249999999948
40
0.281249999999948
40
0.312499999999942
40
0.312499999999942
40
0.374999999999941
40
0.374999999999941
40
0.43749999999994
40
0.43749999999994
40
0.499999999999939
40
0.499999999999939
40
0.624999999999954
40
0.624999999999954
40
0.74999999999997
40
0.74999999999997
40
0.874999999999985
40
0.874999999999985
40
1
40
1
40
1
40
1
41
1
10
967.65725
20
17.0732026113449
30
0
41
1
10
967.652324785389
20
17.0689697080593
30
0
41
1
10
967.647356992029
20
17.0650116417454
30
0
41
1
10
967.637315154055
20
17.0577826193225
30
0
41
1
10
967.632248515212
20
17.0545255405294
30
0
41
1
10
967.622330439527
20
17.0490728440868
30
0
41
1
10
967.617440623879
20
17.0468468760488
30
0
41
1
10
967.607826918485
20
17.0435976869238
30
0
41
1
10
967.603111409146
20
17.0425997406922
30
0
41
1
10
967.594370949067
20
17.0420536598703
30
0
41
1
10
967.590248358896
20
17.0424896101877
30
0
41
1
10
967.582727371686
20
17.0447485242891
30
0
41
1
10
967.57938238395
20
17.0465381718887
30
0
41
1
10
967.573407708145
20
17.0512570246548
30
0
41
1
10
967.570784206276
20
17.0542006020203
30
0
41
1
10
967.566309974722
20
17.0608332087516
30
0
41
1
10
967.564427793416
20
17.0645441840733
30
0
41
1
10
967.561236804879
20
17.0726056977836
30
0
41
1
10
967.559924523398
20
17.0769831135119
30
0
41
1
10
967.557820257698
20
17.0861069374326
30
0
41
1
10
967.557021441388
20
17.0908603719129
30
0
41
1
10
967.555235379233
20
17.105583850331
30
0
41
1
10
967.554850803664
20
17.1160113188881
30
0
41
1
10
967.555246538783
20
17.1377568483099
30
0
41
1
10
967.556035160587
20
17.1490242717147
30
0
41
1
10
967.558471756972
20
17.1718300017287
30
0
41
1
10
967.5601236938
20
17.183424902574
30
0
41
1
10
967.566117480304
20
17.2186729439273
30
0
41
1
10
967.571482810188
20
17.2427832321805
30
0
41
1
10
967.584278013173
20
17.2919364951786
30
0
41
1
10
967.591632558633
20
17.3166566980859
30
0
41
1
10
967.607858354255
20
17.3662049957846
30
0
41
1
10
967.616740588791
20
17.3910573320382
30
0
41
1
10
967.635921765221
20
17.4409044293345
30
0
41
1
10
967.646221364227
20
17.4658992686977
30
0
41
1
10
967.65725
20
17.490964904403
30
0
0
SPLINE
5
1F6
100
AcDbEntity
8
1
62
256
6
ByLayer
370
18
48
1
60
0
100
AcDbSpline
70
4
71
3
72
8
73
4
40
0
40
0
40
0
40
0
40
1
40
1
40
1
40
1
41
1
10
967.65725
20
17.490964904403
30
0
41
1
10
967.890641792267
20
18.0214125283643
30
0
41
1
10
968.11364948325
20
18.5576051289668
30
0
41
1
10
968.325
20
19.1002470304604
30
0
0
SPLINE
5
1F7
100
AcDbEntity
8
1
62
256
6
ByLayer
370
18
48
1
60
0
100
AcDbSpline
70
4
71
3
72
8
73
4
40
0
40
0
40
0
40
0
40
1
40
1
40
1
40
1
41
1
10
968.325
20
19.6559114201165
30
0
41
1
10
968.103076961139
20
19.4456923332152
30
0
41
1
10
967.880459452193
20
19.2364580540413
30
0
41
1
10
967.65725
20
19.0280631922837
30
0
0
SPLINE
5
1F8
100
AcDbEntity
8
1
62
256
6
ByLayer
370
18
48
1
60
0
100
AcDbSpline
70
4
71
3
72
40
73
36
40
0
40
0
40
0
40
0
40
0.0312500000000036
40
0.0312500000000036
40
0.0625000000000072
40
0.0625000000000072
40
0.0781250000000132
40
0.0781250000000132
40
0.0937500000000192
40
0.0937500000000192
40
0.125000000000022
40
0.125000000000022
40
0.156250000000025
40
0.156250000000025
40
0.187500000000028
40
0.187500000000028
40
0.218750000000031
40
0.218750000000031
40
0.250000000000034
40
0.250000000000034
40
0.312500000000031
40
0.312500000000031
40
0.375000000000028
40
0.375000000000028
40
0.437500000000026
40
0.437500000000026
40
0.500000000000023
40
0.500000000000023
40
0.625000000000017
40
0.625000000000017
40
0.750000000000011
40
0.750000000000011
40
0.875000000000006
40
0.875000000000006
40
1
40
1
40
1
40
1
41
1
10
967.657250000001
20
19.0280631922819
30
0
41
1
10
967.651733704436
20
19.0229130176796
30
0
41
1
10
967.646066107437
20
19.0181314946153
30
0
41
1
10
967.634562152208
20
19.0097860367842
30
0
41
1
10
967.62880897781
20
19.0062761031455
30
0
41
1
10
967.62017698217
20
19.002305307844
30
0
41
1
10
967.61727725566
20
19.0011930869387
30
0
41
1
10
967.61158738497
20
18.99951237264
30
0
41
1
10
967.608815785729
20
18.9989456300577
30
0
41
1
10
967.600727543927
20
18.9980916577635
30
0
41
1
10
967.595584332522
20
18.9986968358198
30
0
41
1
10
967.586503060931
20
19.002057742837
30
0
41
1
10
967.582444136122
20
19.0048309707689
30
0
41
1
10
967.575492380429
20
19.0118393792939
30
0
41
1
10
967.57256525011
20
19.0160542698855
30
0
41
1
10
967.567523949783
20
19.0255408504363
30
0
41
1
10
967.565433449283
20
19.0307892409138
30
0
41
1
10
967.561966014372
20
19.0417917022327
30
0
41
1
10
967.560571634746
20
19.0475848730666
30
0
41
1
10
967.557163017579
20
19.0656338075663
30
0
41
1
10
967.555916890592
20
19.0786088975257
30
0
41
1
10
967.554799530385
20
19.1050807922571
30
0
41
1
10
967.554919462331
20
19.1186688562597
30
0
41
1
10
967.556115737511
20
19.1463472203947
30
0
41
1
10
967.557197457677
20
19.160440229264
30
0
41
1
10
967.5601156044
20
19.1890268054286
30
0
41
1
10
967.561958590354
20
19.2035425051171
30
0
41
1
10
967.568358916547
20
19.2471299508129
30
0
41
1
10
967.573786247854
20
19.2763990830127
30
0
41
1
10
967.586349200078
20
19.3352574724771
30
0
41
1
10
967.593494825445
20
19.3648483572413
30
0
41
1
10
967.609260086472
20
19.4243099522299
30
0
41
1
10
967.617882392817
20
19.4541811057473
30
0
41
1
10
967.636537462531
20
19.5141902882802
30
0
41
1
10
967.646566260774
20
19.5443057932637
30
0
41
1
10
967.65725
20
19.5743272429237
30
0
0
SPLINE
5
1F9
100
AcDbEntity
8
1
62
256
6
ByLayer
370
18
48
1
60
0
100
AcDbSpline
70
4
71
3
72
8
73
4
40
0
40
0
40
0
40
0
40
1
40
1
40
1
40
1
41
1
10
967.65725
20
19.5743272429237
30
0
41
1
10
967.899443492047
20
20.2548941844814
30
0
41
1
10
968.122833855469
20
20.9435601143501
30
0
41
1
10
968.325
20
21.6413678580169
30
0
0
SPLINE
5
1FA
100
AcDbEntity
8
1
62
256
6
ByLayer
370
18
48
1
60
0
100
AcDbSpline
70
4
71
3
72
8
73
4
40
0
40
0
40
0
40
0
40
1
40
1
40
1
40
1
41
1
10
968.325
20
22.4542692825393
30
0
41
1
10
968.105220267217
20
22.1940971669865
30
0
41
1
10
967.88243970332
20
21.9373912343046
30
0
41
1
10
967.65725
20
21.683468036632
30
0
0
SPLINE
5
1FB
100
AcDbEntity
8
1
62
256
6
ByLayer
370
18
48
1
60
0
100
AcDbSpline
70
4
71
3
72
40
73
36
40
0
40
0
40
0
40
0
40
0.031249999999996
40
0.031249999999996
40
0.0468749999999905
40
0.0468749999999905
40
0.062499999999985
40
0.062499999999985
40
0.0781249999999795
40
0.0781249999999795
40
0.093749999999974
40
0.093749999999974
40
0.109374999999968
40
0.109374999999968
40
0.124999999999963
40
0.124999999999963
40
0.140624999999958
40
0.140624999999958
40
0.156249999999952
40
0.156249999999952
40
0.187499999999956
40
0.187499999999956
40
0.249999999999958
40
0.249999999999958
40
0.312499999999959
40
0.312499999999959
40
0.374999999999961
40
0.374999999999961
40
0.499999999999971
40
0.499999999999971
40
0.624999999999981
40
0.624999999999981
40
0.749999999999991
40
0.749999999999991
40
1
40
1
40
1
40
1
41
1
10
967.65725
20
21.6834680366319
30
0
41
1
10
967.650694943635
20
21.6760765757945
30
0
41
1
10
967.643856307002
20
21.669348921423
30
0
41
1
10
967.632828000437
20
21.6610665922034
30
0
41
1
10
967.629054327816
20
21.6586530424343
30
0
41
1
10
967.621506084283
20
21.6548755320811
30
0
41
1
10
967.61764714495
20
21.6534830716385
30
0
41
1
10
967.610209805759
20
21.6520457621415
30
0
41
1
10
967.606618079864
20
21.6519769072289
30
0
41
1
10
967.599698960659
20
21.6531950148257
30
0
41
1
10
967.596491641376
20
21.6544651334347
30
0
41
1
10
967.590590250106
20
21.6580741984251
30
0
41
1
10
967.587881583886
20
21.6604303829199
30
0
41
1
10
967.58304075593
20
21.6658072397976
30
0
41
1
10
967.580873840228
20
21.6688474163016
30
0
41
1
10
967.576925875258
20
21.6754645489852
30
0
41
1
10
967.575146203239
20
21.6790491512256
30
0
41
1
10
967.571958100518
20
21.6864812331372
30
0
41
1
10
967.57053716708
20
21.6903495933432
30
0
41
1
10
967.566674588752
20
21.7023079229648
30
0
41
1
10
967.56462720792
20
21.7107459519713
30
0
41
1
10
967.559543929198
20
21.7370015104425
30
0
41
1
10
967.557615467712
20
21.7552964549205
30
0
41
1
10
967.555271978326
20
21.7925330920053
30
0
41
1
10
967.554890029935
20
21.8115355970064
30
0
41
1
10
967.555160723138
20
21.8500543733489
30
0
41
1
10
967.555822177156
20
21.8695747639074
30
0
41
1
10
967.558978582122
20
21.9287292523206
30
0
41
1
10
967.562586786564
20
21.9683683464654
30
0
41
1
10
967.571676507638
20
22.0478165419787
30
0
41
1
10
967.577183669213
20
22.0876506103385
30
0
41
1
10
967.589657597443
20
22.1674979755154
30
0
41
1
10
967.596630654187
20
22.2075118088013
30
0
41
1
10
967.619443660266
20
22.327795111355
30
0
41
1
10
967.637125569123
20
22.4083021983409
30
0
41
1
10
967.65725
20
22.4891181707872
30
0
0
SPLINE
5
1FC
100
AcDbEntity
8
1
62
256
6
ByLayer
370
18
48
1
60
0
100
AcDbSpline
70
4
71
3
72
8
73
4
40
0
40
0
40
0
40
0
40
1
40
1
40
1
40
1
41
1
10
967.65725
20
22.4891181707872
30
0
41
1
10
967.940369761457
20
23.6260744892328
30
0
41
1
10
968.165581223844
20
24.7779412307346
30
0
41
1
10
968.325
20
25.9467484937416
30
0
0
SPLINE
5
1FD
100
AcDbEntity
8
1
62
256
6
ByLayer
370
18
48
1
60
0
100
AcDbSpline
70
4
71
3
72
10
73
6
40
0
40
0
40
0
40
0
40
0.5
40
0.5
40
1
40
1
40
1
40
1
41
1
10
968.324999999996
20
28.4585929893672
30
0
41
1
10
968.254077218733
20
28.0874393421781
30
0
41
1
10
968.160083064704
20
27.725948914363
30
0
41
1
10
967.934818787515
20
27.0185807347003
30
0
41
1
10
967.803545178729
20
26.6727044427729
30
0
41
1
10
967.657249999999
20
26.33311978885
30
0
0
SPLINE
5
1FE
100
AcDbEntity
8
1
62
256
6
ByLayer
370
18
48
1
60
0
100
AcDbSpline
70
4
71
3
72
103
73
99
40
0
40
0
40
0
40
0
40
0.0039062500000044
40
0.0039062500000044
40
0.0058593750000061
40
0.0058593750000061
40
0.0078125000000078
40
0.0078125000000078
40
0.0087890625000082
40
0.0087890625000082
40
0.0097656250000087
40
0.0097656250000087
40
0.0107421875000092
40
0.0107421875000092
40
0.0117187500000097
40
0.0117187500000097
40
0.0136718750000103
40
0.0136718750000103
40
0.015625000000011
40
0.015625000000011
40
0.0175781250000117
40
0.0175781250000117
40
0.0195312500000124
40
0.0195312500000124
40
0.023437500000012
40
0.023437500000012
40
0.0273437500000116
40
0.0273437500000116
40
0.0312500000000112
40
0.0312500000000112
40
0.0390625000000114
40
0.0390625000000114
40
0.0468750000000115
40
0.0468750000000115
40
0.0625000000000105
40
0.0625000000000105
40
0.0781250000000095
40
0.0781250000000095
40
0.0937500000000085
40
0.0937500000000085
40
0.125000000000008
40
0.125000000000008
40
0.156250000000007
40
0.156250000000007
40
0.187500000000006
40
0.187500000000006
40
0.250000000000006
40
0.250000000000006
40
0.312500000000005
40
0.312500000000005
40
0.375000000000005
40
0.437500000000004
40
0.437500000000004
40
0.500000000000004
40
0.562500000000003
40
0.562500000000003
40
0.625000000000003
40
0.687500000000002
40
0.687500000000002
40
0.750000000000002
40
0.750000000000002
40
0.812500000000001
40
0.812500000000001
40
0.843750000000003
40
0.843750000000003
40
0.875000000000004
40
0.875000000000004
40
0.906250000000005
40
0.906250000000005
40
0.937500000000006
40
0.937500000000006
40
0.953125000000007
40
0.953125000000007
40
0.960937500000007
40
0.960937500000007
40
0.968750000000007
40
0.968750000000007
40
0.976562500000008
40
0.976562500000008
40
0.98046875000001
40
0.98046875000001
40
0.984375000000011
40
0.984375000000011
40
0.986328125000011
40
0.986328125000011
40
0.988281250000011
40
0.988281250000011
40
0.989257812500011
40
0.989257812500011
40
0.99023437500001
40
0.99023437500001
40
0.992187500000009
40
0.992187500000009
40
0.994140625000007
40
0.994140625000007
40
0.996093750000006
40
0.996093750000006
40
1
40
1
40
1
40
1
41
1
10
967.65725
20
26.3331197888497
30
0
41
1
10
967.653301423682
20
26.3239542378455
30
0
41
1
10
967.649062278608
20
26.3149998399349
30
0
41
1
10
967.641890292594
20
26.3023824627749
30
0
41
1
10
967.639344045079
20
26.2982876871112
30
0
41
1
10
967.633862944301
20
26.2906704770718
30
0
41
1
10
967.630905631637
20
26.2871104422387
30
0
41
1
10
967.626096575479
20
26.2827202993884
30
0
41
1
10
967.624438975247
20
26.2814237818109
30
0
41
1
10
967.62097392382
20
26.2792892659071
30
0
41
1
10
967.619165204424
20
26.2784618927689
30
0
41
1
10
967.615556785197
20
26.2774943675243
30
0
41
1
10
967.61370867896
20
26.2773488210584
30
0
41
1
10
967.610180584925
20
26.2777857364193
30
0
41
1
10
967.608468290059
20
26.2783624395518
30
0
41
1
10
967.603630683927
20
26.2809647486369
30
0
41
1
10
967.600854969405
20
26.2837884527557
30
0
41
1
10
967.596024565021
20
26.2903392664192
30
0
41
1
10
967.593965623425
20
26.2940542278148
30
0
41
1
10
967.59024648378
20
26.3019775369423
30
0
41
1
10
967.588612584208
20
26.306152171032
30
0
41
1
10
967.585658623905
20
26.3146641163125
30
0
41
1
10
967.584332664397
20
26.3190233585035
30
0
41
1
10
967.580665021386
20
26.3323140567717
30
0
41
1
10
967.57862753906
20
26.3414543933298
30
0
41
1
10
967.575020258097
20
26.360059276566
30
0
41
1
10
967.573458990614
20
26.3695258214542
30
0
41
1
10
967.570681498255
20
26.3885053145402
30
0
41
1
10
967.569461933955
20
26.3980474248262
30
0
41
1
10
967.566164724211
20
26.4267872214928
30
0
41
1
10
967.564441871259
20
26.4460963751665
30
0
41
1
10
967.561565262988
20
26.4848993521485
30
0
41
1
10
967.560418250916
20
26.5043951900353
30
0
41
1
10
967.557575244483
20
26.5630834174432
30
0
41
1
10
967.556465663616
20
26.6024730525663
30
0
41
1
10
967.555135765611
20
26.6815771273687
30
0
41
1
10
967.5549295177
20
26.7212583230876
30
0
41
1
10
967.555109823879
20
26.8006259197933
30
0
41
1
10
967.555499793026
20
26.8403457293888
30
0
41
1
10
967.557293455112
20
26.9595919779949
30
0
41
1
10
967.559308234817
20
27.039204258653
30
0
41
1
10
967.564196181931
20
27.1985984506235
30
0
41
1
10
967.56708109708
20
27.2783812662307
30
0
41
1
10
967.573316966476
20
27.4380864886197
30
0
41
1
10
967.576671708505
20
27.5180091875382
30
0
41
1
10
967.587049936214
20
27.7579573823194
30
0
41
1
10
967.594374358784
20
27.9182360785377
30
0
41
1
10
967.608485845607
20
28.2387123301297
30
0
41
1
10
967.615286090069
20
28.3989234241467
30
0
41
1
10
967.627532712957
20
28.719298552095
30
0
41
1
10
967.638431938167
20
29.0396265628868
30
0
41
1
10
967.645462457192
20
29.3598699455379
30
0
41
1
10
967.650191912683
20
29.6800739979275
30
0
41
1
10
967.652618507706
20
30.0002387322669
30
0
41
1
10
967.650187524562
20
30.3203269223209
30
0
41
1
10
967.645457290144
20
30.640375849336
30
0
41
1
10
967.638429381582
20
30.9603855006037
30
0
41
1
10
967.62754588067
20
31.2803107722853
30
0
41
1
10
967.615321771864
20
31.6001891502378
30
0
41
1
10
967.608536385058
20
31.7601049199322
30
0
41
1
10
967.594458716991
20
32.0798827704243
30
0
41
1
10
967.5871536225
20
32.2397449609401
30
0
41
1
10
967.576777768777
20
32.4794899901386
30
0
41
1
10
967.573420214871
20
32.5593969217871
30
0
41
1
10
967.56717100212
20
32.7191924148657
30
0
41
1
10
967.564275469638
20
32.7990810088251
30
0
41
1
10
967.559360408877
20
32.9588363731515
30
0
41
1
10
967.557331970261
20
33.0386675244806
30
0
41
1
10
967.554915618715
20
33.1976889205628
30
0
41
1
10
967.554474000375
20
33.2769449256295
30
0
41
1
10
967.556408527631
20
33.3951416853314
30
0
41
1
10
967.557490962645
20
33.4344250564906
30
0
41
1
10
967.56027893944
20
33.4930695492669
30
0
41
1
10
967.561405199969
20
33.5125703442772
30
0
41
1
10
967.56423493603
20
33.5514384747181
30
0
41
1
10
967.565931575081
20
33.5708072543226
30
0
41
1
10
967.5702707399
20
33.6093334837016
30
0
41
1
10
967.572876911364
20
33.6284986132841
30
0
41
1
10
967.578280301633
20
33.6569220490959
30
0
41
1
10
967.580322520626
20
33.6662675322786
30
0
41
1
10
967.585238144679
20
33.6844129311095
30
0
41
1
10
967.588077516882
20
33.6932127309451
30
0
41
1
10
967.59358496363
20
33.7052161684995
30
0
41
1
10
967.595658717637
20
33.7090581612383
30
0
41
1
10
967.600477568668
20
33.7157909426845
30
0
41
1
10
967.603260702252
20
33.7187147664815
30
0
41
1
10
967.608034973336
20
33.7214541328516
30
0
41
1
10
967.609764356208
20
33.722100880532
30
0
41
1
10
967.613312362299
20
33.7226512478299
30
0
41
1
10
967.615150048833
20
33.7225628925127
30
0
41
1
10
967.620665102831
20
33.7212252532111
30
0
41
1
10
967.624234052256
20
33.718936601631
30
0
41
1
10
967.630712654505
20
33.7131061781785
30
0
41
1
10
967.633714095518
20
33.7095172477651
30
0
41
1
10
967.639223963314
20
33.7018974155199
30
0
41
1
10
967.641766744743
20
33.6978234406913
30
0
41
1
10
967.64900699551
20
33.6851196132757
30
0
41
1
10
967.653288339033
20
33.6760761346162
30
0
41
1
10
967.65725
20
33.6668802111413
30
0
0
SPLINE
5
1FF
100
AcDbEntity
8
1
62
256
6
ByLayer
370
18
48
1
60
0
100
AcDbSpline
70
4
71
3
72
10
73
6
40
0
40
0
40
0
40
0
40
0.5
40
0.5
40
1
40
1
40
1
40
1
41
1
10
967.65725
20
33.6668802111412
30
0
41
1
10
967.80354517873
20
33.3272955572154
30
0
41
1
10
967.934818787517
20
32.981419265285
30
0
41
1
10
968.160083064708
20
32.2740510856159
30
0
41
1
10
968.254077218737
20
31.9125606577975
30
0
41
1
10
968.325
20
31.5414070106047
30
0
0
SPLINE
5
200
100
AcDbEntity
8
1
62
256
6
ByLayer
370
18
48
1
60
0
100
AcDbSpline
70
4
71
3
72
8
73
4
40
0
40
0
40
0
40
0
40
1
40
1
40
1
40
1
41
1
10
968.325
20
34.0532515062511
30
0
41
1
10
968.165581223844
20
35.2220587692581
30
0
41
1
10
967.940369761457
20
36.3739255107599
30
0
41
1
10
967.65725
20
37.5108818292056
30
0
0
SPLINE
5
201
100
AcDbEntity
8
1
62
256
6
ByLayer
370
18
48
1
60
0
100
AcDbSpline
70
4
71
3
72
38
73
34
40
0
40
0
40
0
40
0
40
0.250000000000014
40
0.250000000000014
40
0.375000000000023
40
0.375000000000023
40
0.500000000000031
40
0.500000000000031
40
0.625000000000039
40
0.625000000000039
40
0.687500000000033
40
0.687500000000033
40
0.750000000000028
40
0.750000000000028
40
0.812500000000022
40
0.812500000000022
40
0.843750000000019
40
0.843750000000019
40
0.875000000000016
40
0.875000000000016
40
0.890625000000015
40
0.890625000000015
40
0.906250000000014
40
0.906250000000014
40
0.921875000000013
40
0.921875000000013
40
0.937500000000012
40
0.937500000000012
40
0.953125000000011
40
0.953125000000011
40
0.96875000000001
40
0.96875000000001
40
1
40
1
40
1
40
1
41
1
10
967.65725
20
37.5108818292056
30
0
41
1
10
967.63716054397
20
37.5915573491706
30
0
41
1
10
967.619450956248
20
37.6721410317702
30
0
41
1
10
967.596561035942
20
37.7928680077291
30
0
41
1
10
967.589551068575
20
37.8331181043118
30
0
41
1
10
967.577025664879
20
37.9134280274969
30
0
41
1
10
967.571531729367
20
37.9533145620418
30
0
41
1
10
967.562511855497
20
38.0324242113665
30
0
41
1
10
967.558965882088
20
38.0716531908862
30
0
41
1
10
967.555852527796
20
38.129785050085
30
0
41
1
10
967.555186994494
20
38.1490423724787
30
0
41
1
10
967.554879827929
20
38.1872352288635
30
0
41
1
10
967.555228028269
20
38.2061737359721
30
0
41
1
10
967.557508733815
20
38.2435648887816
30
0
41
1
10
967.559446424529
20
38.262168542376
30
0
41
1
10
967.564397741791
20
38.2882186992013
30
0
41
1
10
967.566393256597
20
38.2966210940745
30
0
41
1
10
967.571427719529
20
38.3125823953423
30
0
41
1
10
967.574462350047
20
38.3201862189157
30
0
41
1
10
967.580359838198
20
38.3303812819877
30
0
41
1
10
967.58251814352
20
38.3335070255024
30
0
41
1
10
967.587336978515
20
38.3390490514108
30
0
41
1
10
967.590030958631
20
38.3414861799531
30
0
41
1
10
967.595913788949
20
38.3452619074816
30
0
41
1
10
967.599092314858
20
38.346609057964
30
0
41
1
10
967.606024814218
20
38.3479936140607
30
0
41
1
10
967.609662347774
20
38.3479959168794
30
0
41
1
10
967.617139507214
20
38.3466707159425
30
0
41
1
10
967.621035240753
20
38.3453168047207
30
0
41
1
10
967.628645050978
20
38.3415903478675
30
0
41
1
10
967.632407400583
20
38.3392196334775
30
0
41
1
10
967.643593243054
20
38.3309037559671
30
0
41
1
10
967.650578102516
20
38.3240551738854
30
0
41
1
10
967.657250000003
20
38.3165319633677
30
0
0
SPLINE
5
202
100
AcDbEntity
8
1
62
256
6
ByLayer
370
18
48
1
60
0
100
AcDbSpline
70
4
71
3
72
8
73
4
40
0
40
0
40
0
40
0
40
1
40
1
40
1
40
1
41
1
10
967.65725
20
38.3165319633607
30
0
41
1
10
967.88243970332
20
38.0626087656882
30
0
41
1
10
968.105220267217
20
37.8059028330063
30
0
41
1
10
968.325
20
37.5457307174536
30
0
0
SPLINE
5
203
100
AcDbEntity
8
1
62
256
6
ByLayer
370
18
48
1
60
0
100
AcDbSpline
70
4
71
3
72
8
73
4
40
0
40
0
40
0
40
0
40
1
40
1
40
1
40
1
41
1
10
968.325
20
38.3586321419758
30
0
41
1
10
968.122833855469
20
39.0564398856426
30
0
41
1
10
967.899443492047
20
39.7451058155114
30
0
41
1
10
967.65725
20
40.425672757069
30
0
0
SPLINE
5
204
100
AcDbEntity
8
1
62
256
6
ByLayer
370
18
48
1
60
0
100
AcDbSpline
70
4
71
3
72
39
73
35
40
0
40
0
40
0
40
0
40
0.12499999999999
40
0.249999999999981
40
0.249999999999981
40
0.374999999999971
40
0.374999999999971
40
0.499999999999962
40
0.499999999999962
40
0.624999999999952
40
0.624999999999952
40
0.687499999999947
40
0.687499999999947
40
0.718749999999952
40
0.718749999999952
40
0.749999999999956
40
0.749999999999956
40
0.781249999999961
40
0.781249999999961
40
0.812499999999965
40
0.812499999999965
40
0.84374999999997
40
0.84374999999997
40
0.874999999999974
40
0.874999999999974
40
0.906249999999979
40
0.906249999999979
40
0.921874999999976
40
0.921874999999976
40
0.937499999999973
40
0.937499999999973
40
0.968749999999987
40
0.968749999999987
40
1
40
1
40
1
40
1
41
1
10
967.65725
20
40.425672757069
30
0
41
1
10
967.646580757253
20
40.4556534714287
30
0
41
1
10
967.626666964633
20
40.5154524870266
30
0
41
1
10
967.609474495294
20
40.5749319116956
30
0
41
1
10
967.593723142902
20
40.6342413573169
30
0
41
1
10
967.586565111271
20
40.6638113724724
30
0
41
1
10
967.573950192745
20
40.7227548066834
30
0
41
1
10
967.568478888485
20
40.7521542599782
30
0
41
1
10
967.559868126884
20
40.8105946104133
30
0
41
1
10
967.556764204021
20
40.8392257050355
30
0
41
1
10
967.554929433022
20
40.8808204558504
30
0
41
1
10
967.55479395776
20
40.8944573349872
30
0
41
1
10
967.555616302648
20
40.9144276148413
30
0
41
1
10
967.55606606811
20
40.9210179727042
30
0
41
1
10
967.557381723674
20
40.9338163323393
30
0
41
1
10
967.558246925811
20
40.9400427332847
30
0
41
1
10
967.560494611393
20
40.9520666294946
30
0
41
1
10
967.561875643601
20
40.9578653069903
30
0
41
1
10
967.565318935334
20
40.9689003930909
30
0
41
1
10
967.567398569345
20
40.9741766482534
30
0
41
1
10
967.572430566598
20
40.9837365091109
30
0
41
1
10
967.575359520263
20
40.9879983330596
30
0
41
1
10
967.582352105876
20
40.9951036975193
30
0
41
1
10
967.586358027436
20
40.9978576113873
30
0
41
1
10
967.595394612178
20
41.0012627949574
30
0
41
1
10
967.600550748122
20
41.0019022096179
30
0
41
1
10
967.608635032293
20
41.0010852451268
30
0
41
1
10
967.611401776354
20
41.0005305785538
30
0
41
1
10
967.617073916069
20
40.998878065341
30
0
41
1
10
967.619995357271
20
40.997769819081
30
0
41
1
10
967.628690733007
20
40.9937944544207
30
0
41
1
10
967.634474936355
20
40.9902721402689
30
0
41
1
10
967.646023948476
20
40.9819041255753
30
0
41
1
10
967.651713152807
20
40.9771061699144
30
0
41
1
10
967.657250000001
20
40.9719368077108
30
0
0
SPLINE
5
205
100
AcDbEntity
8
1
62
256
6
ByLayer
370
18
48
1
60
0
100
AcDbSpline
70
4
71
3
72
8
73
4
40
0
40
0
40
0
40
0
40
1
40
1
40
1
40
1
41
1
10
967.65725
20
40.971936807709
30
0
41
1
10
967.880459452193
20
40.7635419459515
30
0
41
1
10
968.103076961139
20
40.5543076667776
30
0
41
1
10
968.325
20
40.3440885798762
30
0
0
SPLINE
5
206
100
AcDbEntity
8
1
62
256
6
ByLayer
370
18
48
1
60
0
100
AcDbSpline
70
4
71
3
72
8
73
4
40
0
40
0
40
0
40
0
40
1
40
1
40
1
40
1
41
1
10
968.325
20
40.8997529695324
30
0
41
1
10
968.11364948325
20
41.4423948710259
30
0
41
1
10
967.890641792267
20
41.9785874716285
30
0
41
1
10
967.65725
20
42.5090350955898
30
0
0
SPLINE
5
207
100
AcDbEntity
8
1
62
256
6
ByLayer
370
18
48
1
60
0
100
AcDbSpline
70
4
71
3
72
39
73
35
40
0
40
0
40
0
40
0
40
0.124999999999984
40
0.249999999999969
40
0.249999999999969
40
0.374999999999953
40
0.374999999999953
40
0.437499999999959
40
0.437499999999959
40
0.499999999999965
40
0.499999999999965
40
0.624999999999974
40
0.624999999999974
40
0.687499999999978
40
0.687499999999978
40
0.71874999999998
40
0.71874999999998
40
0.749999999999983
40
0.749999999999983
40
0.781249999999985
40
0.781249999999985
40
0.812499999999987
40
0.812499999999987
40
0.843749999999989
40
0.843749999999989
40
0.874999999999991
40
0.874999999999991
40
0.906249999999994
40
0.906249999999994
40
0.937499999999996
40
0.937499999999996
40
0.968749999999998
40
0.968749999999998
40
1
40
1
40
1
40
1
41
1
10
967.65725
20
42.5090350955898
30
0
41
1
10
967.646225164343
20
42.5340920944756
30
0
41
1
10
967.62566280359
20
42.5839966544896
30
0
41
1
10
967.607968252585
20
42.6334872058789
30
0
41
1
10
967.591816858937
20
42.6827532154627
30
0
41
1
10
967.584508407246
20
42.7072745173247
30
0
41
1
10
967.574949499611
20
42.7438541457811
30
0
41
1
10
967.571999129151
20
42.7560133838949
30
0
41
1
10
967.566652232335
20
42.7802530319969
30
0
41
1
10
967.564261614681
20
42.7923165856251
30
0
41
1
10
967.558188988546
20
42.8278077286555
30
0
41
1
10
967.555502694857
20
42.8507348092143
30
0
41
1
10
967.554840261364
20
42.8833405981
30
0
41
1
10
967.555202488621
20
42.8939611874131
30
0
41
1
10
967.556973345991
20
42.9088301673427
30
0
41
1
10
967.557768449191
20
42.9136195907049
30
0
41
1
10
967.559861553343
20
42.9227900961028
30
0
41
1
10
967.561164570343
20
42.927174490293
30
0
41
1
10
967.564334883021
20
42.9352565259809
30
0
41
1
10
967.566205229861
20
42.9389775709368
30
0
41
1
10
967.570649829865
20
42.94563236984
30
0
41
1
10
967.573254028099
20
42.9485904737484
30
0
41
1
10
967.579220243512
20
42.9533632895337
30
0
41
1
10
967.582554449094
20
42.9551710720544
30
0
41
1
10
967.590023947377
20
42.9574699819799
30
0
41
1
10
967.594177796039
20
42.9579372222933
30
0
41
1
10
967.602907259085
20
42.9574332577445
30
0
41
1
10
967.607543497602
20
42.9564786691497
30
0
41
1
10
967.617256085205
20
42.9532340128421
30
0
41
1
10
967.622195531084
20
42.9509958721131
30
0
41
1
10
967.632212550562
20
42.9454995925665
30
0
41
1
10
967.637313164361
20
42.9422185261569
30
0
41
1
10
967.647347757395
20
42.934995292731
30
0
41
1
10
967.652317900228
20
42.9310362092852
30
0
41
1
10
967.657250000001
20
42.9267973886487
30
0
0
SPLINE
5
208
100
AcDbEntity
8
1
62
256
6
ByLayer
370
18
48
1
60
0
100
AcDbSpline
70
4
71
3
72
8
73
4
40
0
40
0
40
0
40
0
40
1
40
1
40
1
40
1
41
1
10
967.65725
20
42.9267973886467
30
0
41
1
10
967.880013178354
20
42.7353468501389
30
0
41
1
10
968.102604575939
20
42.543630411665
30
0
41
1
10
968.325
20
42.3516106251912
30
0
0
SPLINE
5
209
100
AcDbEntity
8
1
62
256
6
ByLayer
370
18
48
1
60
0
100
AcDbSpline
70
4
71
3
72
8
73
4
40
0
40
0
40
0
40
0
40
1
40
1
40
1
40
1
41
1
10
968.325
20
42.7766387719459
30
0
41
1
10
968.109664772761
20
43.2336986822637
30
0
41
1
10
967.886818670973
20
43.6858303643835
30
0
41
1
10
967.65725
20
44.1335510614957
30
0
0
SPLINE
5
20A
100
AcDbEntity
8
1
62
256
6
ByLayer
370
18
48
1
60
0
100
AcDbSpline
70
4
71
3
72
34
73
30
40
0
40
0
40
0
40
0
40
0.12499999999999
40
0.12499999999999
40
0.24999999999998
40
0.24999999999998
40
0.37499999999997
40
0.37499999999997
40
0.499999999999959
40
0.499999999999959
40
0.562499999999965
40
0.562499999999965
40
0.62499999999997
40
0.62499999999997
40
0.687499999999975
40
0.687499999999975
40
0.718749999999981
40
0.718749999999981
40
0.749999999999987
40
0.749999999999987
40
0.812499999999995
40
0.812499999999995
40
0.875000000000003
40
0.875000000000003
40
0.906250000000002
40
0.906250000000002
40
0.937500000000001
40
0.937500000000001
40
1
40
1
40
1
40
1
41
1
10
967.65725
20
44.1335510614957
30
0
41
1
10
967.645947569854
20
44.1555938423438
30
0
41
1
10
967.635390176449
20
44.1775242066392
30
0
41
1
10
967.615742019619
20
44.2211582295479
30
0
41
1
10
967.60665006824
20
44.242862085019
30
0
41
1
10
967.590085510798
20
44.2860169256358
30
0
41
1
10
967.582606227346
20
44.3074688857751
30
0
41
1
10
967.569694945613
20
44.3500545638407
30
0
41
1
10
967.564359427979
20
44.3708411368186
30
0
41
1
10
967.55870490209
20
44.4009045021124
30
0
41
1
10
967.557224027691
20
44.4107172130477
30
0
41
1
10
967.555295929659
20
44.4295732544301
30
0
41
1
10
967.554838459604
20
44.4386516861352
30
0
41
1
10
967.555262619244
20
44.455889585723
30
0
41
1
10
967.556158911308
20
44.4640906829768
30
0
41
1
10
967.558858420317
20
44.4750092570375
30
0
41
1
10
967.559984533796
20
44.4784317834427
30
0
41
1
10
967.562777789928
20
44.4847593715433
30
0
41
1
10
967.564455662166
20
44.4876686534007
30
0
41
1
10
967.570292459914
20
44.4952279622171
30
0
41
1
10
967.575288908285
20
44.4988325026105
30
0
41
1
10
967.5880517706
20
44.5022237571293
30
0
41
1
10
967.595399596579
20
44.5018954890096
30
0
41
1
10
967.607827631657
20
44.4984711290412
30
0
41
1
10
967.612142497256
20
44.4968503871686
30
0
41
1
10
967.620909687214
20
44.4928277405394
30
0
41
1
10
967.625389895151
20
44.4904177404286
30
0
41
1
10
967.63908284868
20
44.4821267221157
30
0
41
1
10
967.64817805849
20
44.4754318597322
30
0
41
1
10
967.65725
20
44.4679225924775
30
0
0
SPLINE
5
20B
100
AcDbEntity
8
1
62
256
6
ByLayer
370
18
48
1
60
0
100
AcDbSpline
70
4
71
3
72
8
73
4
40
0
40
0
40
0
40
0
40
1
40
1
40
1
40
1
41
1
10
967.65725
20
44.4679225924764
30
0
41
1
10
967.879873851596
20
44.2836464926929
30
0
41
1
10
968.10245879482
20
44.099307699062
30
0
41
1
10
968.325
20
43.9148985452409
30
0
0
SPLINE
5
20C
100
AcDbEntity
8
1
62
256
6
ByLayer
370
18
48
1
60
0
100
AcDbSpline
70
4
71
3
72
8
73
4
40
0
40
0
40
0
40
0
40
1
40
1
40
1
40
1
41
1
10
968.325
20
44.254135604124
30
0
41
1
10
968.107474410812
20
44.6547707183874
30
0
41
1
10
967.884714477839
20
45.0514914448439
30
0
41
1
10
967.65725
20
45.444693981854
30
0
0
SPLINE
5
20D
100
AcDbEntity
8
1
62
256
6
ByLayer
370
18
48
1
60
0
100
AcDbSpline
70
4
71
3
72
38
73
34
40
0
40
0
40
0
40
0
40
0.125000000000015
40
0.125000000000015
40
0.250000000000031
40
0.250000000000031
40
0.31250000000004
40
0.31250000000004
40
0.375000000000048
40
0.375000000000048
40
0.437500000000057
40
0.437500000000057
40
0.500000000000065
40
0.500000000000065
40
0.562500000000074
40
0.562500000000074
40
0.625000000000082
40
0.625000000000082
40
0.687500000000091
40
0.687500000000091
40
0.718750000000087
40
0.718750000000087
40
0.750000000000084
40
0.750000000000084
40
0.812500000000069
40
0.812500000000069
40
0.875000000000053
40
0.875000000000053
40
0.906250000000043
40
0.906250000000043
40
0.937500000000032
40
0.937500000000032
40
1
40
1
40
1
40
1
41
1
10
967.65725
20
45.444693981854
30
0
41
1
10
967.645729252827
20
45.464609122273
30
0
41
1
10
967.6349441526
20
45.4843931058605
30
0
41
1
10
967.61485300466
20
45.5236915973038
30
0
41
1
10
967.605544881582
20
45.5432064967479
30
0
41
1
10
967.592841568741
20
45.5722469414034
30
0
41
1
10
967.588818547236
20
45.5818881626807
30
0
41
1
10
967.581249401669
20
45.6010827081503
30
0
41
1
10
967.577714050631
20
45.610612768
30
0
41
1
10
967.571284863397
20
45.6293031574125
30
0
41
1
10
967.568378653118
20
45.6384929493788
30
0
41
1
10
967.563283976012
20
45.6565116752597
30
0
41
1
10
967.561087923278
20
45.6653728259436
30
0
41
1
10
967.557609873028
20
45.6825080141097
30
0
41
1
10
967.556338551274
20
45.6907145969864
30
0
41
1
10
967.554922968104
20
45.706260879325
30
0
41
1
10
967.554774658789
20
45.7136036355971
30
0
41
1
10
967.555949855096
20
45.7271617803742
30
0
41
1
10
967.557306821874
20
45.7334360179684
30
0
41
1
10
967.560756288819
20
45.7412410707137
30
0
41
1
10
967.56214022622
20
45.7435888070634
30
0
41
1
10
967.565441932077
20
45.7477064700664
30
0
41
1
10
967.567378919058
20
45.7494845025527
30
0
41
1
10
967.573920712582
20
45.7536924547491
30
0
41
1
10
967.57926021677
20
45.755060563448
30
0
41
1
10
967.592119843747
20
45.754606469624
30
0
41
1
10
967.599334569386
20
45.7527819659456
30
0
41
1
10
967.611057643272
20
45.7479670519943
30
0
41
1
10
967.615118993722
20
45.746009925929
30
0
41
1
10
967.623294279305
20
45.7415799100313
30
0
41
1
10
967.627438854406
20
45.7390951994878
30
0
41
1
10
967.640022299474
20
45.7309333792168
30
0
41
1
10
967.648662924757
20
45.7245055162564
30
0
41
1
10
967.65725
20
45.7174895437109
30
0
0
SPLINE
5
20E
100
AcDbEntity
8
1
62
256
6
ByLayer
370
18
48
1
60
0
100
AcDbSpline
70
4
71
3
72
8
73
4
40
0
40
0
40
0
40
0
40
1
40
1
40
1
40
1
41
1
10
967.65725
20
45.7174895437109
30
0
41
1
10
967.879835104504
20
45.5356289057221
30
0
41
1
10
968.102418501529
20
45.3537654812443
30
0
41
1
10
968.325
20
45.1718989586789
30
0
0
SPLINE
5
20F
100
AcDbEntity
8
1
62
256
6
ByLayer
370
18
48
1
60
0
100
AcDbSpline
70
4
71
3
72
8
73
4
40
0
40
0
40
0
40
0
40
1
40
1
40
1
40
1
41
1
10
968.325
20
45.4472737184502
30
0
41
1
10
968.106110862472
20
45.8070097520365
30
0
41
1
10
967.883402868273
20
46.1635681246827
30
0
41
1
10
967.65725
20
46.5172600263582
30
0
0
SPLINE
5
210
100
AcDbEntity
8
1
62
256
6
ByLayer
370
18
48
1
60
0
100
AcDbSpline
70
4
71
3
72
39
73
35
40
0
40
0
40
0
40
0
40
0.124999999999994
40
0.124999999999994
40
0.249999999999988
40
0.249999999999988
40
0.374999999999983
40
0.374999999999983
40
0.437499999999996
40
0.437499999999996
40
0.50000000000001
40
0.50000000000001
40
0.562500000000024
40
0.562500000000024
40
0.59375000000002
40
0.59375000000002
40
0.625000000000016
40
0.625000000000016
40
0.687500000000018
40
0.687500000000018
40
0.718750000000014
40
0.718750000000014
40
0.750000000000009
40
0.781250000000005
40
0.781250000000005
40
0.812500000000001
40
0.812500000000001
40
0.843749999999997
40
0.843749999999997
40
0.874999999999992
40
0.874999999999992
40
0.937499999999996
40
0.937499999999996
40
1
40
1
40
1
40
1
41
1
10
967.65725
20
46.5172600263582
30
0
41
1
10
967.645519386215
20
46.535606126185
30
0
41
1
10
967.634521551363
20
46.5537784214964
30
0
41
1
10
967.614024223821
20
46.5897612937978
30
0
41
1
10
967.604521780149
20
46.6075726015404
30
0
41
1
10
967.587257567992
20
46.6427706443709
30
0
41
1
10
967.579448823553
20
46.6602823687204
30
0
41
1
10
967.569812155719
20
46.6852814028824
30
0
41
1
10
967.566934654514
20
46.6934255439738
30
0
41
1
10
967.561968416092
20
46.7092694132265
30
0
41
1
10
967.559870904248
20
46.717011798893
30
0
41
1
10
967.556719179234
20
46.7316638736264
30
0
41
1
10
967.55565509052
20
46.738586429549
30
0
41
1
10
967.555000694993
20
46.7482299330803
30
0
41
1
10
967.554940457173
20
46.7513203192789
30
0
41
1
10
967.555181959873
20
46.7572170347614
30
0
41
1
10
967.555487031506
20
46.7600307863654
30
0
41
1
10
967.5570001528
20
46.7678184648518
30
0
41
1
10
967.558794940162
20
46.7722016600429
30
0
41
1
10
967.562952677587
20
46.7772742758423
30
0
41
1
10
967.564589139932
20
46.7787057040728
30
0
41
1
10
967.568291601871
20
46.7809356659729
30
0
41
1
10
967.572442626948
20
46.7825612682357
30
0
41
1
10
967.577519317192
20
46.7829420323361
30
0
41
1
10
967.583084020541
20
46.782667690187
30
0
41
1
10
967.586091614629
20
46.7821985079414
30
0
41
1
10
967.592388092761
20
46.7806511214578
30
0
41
1
10
967.595697643422
20
46.7795724469576
30
0
41
1
10
967.602621795316
20
46.7768394676751
30
0
41
1
10
967.606262068668
20
46.77517104471
30
0
41
1
10
967.61739864662
20
46.7694541063553
30
0
41
1
10
967.625099764707
20
46.7647223175522
30
0
41
1
10
967.640942426848
20
46.7537999933511
30
0
41
1
10
967.649106107276
20
46.7475814822761
30
0
41
1
10
967.65725
20
46.7409130865503
30
0
0
SPLINE
5
211
100
AcDbEntity
8
1
62
256
6
ByLayer
370
18
48
1
60
0
100
AcDbSpline
70
4
71
3
72
8
73
4
40
0
40
0
40
0
40
0
40
1
40
1
40
1
40
1
41
1
10
967.65725
20
46.7409130865503
30
0
41
1
10
967.879840463616
20
46.558651194562
30
0
41
1
10
968.102424037713
20
46.3763780833504
30
0
41
1
10
968.325
20
46.1940925803325
30
0
0
SPLINE
5
212
100
AcDbEntity
8
1
62
256
6
ByLayer
370
18
48
1
60
0
100
AcDbSpline
70
4
71
3
72
8
73
4
40
0
40
0
40
0
40
0
40
1
40
1
40
1
40
1
41
1
10
968.325
20
46.4181652094469
30
0
41
1
10
968.105193688956
20
46.7464520401272
30
0
41
1
10
967.882519487208
20
47.072126106306
30
0
41
1
10
967.65725
20
47.3954357623931
30
0
0
SPLINE
5
213
100
AcDbEntity
8
1
62
256
6
ByLayer
370
18
48
1
60
0
100
AcDbSpline
70
4
71
3
72
39
73
35
40
0
40
0
40
0
40
0
40
0.125000000000002
40
0.125000000000002
40
0.250000000000004
40
0.250000000000004
40
0.312500000000004
40
0.312500000000004
40
0.375000000000005
40
0.375000000000005
40
0.437500000000006
40
0.437500000000006
40
0.500000000000007
40
0.500000000000007
40
0.562500000000008
40
0.562500000000008
40
0.593750000000004
40
0.593750000000004
40
0.625
40
0.656249999999996
40
0.656249999999996
40
0.687499999999992
40
0.687499999999992
40
0.749999999999994
40
0.749999999999994
40
0.781249999999995
40
0.781249999999995
40
0.812499999999995
40
0.812499999999995
40
0.874999999999997
40
0.874999999999997
40
0.937499999999998
40
0.937499999999998
40
1
40
1
40
1
40
1
41
1
10
967.65725
20
47.3954357623931
30
0
41
1
10
967.645324701891
20
47.4125511031269
30
0
41
1
10
967.634118740494
20
47.429455257138
30
0
41
1
10
967.613209011872
20
47.462815642711
30
0
41
1
10
967.603501112796
20
47.4792731330003
30
0
41
1
10
967.590286631662
20
47.5035535488242
30
0
41
1
10
967.586092554181
20
47.5116131784892
30
0
41
1
10
967.5783577017
20
47.5273171615459
30
0
41
1
10
967.57480576526
20
47.5349781858864
30
0
41
1
10
967.56841768522
20
47.5498668770464
30
0
41
1
10
967.565580397059
20
47.5570952276219
30
0
41
1
10
967.560764477946
20
47.5710325164185
30
0
41
1
10
967.558804524416
20
47.5776998844238
30
0
41
1
10
967.556019272252
20
47.5900627954486
30
0
41
1
10
967.555178204018
20
47.5957968346089
30
0
41
1
10
967.554948466163
20
47.6035628121298
30
0
41
1
10
967.55504774884
20
47.6060190500369
30
0
41
1
10
967.555629984416
20
47.6105215882259
30
0
41
1
10
967.556592494316
20
47.614636397934
30
0
41
1
10
967.558374363258
20
47.6179169552527
30
0
41
1
10
967.560607203658
20
47.6207390298829
30
0
41
1
10
967.561960358768
20
47.6219230297082
30
0
41
1
10
967.566634579587
20
47.6246393517224
30
0
41
1
10
967.570581849336
20
47.6253836917207
30
0
41
1
10
967.577798497833
20
47.6248429403159
30
0
41
1
10
967.580440569971
20
47.6243776519329
30
0
41
1
10
967.586012659557
20
47.6229183955846
30
0
41
1
10
967.58895339239
20
47.6219268677536
30
0
41
1
10
967.598210098366
20
47.6182180088987
30
0
41
1
10
967.605040761242
20
47.614714509986
30
0
41
1
10
967.61918299044
20
47.6062798321359
30
0
41
1
10
967.626524213264
20
47.6013513944199
30
0
41
1
10
967.641654445612
20
47.5903201751837
30
0
41
1
10
967.649445016527
20
47.5842089256611
30
0
41
1
10
967.65725
20
47.5777377493864
30
0
0
SPLINE
5
214
100
AcDbEntity
8
1
62
256
6
ByLayer
370
18
48
1
60
0
100
AcDbSpline
70
4
71
3
72
8
73
4
40
0
40
0
40
0
40
0
40
1
40
1
40
1
40
1
41
1
10
967.65725
20
47.5777377493864
30
0
41
1
10
967.87987051103
20
47.3931612446286
30
0
41
1
10
968.102455053618
20
47.2085268805208
30
0
41
1
10
968.325
20
47.0238289167977
30
0
0
SPLINE
5
215
100
AcDbEntity
8
1
62
256
6
ByLayer
370
18
48
1
60
0
100
AcDbSpline
70
4
71
3
72
8
73
4
40
0
40
0
40
0
40
0
40
1
40
1
40
1
40
1
41
1
10
968.325
20
47.2044771020994
30
0
41
1
10
968.104543176152
20
47.5075899137574
30
0
41
1
10
967.88189214863
20
47.8085394178251
30
0
41
1
10
967.65725
20
48.1075258373076
30
0
0
SPLINE
5
216
100
AcDbEntity
8
1
62
256
6
ByLayer
370
18
48
1
60
0
100
AcDbSpline
70
4
71
3
72
41
73
37
40
0
40
0
40
0
40
0
40
0.124999999999997
40
0.124999999999997
40
0.249999999999994
40
0.249999999999994
40
0.312500000000006
40
0.312500000000006
40
0.375000000000019
40
0.375000000000019
40
0.437500000000032
40
0.437500000000032
40
0.500000000000045
40
0.500000000000045
40
0.531250000000042
40
0.531250000000042
40
0.562500000000038
40
0.562500000000038
40
0.625000000000017
40
0.625000000000017
40
0.656250000000009
40
0.656250000000009
40
0.687500000000001
40
0.718749999999994
40
0.718749999999994
40
0.749999999999986
40
0.749999999999986
40
0.812499999999969
40
0.812499999999969
40
0.843749999999968
40
0.843749999999968
40
0.874999999999968
40
0.874999999999968
40
0.937499999999984
40
0.937499999999984
40
1
40
1
40
1
40
1
41
1
10
967.65725
20
48.1075258373076
30
0
41
1
10
967.645133612854
20
48.1236520862422
30
0
41
1
10
967.633721354956
20
48.1395227357331
30
0
41
1
10
967.61239933665
20
48.1707110616762
30
0
41
1
10
967.602484034729
20
48.1860308189366
30
0
41
1
10
967.589000608029
20
48.2084940522861
30
0
41
1
10
967.584764161257
20
48.2158585816838
30
0
41
1
10
967.576991896134
20
48.2300942064242
30
0
41
1
10
967.573436872586
20
48.2369962554982
30
0
41
1
10
967.567090720929
20
48.2503022726322
30
0
41
1
10
967.564285222121
20
48.2567425091302
30
0
41
1
10
967.559676075155
20
48.268837666324
30
0
41
1
10
967.557880787462
20
48.2744596070169
30
0
41
1
10
967.55608161498
20
48.2821463882727
30
0
41
1
10
967.555631576596
20
48.2845836947033
30
0
41
1
10
967.555064878203
20
48.2891802464885
30
0
41
1
10
967.554949380238
20
48.2913489762598
30
0
41
1
10
967.555163437305
20
48.2972779330204
30
0
41
1
10
967.556039062514
20
48.3004892015303
30
0
41
1
10
967.558608393519
20
48.3040386442906
30
0
41
1
10
967.559685167868
20
48.3050136940424
30
0
41
1
10
967.562248039143
20
48.3064699500945
30
0
41
1
10
967.565209750923
20
48.3074386097804
30
0
41
1
10
967.568962971665
20
48.3074409983084
30
0
41
1
10
967.573116175665
20
48.3069558074677
30
0
41
1
10
967.575406894813
20
48.306464974171
30
0
41
1
10
967.582795550642
20
48.3042722195523
30
0
41
1
10
967.588325129078
20
48.3018896485192
30
0
41
1
10
967.597417129716
20
48.2971037349165
30
0
41
1
10
967.600599370303
20
48.2952937657253
30
0
41
1
10
967.607106219725
20
48.2913540555659
30
0
41
1
10
967.610434173347
20
48.2892241879268
30
0
41
1
10
967.620618706119
20
48.2824046773761
30
0
41
1
10
967.627674624594
20
48.2772880411596
30
0
41
1
10
967.642242551995
20
48.2660812759389
30
0
41
1
10
967.649723591615
20
48.2600112789867
30
0
41
1
10
967.65725
20
48.2536450551931
30
0
0
SPLINE
5
217
100
AcDbEntity
8
1
62
256
6
ByLayer
370
18
48
1
60
0
100
AcDbSpline
70
4
71
3
72
8
73
4
40
0
40
0
40
0
40
0
40
1
40
1
40
1
40
1
41
1
10
967.65725
20
48.2536450551931
30
0
41
1
10
967.879918034686
20
48.0653009648976
30
0
41
1
10
968.1025040081
20
47.8768276604158
30
0
41
1
10
968.325
20
47.6882126704882
30
0
0
SPLINE
5
218
100
AcDbEntity
8
1
62
256
6
ByLayer
370
18
48
1
60
0
100
AcDbSpline
70
4
71
3
72
8
73
4
40
0
40
0
40
0
40
0
40
1
40
1
40
1
40
1
41
1
10
968.325
20
47.8306454136869
30
0
41
1
10
968.104063620198
20
48.113019083863
30
0
41
1
10
967.881429112876
20
48.3935969271654
30
0
41
1
10
967.65725
20
48.6725412982266
30
0
0
SPLINE
5
219
100
AcDbEntity
8
1
62
256
6
ByLayer
370
18
48
1
60
0
100
AcDbSpline
70
4
71
3
72
32
73
28
40
0
40
0
40
0
40
0
40
0.125000000000008
40
0.125000000000008
40
0.187499999999997
40
0.187499999999997
40
0.249999999999986
40
0.249999999999986
40
0.374999999999964
40
0.374999999999964
40
0.437499999999968
40
0.437499999999968
40
0.499999999999972
40
0.499999999999972
40
0.562499999999975
40
0.562499999999975
40
0.624999999999979
40
0.624999999999979
40
0.687499999999982
40
0.687499999999982
40
0.749999999999986
40
0.749999999999986
40
0.812499999999989
40
0.812499999999989
40
0.874999999999993
40
0.874999999999993
40
1
40
1
40
1
40
1
41
1
10
967.65725
20
48.6725412982266
30
0
41
1
10
967.64494057418
20
48.6878578234793
30
0
41
1
10
967.633318873656
20
48.7028671310309
30
0
41
1
10
967.617011628257
20
48.724872140301
30
0
41
1
10
967.611764913676
20
48.7321216506189
30
0
41
1
10
967.601689781501
20
48.7464304999071
30
0
41
1
10
967.596845051518
20
48.7535142415086
30
0
41
1
10
967.583145933227
20
48.7742692173065
30
0
41
1
10
967.575242776462
20
48.7872409577639
30
0
41
1
10
967.565799614548
20
48.8049975713231
30
0
41
1
10
967.563060350952
20
48.8106387643529
30
0
41
1
10
967.558712460972
20
48.8209046751592
30
0
41
1
10
967.55707817739
20
48.8255726081441
30
0
41
1
10
967.555090762479
20
48.8338053543447
30
0
41
1
10
967.554755261167
20
48.8373636261786
30
0
41
1
10
967.555617055609
20
48.8428777977813
30
0
41
1
10
967.556803731202
20
48.8448870540999
30
0
41
1
10
967.560865190671
20
48.8471669635138
30
0
41
1
10
967.563668877089
20
48.8474044435766
30
0
41
1
10
967.57078097187
20
48.8461268671355
30
0
41
1
10
967.575153344153
20
48.8445732349152
30
0
41
1
10
967.584978642165
20
48.8399063272717
30
0
41
1
10
967.590446879234
20
48.8368052788253
30
0
41
1
10
967.602385796368
20
48.8292226370535
30
0
41
1
10
967.608690809114
20
48.8248466880572
30
0
41
1
10
967.628372566574
20
48.8103276564953
30
0
41
1
10
967.642665907693
20
48.7986708283629
30
0
41
1
10
967.65725
20
48.7860121158204
30
0
0
SPLINE
5
21A
100
AcDbEntity
8
1
62
256
6
ByLayer
370
18
48
1
60
0
100
AcDbSpline
70
4
71
3
72
8
73
4
40
0
40
0
40
0
40
0
40
1
40
1
40
1
40
1
41
1
10
967.65725
20
48.7860121158204
30
0
41
1
10
967.87998075361
20
48.5926860914812
30
0
41
1
10
968.10256858444
20
48.3991409204034
30
0
41
1
10
968.325
20
48.2053559142478
30
0
0
SPLINE
5
21B
100
AcDbEntity
8
1
62
256
6
ByLayer
370
18
48
1
60
0
100
AcDbSpline
70
4
71
3
72
8
73
4
40
0
40
0
40
0
40
0
40
1
40
1
40
1
40
1
41
1
10
968.325
20
48.3131045806168
30
0
41
1
10
968.103699542003
20
48.5780268881106
30
0
41
1
10
967.881077169411
20
48.8414602064848
30
0
41
1
10
967.65725
20
49.1035364558293
30
0
0
SPLINE
5
21C
100
AcDbEntity
8
1
62
256
6
ByLayer
370
18
48
1
60
0
100
AcDbSpline
70
4
71
3
72
39
73
35
40
0
40
0
40
0
40
0
40
0.125000000000001
40
0.125000000000001
40
0.187499999999999
40
0.187499999999999
40
0.249999999999998
40
0.249999999999998
40
0.312499999999997
40
0.312499999999997
40
0.374999999999996
40
0.374999999999996
40
0.437499999999995
40
0.437499999999995
40
0.499999999999994
40
0.499999999999994
40
0.562499999999993
40
0.562499999999993
40
0.59374999999999
40
0.59374999999999
40
0.624999999999987
40
0.656249999999984
40
0.656249999999984
40
0.687499999999982
40
0.687499999999982
40
0.749999999999985
40
0.749999999999985
40
0.812499999999989
40
0.812499999999989
40
0.874999999999993
40
0.874999999999993
40
0.937499999999996
40
0.937499999999996
40
1
40
1
40
1
40
1
41
1
10
967.65725
20
49.1035364558293
30
0
41
1
10
967.644720301885
20
49.1182073123481
30
0
41
1
10
967.632831620295
20
49.1325470880625
30
0
41
1
10
967.616089807214
20
49.1534861827571
30
0
41
1
10
967.610673127516
20
49.1603955852245
30
0
41
1
10
967.600350782586
20
49.1738715592367
30
0
41
1
10
967.595467318582
20
49.1804078556123
30
0
41
1
10
967.586309842177
20
49.1930365817092
30
0
41
1
10
967.582035169825
20
49.1991294935458
30
0
41
1
10
967.57418926886
20
49.2108018981852
30
0
41
1
10
967.570602612509
20
49.2164099354891
30
0
41
1
10
967.564448553245
20
49.2267218792921
30
0
41
1
10
967.561857320965
20
49.2314574894793
30
0
41
1
10
967.557802629483
20
49.2399525505415
30
0
41
1
10
967.556337441899
20
49.2437366023538
30
0
41
1
10
967.554842247904
20
49.2498809876617
30
0
41
1
10
967.554789161882
20
49.2522748174104
30
0
41
1
10
967.555879548972
20
49.2547239971611
30
0
41
1
10
967.556443906822
20
49.2553477788179
30
0
41
1
10
967.557950612298
20
49.2561677683242
30
0
41
1
10
967.559837032911
20
49.2565727869548
30
0
41
1
10
967.562474123868
20
49.2561581820729
30
0
41
1
10
967.565488600722
20
49.2553319492441
30
0
41
1
10
967.56719588308
20
49.2547077456081
30
0
41
1
10
967.572808138481
20
49.2522449741235
30
0
41
1
10
967.577166551717
20
49.2498423561824
30
0
41
1
10
967.586979316917
20
49.2436893768474
30
0
41
1
10
967.592462904165
20
49.2399118777466
30
0
41
1
10
967.604001675492
20
49.2314436069536
30
0
41
1
10
967.610103027308
20
49.2267258026804
30
0
41
1
10
967.622880118554
20
49.2164563338422
30
0
41
1
10
967.629588591916
20
49.2108748441104
30
0
41
1
10
967.643220612098
20
49.1992199386344
30
0
41
1
10
967.65017465678
20
49.1931232278169
30
0
41
1
10
967.65725
20
49.1867908893209
30
0
0
SPLINE
5
21D
100
AcDbEntity
8
1
62
256
6
ByLayer
370
18
48
1
60
0
100
AcDbSpline
70
4
71
3
72
8
73
4
40
0
40
0
40
0
40
0
40
1
40
1
40
1
40
1
41
1
10
967.65725
20
49.1867908893209
30
0
41
1
10
967.880058917021
20
48.9873798588579
30
0
41
1
10
968.102649044268
20
48.7876437561661
30
0
41
1
10
968.325
20
48.5875522985804
30
0
0
SPLINE
5
21E
100
AcDbEntity
8
1
62
256
6
ByLayer
370
18
48
1
60
0
100
AcDbSpline
70
4
71
3
72
8
73
4
40
0
40
0
40
0
40
0
40
1
40
1
40
1
40
1
41
1
10
968.325
20
48.6630030512932
30
0
41
1
10
968.10341668238
20
48.9130085961598
30
0
41
1
10
967.880803440279
20
49.1617856723682
30
0
41
1
10
967.65725
20
49.4094413032528
30
0
0
SPLINE
5
21F
100
AcDbEntity
8
1
62
256
6
ByLayer
370
18
48
1
60
0
100
AcDbSpline
70
4
71
3
72
38
73
34
40
0
40
0
40
0
40
0
40
0.125000000000004
40
0.125000000000004
40
0.187500000000006
40
0.187500000000006
40
0.250000000000007
40
0.250000000000007
40
0.312500000000009
40
0.312500000000009
40
0.375000000000011
40
0.375000000000011
40
0.437500000000013
40
0.437500000000013
40
0.468750000000013
40
0.468750000000013
40
0.500000000000014
40
0.500000000000014
40
0.562500000000012
40
0.562500000000012
40
0.62500000000001
40
0.62500000000001
40
0.687500000000009
40
0.687500000000009
40
0.750000000000007
40
0.750000000000007
40
0.812500000000005
40
0.812500000000005
40
0.875000000000004
40
0.875000000000004
40
0.937500000000002
40
0.937500000000002
40
1
40
1
40
1
40
1
41
1
10
967.65725
20
49.4094413032528
30
0
41
1
10
967.644516424559
20
49.423547736397
30
0
41
1
10
967.632415757924
20
49.4372414059798
30
0
41
1
10
967.615362180514
20
49.457058368811
30
0
41
1
10
967.609843681088
20
49.4635646186606
30
0
41
1
10
967.599315823628
20
49.4761942960803
30
0
41
1
10
967.59434635102
20
49.4822691112941
30
0
41
1
10
967.585057088003
20
49.4938876558965
30
0
41
1
10
967.58073649483
20
49.4994320447114
30
0
41
1
10
967.572851885821
20
49.5099009413192
30
0
41
1
10
967.569289806118
20
49.5148271517432
30
0
41
1
10
967.563275020147
20
49.5236417442488
30
0
41
1
10
967.560789116349
20
49.5275724498662
30
0
41
1
10
967.55797040398
20
49.5326362507614
30
0
41
1
10
967.5571807071
20
49.5341915429251
30
0
41
1
10
967.555958387771
20
49.5369474349387
30
0
41
1
10
967.555522888384
20
49.5381514278952
30
0
41
1
10
967.554757589445
20
49.5412275521582
30
0
41
1
10
967.554968098834
20
49.542569420239
30
0
41
1
10
967.556970634973
20
49.543668795629
30
0
41
1
10
967.558727151058
20
49.543413212552
30
0
41
1
10
967.563678010359
20
49.5413711947652
30
0
41
1
10
967.566920781158
20
49.5395498832652
30
0
41
1
10
967.574553372275
20
49.5345708990504
30
0
41
1
10
967.578939391943
20
49.5314253083231
30
0
41
1
10
967.588732659253
20
49.5239611087641
30
0
41
1
10
967.594093655635
20
49.5196751489206
30
0
41
1
10
967.60536971005
20
49.5103549017158
30
0
41
1
10
967.611321002803
20
49.5052926490146
30
0
41
1
10
967.623774439075
20
49.4944635289501
30
0
41
1
10
967.630297453056
20
49.4886766426148
30
0
41
1
10
967.643565991622
20
49.4767145394115
30
0
41
1
10
967.650343891601
20
49.4705116283899
30
0
41
1
10
967.65725
20
49.4641115400962
30
0
0
SPLINE
5
220
100
AcDbEntity
8
1
62
256
6
ByLayer
370
18
48
1
60
0
100
AcDbSpline
70
4
71
3
72
8
73
4
40
0
40
0
40
0
40
0
40
1
40
1
40
1
40
1
41
1
10
967.65725
20
49.4641115400961
30
0
41
1
10
967.880154410722
20
49.2575396435533
30
0
41
1
10
968.102747357519
20
49.0505212677326
30
0
41
1
10
968.325
20
48.8430150703247
30
0
0
SPLINE
5
221
100
AcDbEntity
8
1
62
256
6
ByLayer
370
18
48
1
60
0
100
AcDbSpline
70
4
71
3
72
8
73
4
40
0
40
0
40
0
40
0
40
1
40
1
40
1
40
1
41
1
10
968.325
20
48.8877094006805
30
0
41
1
10
968.103192833685
20
49.1248200564487
30
0
41
1
10
967.880586600134
20
49.3609264340741
30
0
41
1
10
967.65725
20
49.5961148774352
30
0
0
SPLINE
5
222
100
AcDbEntity
8
1
62
256
6
ByLayer
370
18
48
1
60
0
100
AcDbSpline
70
4
71
3
72
36
73
32
40
0
40
0
40
0
40
0
40
0.125
40
0.125
40
0.1875
40
0.1875
40
0.25
40
0.25
40
0.3125
40
0.3125
40
0.375
40
0.375
40
0.4375
40
0.4375
40
0.5
40
0.5
40
0.5625
40
0.5625
40
0.625
40
0.625
40
0.6875
40
0.6875
40
0.75
40
0.75
40
0.8125
40
0.8125
40
0.875
40
0.875
40
0.9375
40
0.9375
40
1
40
1
40
1
40
1
41
1
10
967.65725
20
49.5961148774352
30
0
41
1
10
967.644297810296
20
49.609754403303
30
0
41
1
10
967.631971469554
20
49.6228889373591
30
0
41
1
10
967.614587766373
20
49.6416896233627
30
0
41
1
10
967.608962437992
20
49.6478234161368
30
0
41
1
10
967.598219744535
20
49.6596542662075
30
0
41
1
10
967.593162452166
20
49.6652848393067
30
0
41
1
10
967.583744054987
20
49.6759127204224
30
0
41
1
10
967.579381977264
20
49.6809109190312
30
0
41
1
10
967.571475424567
20
49.6901618127082
30
0
41
1
10
967.56796393266
20
49.6943779115563
30
0
41
1
10
967.562123476241
20
49.7016606312706
30
0
41
1
10
967.559763016764
20
49.704763522484
30
0
41
1
10
967.556345506592
20
49.7097144686053
30
0
41
1
10
967.555339389409
20
49.7114932513493
30
0
41
1
10
967.554805792477
20
49.7135574169791
30
0
41
1
10
967.555270373726
20
49.7138564274225
30
0
41
1
10
967.557760513605
20
49.7128814024533
30
0
41
1
10
967.559738775618
20
49.7116279658234
30
0
41
1
10
967.565035279268
20
49.7077230059341
30
0
41
1
10
967.568396074916
20
49.7050343713398
30
0
41
1
10
967.576150554506
20
49.6985299248076
30
0
41
1
10
967.580543608829
20
49.6947184183914
30
0
41
1
10
967.590239294518
20
49.6861116252243
30
0
41
1
10
967.595524602478
20
49.6813303234813
30
0
41
1
10
967.60658470537
20
49.6711876616557
30
0
41
1
10
967.612396656113
20
49.6657932777144
30
0
41
1
10
967.624514642588
20
49.6544403903444
30
0
41
1
10
967.630846485559
20
49.6484571722584
30
0
41
1
10
967.643842245097
20
49.6360897501951
30
0
41
1
10
967.650482231385
20
49.6297287148523
30
0
41
1
10
967.65725
20
49.6232090000611
30
0
0
SPLINE
5
223
100
AcDbEntity
8
1
62
256
6
ByLayer
370
18
48
1
60
0
100
AcDbSpline
70
4
71
3
72
8
73
4
40
0
40
0
40
0
40
0
40
1
40
1
40
1
40
1
41
1
10
967.65725
20
49.6232090000611
30
0
41
1
10
967.880270558999
20
49.4083626422745
30
0
41
1
10
968.10286698483
20
49.1929320464134
30
0
41
1
10
968.325
20
48.9768631082301
30
0
0
SPLINE
5
224
100
AcDbEntity
8
1
62
256
6
ByLayer
370
18
48
1
60
0
100
AcDbSpline
70
4
71
3
72
8
73
4
40
0
40
0
40
0
40
0
40
1
40
1
40
1
40
1
41
1
10
968.325
20
48.9916679077044
30
0
41
1
10
968.103013049401
20
49.2175491122072
30
0
41
1
10
967.880412287865
20
49.4426210338962
30
0
41
1
10
967.65725
20
49.6669526077341
30
0
0
SPLINE
5
225
100
AcDbEntity
8
1
62
256
6
ByLayer
370
18
48
1
60
0
100
AcDbSpline
70
4
71
3
72
34
73
30
40
0
40
0
40
0
40
0
40
0.178898807745982
40
0.178898807745982
40
0.268348211618975
40
0.268348211618975
40
0.357797615491969
40
0.357797615491969
40
0.447247019364962
40
0.447247019364962
40
0.536696423237955
40
0.536696423237955
40
0.581421125174451
40
0.581421125174451
40
0.626145827110946
40
0.626145827110946
40
0.715595230983938
40
0.715595230983938
40
0.760319932920433
40
0.760319932920433
40
0.805044634856929
40
0.805044634856929
40
0.89449403872992
40
0.89449403872992
40
0.939218740666423
40
0.939218740666423
40
0.983943442602926
40
0.983943442602926
40
1
40
1
40
1
40
1
41
1
10
967.65725
20
49.6669526077341
30
0
41
1
10
967.644065127169
20
49.6802065643113
30
0
41
1
10
967.631499690005
20
49.6928510008139
30
0
41
1
10
967.613767488913
20
49.7107095352655
30
0
41
1
10
967.608029628151
20
49.7164909170932
30
0
41
1
10
967.597063181624
20
49.7275448800833
30
0
41
1
10
967.591917003684
20
49.7327343768088
30
0
41
1
10
967.582374604036
20
49.742360251925
30
0
41
1
10
967.577977210357
20
49.7467978161441
30
0
41
1
10
967.570069925254
20
49.75477943246
30
0
41
1
10
967.566638932008
20
49.7582438358003
30
0
41
1
10
967.562418282626
20
49.7625062972585
30
0
41
1
10
967.561162433678
20
49.7637747334389
30
0
41
1
10
967.558973145788
20
49.7659861174849
30
0
41
1
10
967.558035604913
20
49.7669332091879
30
0
41
1
10
967.555782453196
20
49.7692094124097
30
0
41
1
10
967.555021299481
20
49.7699784801956
30
0
41
1
10
967.554990007903
20
49.770010095451
30
0
41
1
10
967.555165390468
20
49.7698328961014
30
0
41
1
10
967.555896933859
20
49.769093804904
30
0
41
1
10
967.556455981111
20
49.7685289974816
30
0
41
1
10
967.558654369785
20
49.7663081071399
30
0
41
1
10
967.560818210051
20
49.7641222501459
30
0
41
1
10
967.565025639674
20
49.7598730972572
30
0
41
1
10
967.566596637724
20
49.7582866678984
30
0
41
1
10
967.569995938923
20
49.7548544454173
30
0
41
1
10
967.571827156841
20
49.7530057074155
30
0
41
1
10
967.574480734081
20
49.7503271534919
30
0
41
1
10
967.575197483873
20
49.7496036938744
30
0
41
1
10
967.575929600266
20
49.7488647646128
30
0
0
SPLINE
5
226
100
AcDbEntity
8
1
62
256
6
ByLayer
370
18
48
1
60
0
100
AcDbSpline
70
4
71
3
72
32
73
28
40
0
40
0
40
0
40
0
40
0.0390639003442899
40
0.0390639003442899
40
0.0871107053270652
40
0.0871107053270652
40
0.13515751030984
40
0.13515751030984
40
0.231251120275391
40
0.231251120275391
40
0.279297925258166
40
0.279297925258166
40
0.327344730240942
40
0.327344730240942
40
0.423438340206492
40
0.423438340206492
40
0.471485145189276
40
0.471485145189276
40
0.519531950172059
40
0.519531950172059
40
0.615625560137648
40
0.615625560137648
40
0.807812780068826
40
0.807812780068826
40
0.903906390034413
40
0.903906390034413
40
1
40
1
40
1
40
1
41
1
10
967.567556367131
20
-49.7573176558534
30
0
41
1
10
967.566214867563
20
-49.7586721969875
30
0
41
1
10
967.564969015844
20
-49.7599302950793
30
0
41
1
10
967.562418282625
20
-49.7625062972658
30
0
41
1
10
967.561162433677
20
-49.7637747334462
30
0
41
1
10
967.558973145788
20
-49.7659861174921
30
0
41
1
10
967.558035604913
20
-49.7669332091951
30
0
41
1
10
967.555782453195
20
-49.7692094124169
30
0
41
1
10
967.55502129948
20
-49.7699784802028
30
0
41
1
10
967.554990007903
20
-49.7700100954582
30
0
41
1
10
967.555165390467
20
-49.7698328961087
30
0
41
1
10
967.555896933859
20
-49.7690938049112
30
0
41
1
10
967.556455981111
20
-49.7685289974888
30
0
41
1
10
967.558654369785
20
-49.7663081071471
30
0
41
1
10
967.560818210051
20
-49.7641222501532
30
0
41
1
10
967.565025639673
20
-49.7598730972645
30
0
41
1
10
967.566596637724
20
-49.7582866679057
30
0
41
1
10
967.569995938922
20
-49.7548544454245
30
0
41
1
10
967.57182715684
20
-49.7530057074227
30
0
41
1
10
967.577684905715
20
-49.7470928227359
30
0
41
1
10
967.582079041942
20
-49.7426584612655
30
0
41
1
10
967.596526643566
20
-49.7280842937868
30
0
41
1
10
967.60743414722
20
-49.7170882304581
30
0
41
1
10
967.625224277074
20
-49.6991710128187
30
0
41
1
10
967.631425107864
20
-49.6929285571774
30
0
41
1
10
967.644122351883
20
-49.6801523609391
30
0
41
1
10
967.650618768128
20
-49.6736185847592
30
0
41
1
10
967.65725
20
-49.6669526077413
30
0
0
SPLINE
5
227
100
AcDbEntity
8
1
62
256
6
ByLayer
370
18
48
1
60
0
100
AcDbSpline
70
4
71
3
72
8
73
4
40
0
40
0
40
0
40
0
40
1
40
1
40
1
40
1
41
1
10
967.65725
20
-49.6669526077413
30
0
41
1
10
967.880412287864
20
-49.4426210339034
30
0
41
1
10
968.1030130494
20
-49.2175491122144
30
0
41
1
10
968.325
20
-48.9916679077116
30
0
0
SPLINE
5
228
100
AcDbEntity
8
1
62
256
6
ByLayer
370
18
48
1
60
0
100
AcDbSpline
70
4
71
3
72
8
73
4
40
0
40
0
40
0
40
0
40
1
40
1
40
1
40
1
41
1
10
968.325
20
-48.9768631082374
30
0
41
1
10
968.102866984829
20
-49.1929320464207
30
0
41
1
10
967.880270558999
20
-49.4083626422818
30
0
41
1
10
967.65725
20
-49.6232090000684
30
0
0
SPLINE
5
229
100
AcDbEntity
8
1
62
256
6
ByLayer
370
18
48
1
60
0
100
AcDbSpline
70
4
71
3
72
37
73
33
40
0
40
0
40
0
40
0
40
0.125000000000015
40
0.125000000000015
40
0.187500000000011
40
0.187500000000011
40
0.250000000000007
40
0.250000000000007
40
0.312500000000004
40
0.312500000000004
40
0.375
40
0.375
40
0.437499999999996
40
0.437499999999996
40
0.499999999999992
40
0.499999999999992
40
0.531249999999987
40
0.531249999999987
40
0.562499999999982
40
0.562499999999982
40
0.624999999999971
40
0.624999999999971
40
0.656249999999974
40
0.656249999999974
40
0.687499999999977
40
0.749999999999981
40
0.749999999999981
40
0.812499999999986
40
0.812499999999986
40
0.87499999999999
40
0.87499999999999
40
1
40
1
40
1
40
1
41
1
10
967.65725
20
-49.6232090000684
30
0
41
1
10
967.643798365338
20
-49.6361676022997
30
0
41
1
10
967.630961804451
20
-49.6483954838258
30
0
41
1
10
967.61283825916
20
-49.6653818331513
30
0
41
1
10
967.606972907653
20
-49.6708291130924
30
0
41
1
10
967.59576372479
20
-49.6811134454348
30
0
41
1
10
967.590524519823
20
-49.6858546732907
30
0
41
1
10
967.580861475692
20
-49.6944397815461
30
0
41
1
10
967.576422090346
20
-49.6982970730231
30
0
41
1
10
967.568574540115
20
-49.7048894784167
30
0
41
1
10
967.565262562608
20
-49.7075442701864
30
0
41
1
10
967.559930736726
20
-49.7114967543107
30
0
41
1
10
967.557905936575
20
-49.7127973016921
30
0
41
1
10
967.55533038002
20
-49.713857975564
30
0
41
1
10
967.554822528477
20
-49.713602383067
30
0
41
1
10
967.555169656641
20
-49.7121009086704
30
0
41
1
10
967.555471032383
20
-49.7114132225679
30
0
41
1
10
967.556444479704
20
-49.7096640878563
30
0
41
1
10
967.557119382552
20
-49.7085996956599
30
0
41
1
10
967.559636609513
20
-49.7049349863869
30
0
41
1
10
967.561976614644
20
-49.7018489865705
30
0
41
1
10
967.566371409227
20
-49.6963612637046
30
0
41
1
10
967.567991959292
20
-49.6943794729386
30
0
41
1
10
967.571462322211
20
-49.6902062334717
30
0
41
1
10
967.577021750233
20
-49.6836187715573
30
0
41
1
10
967.583542831282
20
-49.6761418905114
30
0
41
1
10
967.592985140082
20
-49.6654828981733
30
0
41
1
10
967.598114454227
20
-49.6597712000101
30
0
41
1
10
967.608813091414
20
-49.6479869350955
30
0
41
1
10
967.614397084543
20
-49.641896995128
30
0
41
1
10
967.631764019017
20
-49.6231110608808
30
0
41
1
10
967.644195707301
20
-49.6098619246226
30
0
41
1
10
967.65725
20
-49.5961148774424
30
0
0
SPLINE
5
22A
100
AcDbEntity
8
1
62
256
6
ByLayer
370
18
48
1
60
0
100
AcDbSpline
70
4
71
3
72
8
73
4
40
0
40
0
40
0
40
0
40
1
40
1
40
1
40
1
41
1
10
967.65725
20
-49.5961148774424
30
0
41
1
10
967.880586600133
20
-49.3609264340813
30
0
41
1
10
968.103192833684
20
-49.1248200564559
30
0
41
1
10
968.325
20
-48.8877094006877
30
0
0
SPLINE
5
22B
100
AcDbEntity
8
1
62
256
6
ByLayer
370
18
48
1
60
0
100
AcDbSpline
70
4
71
3
72
8
73
4
40
0
40
0
40
0
40
0
40
1
40
1
40
1
40
1
41
1
10
968.325
20
-48.8430150703319
30
0
41
1
10
968.102747357519
20
-49.0505212677398
30
0
41
1
10
967.880154410721
20
-49.2575396435605
30
0
41
1
10
967.65725
20
-49.4641115401034
30
0
0
SPLINE
5
22C
100
AcDbEntity
8
1
62
256
6
ByLayer
370
18
48
1
60
0
100
AcDbSpline
70
4
71
3
72
37
73
33
40
0
40
0
40
0
40
0
40
0.125000000000009
40
0.125000000000009
40
0.187500000000013
40
0.187500000000013
40
0.250000000000017
40
0.250000000000017
40
0.312500000000022
40
0.312500000000022
40
0.375000000000026
40
0.375000000000026
40
0.437500000000031
40
0.437500000000031
40
0.468750000000032
40
0.468750000000032
40
0.500000000000033
40
0.500000000000033
40
0.562500000000026
40
0.562500000000026
40
0.593750000000023
40
0.593750000000023
40
0.62500000000002
40
0.687500000000012
40
0.687500000000012
40
0.750000000000004
40
0.750000000000004
40
0.874999999999986
40
0.874999999999986
40
0.937499999999993
40
0.937499999999993
40
1
40
1
40
1
40
1
41
1
10
967.65725
20
-49.4641115401034
30
0
41
1
10
967.643481113526
20
-49.4768715612394
30
0
41
1
10
967.630273784138
20
-49.4888059541495
30
0
41
1
10
967.611547898444
20
-49.5050982353442
30
0
41
1
10
967.605489814992
20
-49.5102538662907
30
0
41
1
10
967.594178148089
20
-49.5196070423293
30
0
41
1
10
967.588876835462
20
-49.523847058258
30
0
41
1
10
967.579099862891
20
-49.5313070360215
30
0
41
1
10
967.57463253141
20
-49.5345149468134
30
0
41
1
10
967.567013137968
20
-49.539493854001
30
0
41
1
10
967.56380782919
20
-49.5413073094971
30
0
41
1
10
967.5587558925
20
-49.5434113779812
30
0
41
1
10
967.557001638105
20
-49.543661642944
30
0
41
1
10
967.55549790417
20
-49.5428718308015
30
0
41
1
10
967.555184696729
20
-49.5424138178773
30
0
41
1
10
967.554936749632
20
-49.5411056379537
30
0
41
1
10
967.555004907661
20
-49.5402510599347
30
0
41
1
10
967.555758100464
20
-49.537171982287
30
0
41
1
10
967.556981441356
20
-49.5344243191963
30
0
41
1
10
967.559786795892
20
-49.5293676731275
30
0
41
1
10
967.560890347139
20
-49.5275167600932
30
0
41
1
10
967.563367637924
20
-49.5235807903749
30
0
41
1
10
967.567494977205
20
-49.5173123772832
30
0
41
1
10
967.5727388874
20
-49.510055166105
30
0
41
1
10
967.580597943671
20
-49.499611950118
30
0
41
1
10
967.584983266588
20
-49.4939812929113
30
0
41
1
10
967.598947779451
20
-49.4765112920351
30
0
41
1
10
967.609415312622
20
-49.4639742060593
30
0
41
1
10
967.626502436554
20
-49.4441103481682
30
0
41
1
10
967.632448996398
20
-49.4372921818114
30
0
41
1
10
967.644620476765
20
-49.4235058617206
30
0
41
1
10
967.650862274447
20
-49.4165177150557
30
0
41
1
10
967.65725
20
-49.4094413032601
30
0
0
SPLINE
5
22D
100
AcDbEntity
8
1
62
256
6
ByLayer
370
18
48
1
60
0
100
AcDbSpline
70
4
71
3
72
8
73
4
40
0
40
0
40
0
40
0
40
1
40
1
40
1
40
1
41
1
10
967.65725
20
-49.4094413032601
30
0
41
1
10
967.880803440278
20
-49.1617856723755
30
0
41
1
10
968.10341668238
20
-48.913008596167
30
0
41
1
10
968.325
20
-48.6630030513005
30
0
0
SPLINE
5
22E
100
AcDbEntity
8
1
62
256
6
ByLayer
370
18
48
1
60
0
100
AcDbSpline
70
4
71
3
72
8
73
4
40
0
40
0
40
0
40
0
40
1
40
1
40
1
40
1
41
1
10
968.325
20
-48.5875522985876
30
0
41
1
10
968.102649044267
20
-48.7876437561733
30
0
41
1
10
967.880058917021
20
-48.9873798588651
30
0
41
1
10
967.65725
20
-49.1867908893281
30
0
0
SPLINE
5
22F
100
AcDbEntity
8
1
62
256
6
ByLayer
370
18
48
1
60
0
100
AcDbSpline
70
4
71
3
72
37
73
33
40
0
40
0
40
0
40
0
40
0.125000000000004
40
0.125000000000004
40
0.187500000000016
40
0.187500000000016
40
0.250000000000029
40
0.250000000000029
40
0.312500000000041
40
0.312500000000041
40
0.343750000000047
40
0.343750000000047
40
0.375000000000054
40
0.375000000000054
40
0.437500000000066
40
0.437500000000066
40
0.468750000000069
40
0.468750000000069
40
0.500000000000073
40
0.531250000000076
40
0.531250000000076
40
0.56250000000008
40
0.56250000000008
40
0.625000000000068
40
0.625000000000068
40
0.687500000000057
40
0.687500000000057
40
0.750000000000046
40
0.750000000000046
40
0.875000000000023
40
0.875000000000023
40
1
40
1
40
1
40
1
41
1
10
967.65725
20
-49.1867908893282
30
0
41
1
10
967.643139830643
20
-49.1994193040659
30
0
41
1
10
967.629559018078
20
-49.2110804357864
30
0
41
1
10
967.610252673758
20
-49.2266093342779
30
0
41
1
10
967.604082847579
20
-49.2313817121542
30
0
41
1
10
967.592547032076
20
-49.2398524263088
30
0
41
1
10
967.587149089204
20
-49.2435773821118
30
0
41
1
10
967.577237245028
20
-49.2498034368463
30
0
41
1
10
967.572871992595
20
-49.2522091250079
30
0
41
1
10
967.567297365673
20
-49.2546669882548
30
0
41
1
10
967.565600365279
20
-49.2552947607617
30
0
41
1
10
967.562547833039
20
-49.2561441468973
30
0
41
1
10
967.561200657848
20
-49.2563611168359
30
0
41
1
10
967.557776933759
20
-49.2563809936477
30
0
41
1
10
967.556275948703
20
-49.2555686066971
30
0
41
1
10
967.555165628217
20
-49.2531423952524
30
0
41
1
10
967.554988464952
20
-49.2521252843263
30
0
41
1
10
967.555012717227
20
-49.2497422656571
30
0
41
1
10
967.555408965223
20
-49.2470052073888
30
0
41
1
10
967.55649812322
20
-49.2436083770992
30
0
41
1
10
967.557915779553
20
-49.2398986655326
30
0
41
1
10
967.558793740425
20
-49.2378782050022
30
0
41
1
10
967.561847178551
20
-49.2314744972485
30
0
41
1
10
967.564442229072
20
-49.2267342203963
30
0
41
1
10
967.570568351948
20
-49.2164656110223
30
0
41
1
10
967.574102703824
20
-49.210933413346
30
0
41
1
10
967.582003843321
20
-49.1991734069447
30
0
41
1
10
967.586292918726
20
-49.193060552765
30
0
41
1
10
967.600014594563
20
-49.1741356202924
30
0
41
1
10
967.610290564235
20
-49.1607447564063
30
0
41
1
10
967.632716631856
20
-49.1326855622307
30
0
41
1
10
967.644695650877
20
-49.1182361758915
30
0
41
1
10
967.65725
20
-49.1035364558365
30
0
0
SPLINE
5
230
100
AcDbEntity
8
1
62
256
6
ByLayer
370
18
48
1
60
0
100
AcDbSpline
70
4
71
3
72
8
73
4
40
0
40
0
40
0
40
0
40
1
40
1
40
1
40
1
41
1
10
967.65725
20
-49.1035364558365
30
0
41
1
10
967.881077169411
20
-48.841460206492
30
0
41
1
10
968.103699542003
20
-48.5780268881178
30
0
41
1
10
968.325
20
-48.313104580624
30
0
0
SPLINE
5
231
100
AcDbEntity
8
1
62
256
6
ByLayer
370
18
48
1
60
0
100
AcDbSpline
70
4
71
3
72
8
73
4
40
0
40
0
40
0
40
0
40
1
40
1
40
1
40
1
41
1
10
968.325
20
-48.2053559142551
30
0
41
1
10
968.102568584439
20
-48.3991409204107
30
0
41
1
10
967.879980753609
20
-48.5926860914884
30
0
41
1
10
967.65725
20
-48.7860121158277
30
0
0
SPLINE
5
232
100
AcDbEntity
8
1
62
256
6
ByLayer
370
18
48
1
60
0
100
AcDbSpline
70
4
71
3
72
38
73
34
40
0
40
0
40
0
40
0
40
0.0625000000000088
40
0.0625000000000088
40
0.125000000000018
40
0.125000000000018
40
0.187500000000027
40
0.187500000000027
40
0.218750000000031
40
0.218750000000031
40
0.250000000000035
40
0.250000000000035
40
0.312500000000033
40
0.312500000000033
40
0.37500000000003
40
0.37500000000003
40
0.437500000000028
40
0.437500000000028
40
0.500000000000026
40
0.500000000000026
40
0.562500000000023
40
0.562500000000023
40
0.625000000000021
40
0.625000000000021
40
0.687500000000019
40
0.687500000000019
40
0.750000000000016
40
0.750000000000016
40
0.875000000000008
40
0.875000000000008
40
0.937500000000004
40
0.937500000000004
40
1
40
1
40
1
40
1
41
1
10
967.65725
20
-48.7860121158277
30
0
41
1
10
967.649998248352
20
-48.7923064972403
30
0
41
1
10
967.642872285329
20
-48.7983085212501
30
0
41
1
10
967.628908270403
20
-48.8096409384388
30
0
41
1
10
967.622043357133
20
-48.8149920519684
30
0
41
1
10
967.608778566714
20
-48.8247864385446
30
0
41
1
10
967.602489822524
20
-48.8291492314661
30
0
41
1
10
967.593642672275
20
-48.8347790745277
30
0
41
1
10
967.590791730918
20
-48.8365025896836
30
0
41
1
10
967.585305184796
20
-48.8396129660483
30
0
41
1
10
967.58266567377
20
-48.840999978546
30
0
41
1
10
967.57529015163
20
-48.8445178012833
30
0
41
1
10
967.571024223356
20
-48.8460514637416
30
0
41
1
10
967.563868724608
20
-48.8473983386618
30
0
41
1
10
967.560970865643
20
-48.8471810517936
30
0
41
1
10
967.556901537584
20
-48.8449849699589
30
0
41
1
10
967.555674402096
20
-48.8430325278893
30
0
41
1
10
967.554746624355
20
-48.8375093833318
30
0
41
1
10
967.555059927397
20
-48.8340161740934
30
0
41
1
10
967.556996998269
20
-48.8258304100837
30
0
41
1
10
967.558643216243
20
-48.8210884981575
30
0
41
1
10
967.562971002402
20
-48.8108301289916
30
0
41
1
10
967.565650760817
20
-48.8052967580483
30
0
41
1
10
967.571877672975
20
-48.7935504001036
30
0
41
1
10
967.575436221925
20
-48.7873197968786
30
0
41
1
10
967.58328902452
20
-48.7743197546056
30
0
41
1
10
967.587530646947
20
-48.7676351887072
30
0
41
1
10
967.601059291908
20
-48.7471119729138
30
0
41
1
10
967.611140106773
20
-48.7328096008879
30
0
41
1
10
967.627597125186
20
-48.7105811761646
30
0
41
1
10
967.633314844532
20
-48.7030336996717
30
0
41
1
10
967.645042340134
20
-48.6878708036839
30
0
41
1
10
967.651068553406
20
-48.6802328253808
30
0
41
1
10
967.65725
20
-48.6725412982339
30
0
0
SPLINE
5
233
100
AcDbEntity
8
1
62
256
6
ByLayer
370
18
48
1
60
0
100
AcDbSpline
70
4
71
3
72
8
73
4
40
0
40
0
40
0
40
0
40
1
40
1
40
1
40
1
41
1
10
967.65725
20
-48.6725412982339
30
0
41
1
10
967.881429112875
20
-48.3935969271726
30
0
41
1
10
968.104063620197
20
-48.1130190838703
30
0
41
1
10
968.325
20
-47.8306454136941
30
0
0
SPLINE
5
234
100
AcDbEntity
8
1
62
256
6
ByLayer
370
18
48
1
60
0
100
AcDbSpline
70
4
71
3
72
8
73
4
40
0
40
0
40
0
40
0
40
1
40
1
40
1
40
1
41
1
10
968.325
20
-47.6882126704954
30
0
41
1
10
968.102504008099
20
-47.876827660423
30
0
41
1
10
967.879918034686
20
-48.0653009649049
30
0
41
1
10
967.65725
20
-48.2536450552004
30
0
0
SPLINE
5
235
100
AcDbEntity
8
1
62
256
6
ByLayer
370
18
48
1
60
0
100
AcDbSpline
70
4
71
3
72
41
73
37
40
0
40
0
40
0
40
0
40
0.0625000000000039
40
0.0625000000000039
40
0.0937500000000164
40
0.0937500000000164
40
0.125000000000029
40
0.125000000000029
40
0.187500000000034
40
0.187500000000034
40
0.218750000000042
40
0.218750000000042
40
0.25000000000005
40
0.25000000000005
40
0.312500000000071
40
0.312500000000071
40
0.375000000000091
40
0.375000000000091
40
0.437500000000111
40
0.437500000000111
40
0.500000000000131
40
0.500000000000131
40
0.531250000000131
40
0.531250000000131
40
0.562500000000132
40
0.625000000000114
40
0.625000000000114
40
0.687500000000096
40
0.687500000000096
40
0.750000000000078
40
0.750000000000078
40
0.875000000000039
40
0.875000000000039
40
0.937500000000019
40
0.937500000000019
40
1
40
1
40
1
40
1
41
1
10
967.65725
20
-48.2536450552005
30
0
41
1
10
967.649763251247
20
-48.2599777328343
30
0
41
1
10
967.642389836336
20
-48.2659624629301
30
0
41
1
10
967.631528943309
20
-48.2743256519403
30
0
41
1
10
967.627942008151
20
-48.2770105628982
30
0
41
1
10
967.62084243178
20
-48.2821508450809
30
0
41
1
10
967.617324342238
20
-48.2846089453352
30
0
41
1
10
967.607084890952
20
-48.2914700344443
30
0
41
1
10
967.600614151609
20
-48.2954106488701
30
0
41
1
10
967.591531521162
20
-48.300206736142
30
0
41
1
10
967.588590422335
20
-48.3016258778117
30
0
41
1
10
967.583038456275
20
-48.3040058732398
30
0
41
1
10
967.58043429458
20
-48.3049661408908
30
0
41
1
10
967.573142092744
20
-48.307150228739
30
0
41
1
10
967.568970586653
20
-48.3076823906245
30
0
41
1
10
967.562114352937
20
-48.3067495364782
30
0
41
1
10
967.55955868873
20
-48.3052927007949
30
0
41
1
10
967.556092885347
20
-48.3006198331389
30
0
41
1
10
967.555181203019
20
-48.2973545513732
30
0
41
1
10
967.554868989464
20
-48.289525776087
30
0
41
1
10
967.55544017896
20
-48.2849490216846
30
0
41
1
10
967.557223542409
20
-48.2772385274705
30
0
41
1
10
967.557977600154
20
-48.2745152488757
30
0
41
1
10
967.559750869445
20
-48.2688865643569
30
0
41
1
10
967.562810682998
20
-48.2601530424894
30
0
41
1
10
967.566937717188
20
-48.2506438271363
30
0
41
1
10
967.573244303111
20
-48.2373803703736
30
0
41
1
10
967.576818603168
20
-48.2304231195125
30
0
41
1
10
967.584605453415
20
-48.2161382387272
30
0
41
1
10
967.588793283287
20
-48.2088515112073
30
0
41
1
10
967.602116745497
20
-48.1866196317434
30
0
41
1
10
967.612003374444
20
-48.1713071208468
30
0
41
1
10
967.628114231621
20
-48.147716365498
30
0
41
1
10
967.633716013417
20
-48.1397269961702
30
0
41
1
10
967.645240588756
20
-48.1236830076237
30
0
41
1
10
967.65116647228
20
-48.1156226801466
30
0
41
1
10
967.65725
20
-48.1075258373148
30
0
0
SPLINE
5
236
100
AcDbEntity
8
1
62
256
6
ByLayer
370
18
48
1
60
0
100
AcDbSpline
70
4
71
3
72
8
73
4
40
0
40
0
40
0
40
0
40
1
40
1
40
1
40
1
41
1
10
967.65725
20
-48.1075258373148
30
0
41
1
10
967.88189214863
20
-47.8085394178323
30
0
41
1
10
968.104543176151
20
-47.5075899137646
30
0
41
1
10
968.325
20
-47.2044771021066
30
0
0
SPLINE
5
237
100
AcDbEntity
8
1
62
256
6
ByLayer
370
18
48
1
60
0
100
AcDbSpline
70
4
71
3
72
8
73
4
40
0
40
0
40
0
40
0
40
1
40
1
40
1
40
1
41
1
10
968.325
20
-47.023828916805
30
0
41
1
10
968.102455053618
20
-47.208526880528
30
0
41
1
10
967.87987051103
20
-47.3931612446358
30
0
41
1
10
967.65725
20
-47.5777377493936
30
0
0
SPLINE
5
238
100
AcDbEntity
8
1
62
256
6
ByLayer
370
18
48
1
60
0
100
AcDbSpline
70
4
71
3
72
34
73
30
40
0
40
0
40
0
40
0
40
0.0625000000000014
40
0.0625000000000014
40
0.125000000000003
40
0.125000000000003
40
0.187500000000004
40
0.187500000000004
40
0.250000000000006
40
0.250000000000006
40
0.281250000000001
40
0.281250000000001
40
0.312499999999997
40
0.312499999999997
40
0.37499999999998
40
0.37499999999998
40
0.437499999999962
40
0.437499999999962
40
0.499999999999944
40
0.499999999999944
40
0.624999999999939
40
0.624999999999939
40
0.687499999999939
40
0.687499999999939
40
0.749999999999938
40
0.749999999999938
40
0.874999999999969
40
0.874999999999969
40
1
40
1
40
1
40
1
41
1
10
967.65725
20
-47.5777377493937
30
0
41
1
10
967.649488908667
20
-47.5841725343321
30
0
41
1
10
967.641823694214
20
-47.5901897349465
30
0
41
1
10
967.626724760347
20
-47.6012120518392
30
0
41
1
10
967.619237979794
20
-47.6062435686542
30
0
41
1
10
967.605117818079
20
-47.6146719864988
30
0
41
1
10
967.598426324621
20
-47.6181195600489
30
0
41
1
10
967.585937823284
20
-47.6231466536653
30
0
41
1
10
967.580388451838
20
-47.6246190647469
30
0
41
1
10
967.573200292553
20
-47.625201461343
30
0
41
1
10
967.570990397782
20
-47.6251249382659
30
0
41
1
10
967.566957676257
20
-47.6244081310379
30
0
41
1
10
967.565156409234
20
-47.6237674902174
30
0
41
1
10
967.560468966659
20
-47.6210811376882
30
0
41
1
10
967.558236811846
20
-47.6182490228789
30
0
41
1
10
967.555434015619
20
-47.6108100664453
30
0
41
1
10
967.554885623818
20
-47.6063089662962
30
0
41
1
10
967.555152947204
20
-47.5960533083443
30
0
41
1
10
967.555987203674
20
-47.5902410899664
30
0
41
1
10
967.560152348846
20
-47.571646774124
30
0
41
1
10
967.565051940429
20
-47.5577549995684
30
0
41
1
10
967.574644630835
20
-47.5353327783109
30
0
41
1
10
967.578212811265
20
-47.5276254710824
30
0
41
1
10
967.585881383972
20
-47.5120284155337
30
0
41
1
10
967.589996860804
20
-47.5041041369843
30
0
41
1
10
967.60308732435
20
-47.4799990991144
30
0
41
1
10
967.612798206587
20
-47.4634896957875
30
0
41
1
10
967.63395238208
20
-47.4297025399376
30
0
41
1
10
967.645287045871
20
-47.4126051475366
30
0
41
1
10
967.65725
20
-47.3954357624004
30
0
0
SPLINE
5
239
100
AcDbEntity
8
1
62
256
6
ByLayer
370
18
48
1
60
0
100
AcDbSpline
70
4
71
3
72
8
73
4
40
0
40
0
40
0
40
0
40
1
40
1
40
1
40
1
41
1
10
967.65725
20
-47.3954357624004
30
0
41
1
10
967.882519487208
20
-47.0721261063132
30
0
41
1
10
968.105193688956
20
-46.7464520401344
30
0
41
1
10
968.325
20
-46.4181652094541
30
0
0
SPLINE
5
23A
100
AcDbEntity
8
1
62
256
6
ByLayer
370
18
48
1
60
0
100
AcDbSpline
70
4
71
3
72
8
73
4
40
0
40
0
40
0
40
0
40
1
40
1
40
1
40
1
41
1
10
968.325
20
-46.1940925803397
30
0
41
1
10
968.102424037712
20
-46.3763780833576
30
0
41
1
10
967.879840463616
20
-46.5586511945692
30
0
41
1
10
967.65725
20
-46.7409130865575
30
0
0
SPLINE
5
23B
100
AcDbEntity
8
1
62
256
6
ByLayer
370
18
48
1
60
0
100
AcDbSpline
70
4
71
3
72
41
73
37
40
0
40
0
40
0
40
0
40
0.0624999999999864
40
0.0624999999999864
40
0.0937499999999812
40
0.0937499999999812
40
0.124999999999976
40
0.156249999999971
40
0.156249999999971
40
0.187499999999966
40
0.187499999999966
40
0.24999999999995
40
0.24999999999995
40
0.281249999999948
40
0.281249999999948
40
0.312499999999946
40
0.312499999999946
40
0.343749999999945
40
0.343749999999945
40
0.374999999999943
40
0.374999999999943
40
0.437499999999939
40
0.437499999999939
40
0.499999999999935
40
0.499999999999935
40
0.56249999999993
40
0.56249999999993
40
0.624999999999926
40
0.624999999999926
40
0.74999999999995
40
0.74999999999995
40
0.812499999999962
40
0.812499999999962
40
0.874999999999974
40
0.874999999999974
40
1
40
1
40
1
40
1
41
1
10
967.65725
20
-46.7409130865578
30
0
41
1
10
967.649153374726
20
-46.7475427786708
30
0
41
1
10
967.641127045979
20
-46.7536643426495
30
0
41
1
10
967.62921992007
20
-46.7618858337073
30
0
41
1
10
967.625254105664
20
-46.7644755628098
30
0
41
1
10
967.617523037254
20
-46.769190807491
30
0
41
1
10
967.609970617246
20
-46.7734599239965
30
0
41
1
10
967.602805945573
20
-46.7767590400686
30
0
41
1
10
967.595857190031
20
-46.7795168425497
30
0
41
1
10
967.592488182662
20
-46.7806205885051
30
0
41
1
10
967.583055300929
20
-46.7829562759453
30
0
41
1
10
967.577545205207
20
-46.7832717685358
30
0
41
1
10
967.57049823264
20
-46.7817946242857
30
0
41
1
10
967.568376011671
20
-46.7809744605902
30
0
41
1
10
967.564654354123
20
-46.7787565513143
30
0
41
1
10
967.563037757473
20
-46.7773557333175
30
0
41
1
10
967.560259454652
20
-46.7740094908918
30
0
41
1
10
967.559093183514
20
-46.772049199871
30
0
41
1
10
967.557226873325
20
-46.7677016742313
30
0
41
1
10
967.55652113542
20
-46.7653155656001
30
0
41
1
10
967.555000491748
20
-46.7575992063809
30
0
41
1
10
967.554777789993
20
-46.7517086371897
30
0
41
1
10
967.555632396812
20
-46.7387330268792
30
0
41
1
10
967.556696677954
20
-46.7318045317941
30
0
41
1
10
967.559808928574
20
-46.7172648286046
30
0
41
1
10
967.561860013003
20
-46.7096514943781
30
0
41
1
10
967.566791414079
20
-46.6938480827423
30
0
41
1
10
967.569686859825
20
-46.6856265427385
30
0
41
1
10
967.579284463712
20
-46.6606698127027
30
0
41
1
10
967.586916033277
20
-46.643515377611
30
0
41
1
10
967.599796548764
20
-46.6171837267918
30
0
41
1
10
967.60433335595
20
-46.6083046902462
30
0
41
1
10
967.6138631021
20
-46.5903562030205
30
0
41
1
10
967.618869149207
20
-46.5812646199145
30
0
41
1
10
967.634415525726
20
-46.5539479878802
30
0
41
1
10
967.645494008421
20
-46.5356458158064
30
0
41
1
10
967.65725
20
-46.5172600263654
30
0
0
SPLINE
5
23C
100
AcDbEntity
8
1
62
256
6
ByLayer
370
18
48
1
60
0
100
AcDbSpline
70
4
71
3
72
8
73
4
40
0
40
0
40
0
40
0
40
1
40
1
40
1
40
1
41
1
10
967.65725
20
-46.5172600263655
30
0
41
1
10
967.883402868273
20
-46.16356812469
30
0
41
1
10
968.106110862471
20
-45.8070097520437
30
0
41
1
10
968.325
20
-45.4472737184575
30
0
0
SPLINE
5
23D
100
AcDbEntity
8
1
62
256
6
ByLayer
370
18
48
1
60
0
100
AcDbSpline
70
4
71
3
72
8
73
4
40
0
40
0
40
0
40
0
40
1
40
1
40
1
40
1
41
1
10
968.325
20
-45.1718989586862
30
0
41
1
10
968.102418501529
20
-45.3537654812515
30
0
41
1
10
967.879835104503
20
-45.5356289057294
30
0
41
1
10
967.65725
20
-45.7174895437181
30
0
0
SPLINE
5
23E
100
AcDbEntity
8
1
62
256
6
ByLayer
370
18
48
1
60
0
100
AcDbSpline
70
4
71
3
72
39
73
35
40
0
40
0
40
0
40
0
40
0.0624999999999931
40
0.0624999999999931
40
0.124999999999986
40
0.124999999999986
40
0.156249999999986
40
0.156249999999986
40
0.187499999999986
40
0.218749999999986
40
0.218749999999986
40
0.249999999999986
40
0.249999999999986
40
0.281249999999986
40
0.281249999999986
40
0.312499999999985
40
0.312499999999985
40
0.374999999999993
40
0.374999999999993
40
0.406249999999996
40
0.406249999999996
40
0.4375
40
0.4375
40
0.5
40
0.5
40
0.562500000000001
40
0.562500000000001
40
0.625000000000001
40
0.625000000000001
40
0.750000000000001
40
0.750000000000001
40
0.875
40
0.875
40
1
40
1
40
1
40
1
41
1
10
967.65725
20
-45.7174895437184
30
0
41
1
10
967.648730065731
20
-45.7244506594914
30
0
41
1
10
967.640240384045
20
-45.7307815407509
30
0
41
1
10
967.623341124263
20
-45.7417632452971
30
0
41
1
10
967.615142835808
20
-45.746266449984
30
0
41
1
10
967.603502565364
20
-45.7510809415414
30
0
41
1
10
967.599690571781
20
-45.7523720625335
30
0
41
1
10
967.592508199676
20
-45.7541712912103
30
0
41
1
10
967.585753036205
20
-45.7552066069201
30
0
41
1
10
967.57985489915
20
-45.7547064733957
30
0
41
1
10
967.57439678744
20
-45.7534162542933
30
0
41
1
10
967.571921227015
20
-45.7523773316275
30
0
41
1
10
967.567549364675
20
-45.7496208656579
30
0
41
1
10
967.565632865709
20
-45.7478989449068
30
0
41
1
10
967.562294682936
20
-45.7438225688686
30
0
41
1
10
967.560877068862
20
-45.7414628784535
30
0
41
1
10
967.557390747716
20
-45.7337219486557
30
0
41
1
10
967.556027508755
20
-45.7276340826196
30
0
41
1
10
967.555089670381
20
-45.7174294832738
30
0
41
1
10
967.554965589462
20
-45.7138375645463
30
0
41
1
10
967.555050764294
20
-45.7064542013085
30
0
41
1
10
967.555257937137
20
-45.7026486077689
30
0
41
1
10
967.55630692986
20
-45.6909353209473
30
0
41
1
10
967.557572712542
20
-45.6827335143573
30
0
41
1
10
967.561013886186
20
-45.6656965037127
30
0
41
1
10
967.56320511198
20
-45.6568151092985
30
0
41
1
10
967.568289962251
20
-45.6387829123748
30
0
41
1
10
967.571181138174
20
-45.6296259027388
30
0
41
1
10
967.580731495714
20
-45.6017996159811
30
0
41
1
10
967.588256700669
20
-45.5827793180626
30
0
41
1
10
967.605186633247
20
-45.5439764378933
30
0
41
1
10
967.614628433404
20
-45.5241441538716
30
0
41
1
10
967.634871171201
20
-45.4845227592426
30
0
41
1
10
967.645710540001
20
-45.464641469883
30
0
41
1
10
967.65725
20
-45.4446939818612
30
0
0
SPLINE
5
23F
100
AcDbEntity
8
1
62
256
6
ByLayer
370
18
48
1
60
0
100
AcDbSpline
70
4
71
3
72
8
73
4
40
0
40
0
40
0
40
0
40
1
40
1
40
1
40
1
41
1
10
967.65725
20
-45.4446939818612
30
0
41
1
10
967.884714477839
20
-45.0514914448511
30
0
41
1
10
968.107474410811
20
-44.6547707183946
30
0
41
1
10
968.325
20
-44.2541356041313
30
0
0
SPLINE
5
240
100
AcDbEntity
8
1
62
256
6
ByLayer
370
18
48
1
60
0
100
AcDbSpline
70
4
71
3
72
8
73
4
40
0
40
0
40
0
40
0
40
1
40
1
40
1
40
1
41
1
10
968.325
20
-43.9148985452482
30
0
41
1
10
968.102458794819
20
-44.0993076990692
30
0
41
1
10
967.879873851596
20
-44.2836464927001
30
0
41
1
10
967.65725
20
-44.4679225924837
30
0
0
SPLINE
5
241
100
AcDbEntity
8
1
62
256
6
ByLayer
370
18
48
1
60
0
100
AcDbSpline
70
4
71
3
72
42
73
38
40
0
40
0
40
0
40
0
40
0.0312500000000011
40
0.0312500000000011
40
0.0625000000000021
40
0.0625000000000021
40
0.125000000000001
40
0.125000000000001
40
0.156249999999995
40
0.156249999999995
40
0.187499999999988
40
0.187499999999988
40
0.218749999999982
40
0.218749999999982
40
0.249999999999975
40
0.249999999999975
40
0.281249999999969
40
0.281249999999969
40
0.312499999999962
40
0.312499999999962
40
0.374999999999967
40
0.374999999999967
40
0.437499999999973
40
0.437499999999973
40
0.499999999999978
40
0.499999999999978
40
0.562499999999984
40
0.562499999999984
40
0.624999999999989
40
0.624999999999989
40
0.749999999999973
40
0.749999999999973
40
0.812499999999979
40
0.812499999999979
40
0.874999999999986
40
0.874999999999986
40
1
40
1
40
1
40
1
41
1
10
967.65725
20
-44.4679225924843
30
0
41
1
10
967.652715784636
20
-44.4716757730927
30
0
41
1
10
967.648171982642
20
-44.4752242180376
30
0
41
1
10
967.639061851737
20
-44.4818389945725
30
0
41
1
10
967.634463110044
20
-44.4849246200645
30
0
41
1
10
967.620890781081
20
-44.4931405929684
30
0
41
1
10
967.612184274073
20
-44.497238242371
30
0
41
1
10
967.599785944165
20
-44.5007024556228
30
0
41
1
10
967.595798736559
20
-44.5013827539452
30
0
41
1
10
967.588437887232
20
-44.5017214914792
30
0
41
1
10
967.585016590109
20
-44.5013950629386
30
0
41
1
10
967.578687918255
20
-44.4997566279551
30
0
41
1
10
967.575771253971
20
-44.4984261404346
30
0
41
1
10
967.570642007269
20
-44.4949312757275
30
0
41
1
10
967.568396313809
20
-44.4927645906334
30
0
41
1
10
967.564466866063
20
-44.487690695827
30
0
41
1
10
967.562790610632
20
-44.4847816386598
30
0
41
1
10
967.560004051664
20
-44.478482694993
30
0
41
1
10
967.558878662108
20
-44.4750745187715
30
0
41
1
10
967.556177071261
20
-44.4641968163943
30
0
41
1
10
967.555271816216
20
-44.456005766311
30
0
41
1
10
967.554835140454
20
-44.4387708886039
30
0
41
1
10
967.555287739564
20
-44.4297082172316
30
0
41
1
10
967.557198628638
20
-44.4109116919671
30
0
41
1
10
967.558660813748
20
-44.401175299813
30
0
41
1
10
967.562414468341
20
-44.3811464862808
30
0
41
1
10
967.564690590357
20
-44.370945534241
30
0
41
1
10
967.569864147007
20
-44.3503629399159
30
0
41
1
10
967.572766885172
20
-44.3399587323317
30
0
41
1
10
967.582286200838
20
-44.3084550597264
30
0
41
1
10
967.589704686115
20
-44.2870676906657
30
0
41
1
10
967.602170480305
20
-44.2545050517226
30
0
41
1
10
967.606561134335
20
-44.2435472674716
30
0
41
1
10
967.615723333452
20
-44.2216005691169
30
0
41
1
10
967.620491747496
20
-44.2106169177797
30
0
41
1
10
967.635333434929
20
-44.1776369969186
30
0
41
1
10
967.645938290533
20
-44.1556119395246
30
0
41
1
10
967.65725
20
-44.1335510615029
30
0
0
SPLINE
5
242
100
AcDbEntity
8
1
62
256
6
ByLayer
370
18
48
1
60
0
100
AcDbSpline
70
4
71
3
72
8
73
4
40
0
40
0
40
0
40
0
40
1
40
1
40
1
40
1
41
1
10
967.65725
20
-44.1335510615029
30
0
41
1
10
967.886818670973
20
-43.6858303643907
30
0
41
1
10
968.10966477276
20
-43.2336986822709
30
0
41
1
10
968.325
20
-42.7766387719531
30
0
0
SPLINE
5
243
100
AcDbEntity
8
1
62
256
6
ByLayer
370
18
48
1
60
0
100
AcDbSpline
70
4
71
3
72
8
73
4
40
0
40
0
40
0
40
0
40
1
40
1
40
1
40
1
41
1
10
968.325
20
-42.3516106251984
30
0
41
1
10
968.102604575938
20
-42.5436304116722
30
0
41
1
10
967.880013178354
20
-42.7353468501461
30
0
41
1
10
967.65725
20
-42.9267973886539
30
0
0
SPLINE
5
244
100
AcDbEntity
8
1
62
256
6
ByLayer
370
18
48
1
60
0
100
AcDbSpline
70
4
71
3
72
40
73
36
40
0
40
0
40
0
40
0
40
0.0312499999999974
40
0.0312499999999974
40
0.0624999999999948
40
0.0624999999999948
40
0.0937499999999921
40
0.0937499999999921
40
0.124999999999989
40
0.124999999999989
40
0.156249999999987
40
0.156249999999987
40
0.187499999999984
40
0.187499999999984
40
0.218749999999982
40
0.218749999999982
40
0.249999999999979
40
0.249999999999979
40
0.281249999999976
40
0.281249999999976
40
0.312499999999974
40
0.312499999999974
40
0.374999999999968
40
0.374999999999968
40
0.437499999999963
40
0.437499999999963
40
0.499999999999957
40
0.499999999999957
40
0.624999999999968
40
0.624999999999968
40
0.749999999999978
40
0.749999999999978
40
0.874999999999989
40
0.874999999999989
40
1
40
1
40
1
40
1
41
1
10
967.65725
20
-42.926797388655
30
0
41
1
10
967.652324785389
20
-42.9310302919407
30
0
41
1
10
967.647356992028
20
-42.9349883582545
30
0
41
1
10
967.637315154055
20
-42.9422173806774
30
0
41
1
10
967.632248515211
20
-42.9454744594706
30
0
41
1
10
967.622330439527
20
-42.9509271559132
30
0
41
1
10
967.617440623879
20
-42.9531531239512
30
0
41
1
10
967.607826918484
20
-42.9564023130762
30
0
41
1
10
967.603111409146
20
-42.9574002593078
30
0
41
1
10
967.594370949066
20
-42.9579463401297
30
0
41
1
10
967.590248358896
20
-42.9575103898123
30
0
41
1
10
967.582727371686
20
-42.9552514757108
30
0
41
1
10
967.579382383949
20
-42.9534618281113
30
0
41
1
10
967.573407708144
20
-42.9487429753452
30
0
41
1
10
967.570784206276
20
-42.9457993979796
30
0
41
1
10
967.566309974722
20
-42.9391667912484
30
0
41
1
10
967.564427793416
20
-42.9354558159267
30
0
41
1
10
967.561236804879
20
-42.9273943022164
30
0
41
1
10
967.559924523398
20
-42.9230168864881
30
0
41
1
10
967.557820257697
20
-42.9138930625674
30
0
41
1
10
967.557021441388
20
-42.9091396280871
30
0
41
1
10
967.555235379233
20
-42.894416149669
30
0
41
1
10
967.554850803663
20
-42.8839886811119
30
0
41
1
10
967.555246538783
20
-42.8622431516901
30
0
41
1
10
967.556035160587
20
-42.8509757282853
30
0
41
1
10
967.558471756972
20
-42.8281699982713
30
0
41
1
10
967.5601236938
20
-42.816575097426
30
0
41
1
10
967.566117480304
20
-42.7813270560727
30
0
41
1
10
967.571482810187
20
-42.7572167678194
30
0
41
1
10
967.584278013173
20
-42.7080635048214
30
0
41
1
10
967.591632558633
20
-42.6833433019141
30
0
41
1
10
967.607858354255
20
-42.6337950042154
30
0
41
1
10
967.616740588791
20
-42.6089426679618
30
0
41
1
10
967.635921765221
20
-42.5590955706655
30
0
41
1
10
967.646221364226
20
-42.5341007313023
30
0
41
1
10
967.65725
20
-42.509035095597
30
0
0
SPLINE
5
245
100
AcDbEntity
8
1
62
256
6
ByLayer
370
18
48
1
60
0
100
AcDbSpline
70
4
71
3
72
8
73
4
40
0
40
0
40
0
40
0
40
1
40
1
40
1
40
1
41
1
10
967.65725
20
-42.509035095597
30
0
41
1
10
967.890641792267
20
-41.9785874716357
30
0
41
1
10
968.11364948325
20
-41.4423948710332
30
0
41
1
10
968.325
20
-40.8997529695396
30
0
0
SPLINE
5
246
100
AcDbEntity
8
1
62
256
6
ByLayer
370
18
48
1
60
0
100
AcDbSpline
70
4
71
3
72
8
73
4
40
0
40
0
40
0
40
0
40
1
40
1
40
1
40
1
41
1
10
968.325
20
-40.3440885798835
30
0
41
1
10
968.103076961139
20
-40.5543076667848
30
0
41
1
10
967.880459452193
20
-40.7635419459587
30
0
41
1
10
967.65725
20
-40.9719368077162
30
0
0
SPLINE
5
247
100
AcDbEntity
8
1
62
256
6
ByLayer
370
18
48
1
60
0
100
AcDbSpline
70
4
71
3
72
40
73
36
40
0
40
0
40
0
40
0
40
0.0312499999999928
40
0.0312499999999928
40
0.0624999999999856
40
0.0624999999999856
40
0.0781249999999789
40
0.0781249999999789
40
0.0937499999999721
40
0.0937499999999721
40
0.124999999999969
40
0.124999999999969
40
0.156249999999965
40
0.156249999999965
40
0.187499999999961
40
0.187499999999961
40
0.218749999999958
40
0.218749999999958
40
0.249999999999954
40
0.249999999999954
40
0.312499999999958
40
0.312499999999958
40
0.374999999999962
40
0.374999999999962
40
0.437499999999966
40
0.437499999999966
40
0.49999999999997
40
0.49999999999997
40
0.624999999999977
40
0.624999999999977
40
0.749999999999985
40
0.749999999999985
40
0.874999999999992
40
0.874999999999992
40
1
40
1
40
1
40
1
41
1
10
967.657250000001
20
-40.9719368077181
30
0
41
1
10
967.651733704436
20
-40.9770869823204
30
0
41
1
10
967.646066107436
20
-40.9818685053847
30
0
41
1
10
967.634562152208
20
-40.9902139632158
30
0
41
1
10
967.628808977809
20
-40.9937238968545
30
0
41
1
10
967.62017698217
20
-40.9976946921559
30
0
41
1
10
967.61727725566
20
-40.9988069130613
30
0
41
1
10
967.61158738497
20
-41.00048762736
30
0
41
1
10
967.608815785729
20
-41.0010543699423
30
0
41
1
10
967.600727543927
20
-41.0019083422364
30
0
41
1
10
967.595584332522
20
-41.0013031641802
30
0
41
1
10
967.586503060931
20
-40.9979422571629
30
0
41
1
10
967.582444136122
20
-40.9951690292311
30
0
41
1
10
967.575492380429
20
-40.9881606207061
30
0
41
1
10
967.572565250109
20
-40.9839457301145
30
0
41
1
10
967.567523949783
20
-40.9744591495637
30
0
41
1
10
967.565433449283
20
-40.9692107590862
30
0
41
1
10
967.561966014371
20
-40.9582082977673
30
0
41
1
10
967.560571634746
20
-40.9524151269334
30
0
41
1
10
967.557163017579
20
-40.9343661924336
30
0
41
1
10
967.555916890592
20
-40.9213911024743
30
0
41
1
10
967.554799530385
20
-40.8949192077429
30
0
41
1
10
967.55491946233
20
-40.8813311437403
30
0
41
1
10
967.556115737511
20
-40.8536527796053
30
0
41
1
10
967.557197457677
20
-40.839559770736
30
0
41
1
10
967.5601156044
20
-40.8109731945714
30
0
41
1
10
967.561958590354
20
-40.7964574948829
30
0
41
1
10
967.568358916547
20
-40.7528700491871
30
0
41
1
10
967.573786247854
20
-40.7236009169873
30
0
41
1
10
967.586349200078
20
-40.6647425275229
30
0
41
1
10
967.593494825445
20
-40.6351516427587
30
0
41
1
10
967.609260086472
20
-40.5756900477701
30
0
41
1
10
967.617882392817
20
-40.5458188942527
30
0
41
1
10
967.636537462531
20
-40.4858097117198
30
0
41
1
10
967.646566260774
20
-40.4556942067363
30
0
41
1
10
967.65725
20
-40.4256727570763
30
0
0
SPLINE
5
248
100
AcDbEntity
8
1
62
256
6
ByLayer
370
18
48
1
60
0
100
AcDbSpline
70
4
71
3
72
8
73
4
40
0
40
0
40
0
40
0
40
1
40
1
40
1
40
1
41
1
10
967.65725
20
-40.4256727570763
30
0
41
1
10
967.899443492047
20
-39.7451058155186
30
0
41
1
10
968.122833855469
20
-39.0564398856499
30
0
41
1
10
968.325
20
-38.3586321419831
30
0
0
SPLINE
5
249
100
AcDbEntity
8
1
62
256
6
ByLayer
370
18
48
1
60
0
100
AcDbSpline
70
4
71
3
72
8
73
4
40
0
40
0
40
0
40
0
40
1
40
1
40
1
40
1
41
1
10
968.325
20
-37.5457307174607
30
0
41
1
10
968.105220267217
20
-37.8059028330135
30
0
41
1
10
967.882439703319
20
-38.0626087656954
30
0
41
1
10
967.65725
20
-38.3165319633679
30
0
0
SPLINE
5
24A
100
AcDbEntity
8
1
62
256
6
ByLayer
370
18
48
1
60
0
100
AcDbSpline
70
4
71
3
72
40
73
36
40
0
40
0
40
0
40
0
40
0.0312500000000181
40
0.0312500000000181
40
0.0468750000000236
40
0.0468750000000236
40
0.0625000000000292
40
0.0625000000000292
40
0.0781250000000348
40
0.0781250000000348
40
0.0937500000000403
40
0.0937500000000403
40
0.109375000000046
40
0.109375000000046
40
0.125000000000051
40
0.125000000000051
40
0.140625000000057
40
0.140625000000057
40
0.156250000000063
40
0.156250000000063
40
0.187500000000065
40
0.187500000000065
40
0.250000000000058
40
0.250000000000058
40
0.312500000000052
40
0.312500000000052
40
0.375000000000046
40
0.375000000000046
40
0.500000000000036
40
0.500000000000036
40
0.625000000000028
40
0.625000000000028
40
0.750000000000019
40
0.750000000000019
40
1
40
1
40
1
40
1
41
1
10
967.65725
20
-38.3165319633681
30
0
41
1
10
967.650694943635
20
-38.3239234242055
30
0
41
1
10
967.643856307001
20
-38.330651078577
30
0
41
1
10
967.632828000437
20
-38.3389334077966
30
0
41
1
10
967.629054327816
20
-38.3413469575657
30
0
41
1
10
967.621506084283
20
-38.3451244679189
30
0
41
1
10
967.61764714495
20
-38.3465169283615
30
0
41
1
10
967.610209805759
20
-38.3479542378585
30
0
41
1
10
967.606618079863
20
-38.3480230927711
30
0
41
1
10
967.599698960658
20
-38.3468049851743
30
0
41
1
10
967.596491641375
20
-38.3455348665653
30
0
41
1
10
967.590590250106
20
-38.3419258015749
30
0
41
1
10
967.587881583886
20
-38.3395696170801
30
0
41
1
10
967.58304075593
20
-38.3341927602024
30
0
41
1
10
967.580873840228
20
-38.3311525836984
30
0
41
1
10
967.576925875258
20
-38.3245354510148
30
0
41
1
10
967.575146203238
20
-38.3209508487744
30
0
41
1
10
967.571958100517
20
-38.3135187668628
30
0
41
1
10
967.57053716708
20
-38.3096504066568
30
0
41
1
10
967.566674588752
20
-38.2976920770352
30
0
41
1
10
967.56462720792
20
-38.2892540480287
30
0
41
1
10
967.559543929198
20
-38.2629984895575
30
0
41
1
10
967.557615467712
20
-38.2447035450795
30
0
41
1
10
967.555271978326
20
-38.2074669079947
30
0
41
1
10
967.554890029934
20
-38.1884644029936
30
0
41
1
10
967.555160723137
20
-38.1499456266511
30
0
41
1
10
967.555822177155
20
-38.1304252360926
30
0
41
1
10
967.558978582122
20
-38.0712707476794
30
0
41
1
10
967.562586786564
20
-38.0316316535346
30
0
41
1
10
967.571676507638
20
-37.9521834580213
30
0
41
1
10
967.577183669213
20
-37.9123493896615
30
0
41
1
10
967.589657597443
20
-37.8325020244846
30
0
41
1
10
967.596630654187
20
-37.7924881911987
30
0
41
1
10
967.619443660266
20
-37.672204888645
30
0
41
1
10
967.637125569122
20
-37.5916978016591
30
0
41
1
10
967.657249999999
20
-37.5108818292128
30
0
0
SPLINE
5
24B
100
AcDbEntity
8
1
62
256
6
ByLayer
370
18
48
1
60
0
100
AcDbSpline
70
4
71
3
72
8
73
4
40
0
40
0
40
0
40
0
40
1
40
1
40
1
40
1
41
1
10
967.65725
20
-37.5108818292128
30
0
41
1
10
967.940369761457
20
-36.3739255107672
30
0
41
1
10
968.165581223844
20
-35.2220587692654
30
0
41
1
10
968.325
20
-34.0532515062584
30
0
0
SPLINE
5
24C
100
AcDbEntity
8
1
62
256
6
ByLayer
370
18
48
1
60
0
100
AcDbSpline
70
4
71
3
72
10
73
6
40
0
40
0
40
0
40
0
40
0.5
40
0.5
40
1
40
1
40
1
40
1
41
1
10
968.324999999997
20
-31.5414070106304
30
0
41
1
10
968.254077218733
20
-31.91256065782
30
0
41
1
10
968.160083064704
20
-32.2740510856356
30
0
41
1
10
967.934818787515
20
-32.9814192652989
30
0
41
1
10
967.803545178729
20
-33.3272955572267
30
0
41
1
10
967.657249999999
20
-33.66688021115
30
0
0
SPLINE
5
24D
100
AcDbEntity
8
1
62
256
6
ByLayer
370
18
48
1
60
0
100
AcDbSpline
70
4
71
3
72
103
73
99
40
0
40
0
40
0
40
0
40
0.0039062500000007
40
0.0039062500000007
40
0.005859375000001
40
0.005859375000001
40
0.0078125000000012
40
0.0078125000000012
40
0.0087890625000001
40
0.0087890625000001
40
0.009765624999999
40
0.009765624999999
40
0.0107421874999979
40
0.0107421874999979
40
0.0117187499999969
40
0.0117187499999969
40
0.0136718749999963
40
0.0136718749999963
40
0.0156249999999957
40
0.0156249999999957
40
0.0175781249999951
40
0.0175781249999951
40
0.0195312499999945
40
0.0195312499999945
40
0.0234374999999958
40
0.0234374999999958
40
0.0273437499999971
40
0.0273437499999971
40
0.0312499999999984
40
0.0312499999999984
40
0.039062499999998
40
0.039062499999998
40
0.0468749999999976
40
0.0468749999999976
40
0.0624999999999968
40
0.0624999999999968
40
0.078124999999996
40
0.078124999999996
40
0.0937499999999953
40
0.0937499999999953
40
0.124999999999994
40
0.124999999999994
40
0.156249999999993
40
0.156249999999993
40
0.187499999999991
40
0.187499999999991
40
0.249999999999991
40
0.249999999999991
40
0.312499999999992
40
0.312499999999992
40
0.374999999999992
40
0.437499999999993
40
0.437499999999993
40
0.499999999999995
40
0.562499999999996
40
0.562499999999996
40
0.624999999999997
40
0.687499999999999
40
0.687499999999999
40
0.75
40
0.75
40
0.812500000000002
40
0.812500000000002
40
0.843750000000003
40
0.843750000000003
40
0.875000000000005
40
0.875000000000005
40
0.906250000000006
40
0.906250000000006
40
0.937500000000008
40
0.937500000000008
40
0.953125000000008
40
0.953125000000008
40
0.960937500000009
40
0.960937500000009
40
0.968750000000009
40
0.968750000000009
40
0.97656250000001
40
0.97656250000001
40
0.98046875000001
40
0.98046875000001
40
0.98437500000001
40
0.98437500000001
40
0.986328125000009
40
0.986328125000009
40
0.988281250000008
40
0.988281250000008
40
0.989257812500008
40
0.989257812500008
40
0.990234375000008
40
0.990234375000008
40
0.992187500000006
40
0.992187500000006
40
0.994140625000004
40
0.994140625000004
40
0.996093750000002
40
0.996093750000002
40
1
40
1
40
1
40
1
41
1
10
967.65725
20
-33.6668802111503
30
0
41
1
10
967.653301423682
20
-33.6760457621545
30
0
41
1
10
967.649062278607
20
-33.6850001600651
30
0
41
1
10
967.641890292594
20
-33.6976175372251
30
0
41
1
10
967.639344045079
20
-33.7017123128887
30
0
41
1
10
967.633862944301
20
-33.7093295229282
30
0
41
1
10
967.630905631637
20
-33.7128895577613
30
0
41
1
10
967.626096575479
20
-33.7172797006116
30
0
41
1
10
967.624438975246
20
-33.7185762181891
30
0
41
1
10
967.62097392382
20
-33.7207107340928
30
0
41
1
10
967.619165204424
20
-33.7215381072311
30
0
41
1
10
967.615556785197
20
-33.7225056324757
30
0
41
1
10
967.613708678959
20
-33.7226511789417
30
0
41
1
10
967.610180584925
20
-33.7222142635807
30
0
41
1
10
967.608468290059
20
-33.7216375604482
30
0
41
1
10
967.603630683927
20
-33.7190352513631
30
0
41
1
10
967.600854969405
20
-33.7162115472443
30
0
41
1
10
967.596024565021
20
-33.7096607335808
30
0
41
1
10
967.593965623425
20
-33.7059457721852
30
0
41
1
10
967.59024648378
20
-33.6980224630577
30
0
41
1
10
967.588612584208
20
-33.693847828968
30
0
41
1
10
967.585658623905
20
-33.6853358836875
30
0
41
1
10
967.584332664397
20
-33.6809766414965
30
0
41
1
10
967.580665021386
20
-33.6676859432284
30
0
41
1
10
967.57862753906
20
-33.6585456066702
30
0
41
1
10
967.575020258096
20
-33.6399407234341
30
0
41
1
10
967.573458990613
20
-33.6304741785459
30
0
41
1
10
967.570681498255
20
-33.6114946854599
30
0
41
1
10
967.569461933955
20
-33.6019525751738
30
0
41
1
10
967.56616472421
20
-33.5732127785073
30
0
41
1
10
967.564441871259
20
-33.5539036248335
30
0
41
1
10
967.561565262988
20
-33.5151006478516
30
0
41
1
10
967.560418250916
20
-33.4956048099647
30
0
41
1
10
967.557575244483
20
-33.4369165825569
30
0
41
1
10
967.556465663616
20
-33.3975269474338
30
0
41
1
10
967.555135765611
20
-33.3184228726314
30
0
41
1
10
967.5549295177
20
-33.2787416769124
30
0
41
1
10
967.555109823879
20
-33.1993740802068
30
0
41
1
10
967.555499793026
20
-33.1596542706112
30
0
41
1
10
967.557293455112
20
-33.0404080220052
30
0
41
1
10
967.559308234817
20
-32.9607957413471
30
0
41
1
10
967.564196181931
20
-32.8014015493766
30
0
41
1
10
967.567081097079
20
-32.7216187337694
30
0
41
1
10
967.573316966476
20
-32.5619135113803
30
0
41
1
10
967.576671708504
20
-32.4819908124619
30
0
41
1
10
967.587049936214
20
-32.2420426176806
30
0
41
1
10
967.594374358783
20
-32.0817639214624
30
0
41
1
10
967.608485845607
20
-31.7612876698703
30
0
41
1
10
967.615286090068
20
-31.6010765758533
30
0
41
1
10
967.627532712957
20
-31.280701447905
30
0
41
1
10
967.638431938167
20
-30.9603734371132
30
0
41
1
10
967.645462457191
20
-30.6401300544623
30
0
41
1
10
967.650191912683
20
-30.3199260020726
30
0
41
1
10
967.652618507706
20
-29.9997612677332
30
0
41
1
10
967.650187524562
20
-29.6796730776792
30
0
41
1
10
967.645457290143
20
-29.3596241506641
30
0
41
1
10
967.638429381582
20
-29.0396144993965
30
0
41
1
10
967.62754588067
20
-28.7196892277149
30
0
41
1
10
967.615321771864
20
-28.3998108497624
30
0
41
1
10
967.608536385057
20
-28.239895080068
30
0
41
1
10
967.594458716991
20
-27.920117229576
30
0
41
1
10
967.587153622499
20
-27.7602550390602
30
0
41
1
10
967.576777768777
20
-27.5205100098618
30
0
41
1
10
967.57342021487
20
-27.4406030782132
30
0
41
1
10
967.56717100212
20
-27.2808075851345
30
0
41
1
10
967.564275469638
20
-27.2009189911752
30
0
41
1
10
967.559360408876
20
-27.0411636268488
30
0
41
1
10
967.557331970261
20
-26.9613324755197
30
0
41
1
10
967.554915618714
20
-26.8023110794374
30
0
41
1
10
967.554474000374
20
-26.7230550743707
30
0
41
1
10
967.556408527631
20
-26.6048583146688
30
0
41
1
10
967.557490962644
20
-26.5655749435095
30
0
41
1
10
967.560278939439
20
-26.5069304507334
30
0
41
1
10
967.561405199968
20
-26.487429655723
30
0
41
1
10
967.56423493603
20
-26.4485615252821
30
0
41
1
10
967.565931575081
20
-26.4291927456777
30
0
41
1
10
967.570270739899
20
-26.3906665162986
30
0
41
1
10
967.572876911364
20
-26.3715013867161
30
0
41
1
10
967.578280301633
20
-26.3430779509044
30
0
41
1
10
967.580322520626
20
-26.3337324677216
30
0
41
1
10
967.585238144678
20
-26.3155870688908
30
0
41
1
10
967.588077516882
20
-26.3067872690551
30
0
41
1
10
967.59358496363
20
-26.2947838315007
30
0
41
1
10
967.595658717636
20
-26.290941838762
30
0
41
1
10
967.600477568668
20
-26.2842090573157
30
0
41
1
10
967.603260702252
20
-26.2812852335186
30
0
41
1
10
967.608034973335
20
-26.2785458671484
30
0
41
1
10
967.609764356207
20
-26.2778991194681
30
0
41
1
10
967.613312362298
20
-26.27734875217
30
0
41
1
10
967.615150048833
20
-26.2774371074873
30
0
41
1
10
967.620665102831
20
-26.2787747467888
30
0
41
1
10
967.624234052255
20
-26.2810633983689
30
0
41
1
10
967.630712654504
20
-26.2868938218214
30
0
41
1
10
967.633714095518
20
-26.2904827522348
30
0
41
1
10
967.639223963314
20
-26.29810258448
30
0
41
1
10
967.641766744743
20
-26.3021765593086
30
0
41
1
10
967.64900699551
20
-26.3148803867242
30
0
41
1
10
967.653288339033
20
-26.3239238653838
30
0
41
1
10
967.65725
20
-26.3331197888587
30
0
0
SPLINE
5
24E
100
AcDbEntity
8
1
62
256
6
ByLayer
370
18
48
1
60
0
100
AcDbSpline
70
4
71
3
72
10
73
6
40
0
40
0
40
0
40
0
40
0.5
40
0.5
40
1
40
1
40
1
40
1
41
1
10
967.65725
20
-26.3331197888588
30
0
41
1
10
967.80354517873
20
-26.6727044427846
30
0
41
1
10
967.934818787517
20
-27.0185807347151
30
0
41
1
10
968.160083064708
20
-27.725948914384
30
0
41
1
10
968.254077218737
20
-28.0874393422025
30
0
41
1
10
968.325
20
-28.4585929893952
30
0
0
SPLINE
5
24F
100
AcDbEntity
8
1
62
256
6
ByLayer
370
18
48
1
60
0
100
AcDbSpline
70
4
71
3
72
8
73
4
40
0
40
0
40
0
40
0
40
1
40
1
40
1
40
1
41
1
10
968.325
20
-25.9467484937489
30
0
41
1
10
968.165581223844
20
-24.7779412307419
30
0
41
1
10
967.940369761457
20
-23.6260744892401
30
0
41
1
10
967.65725
20
-22.4891181707944
30
0
0
SPLINE
5
250
100
AcDbEntity
8
1
62
256
6
ByLayer
370
18
48
1
60
0
100
AcDbSpline
70
4
71
3
72
38
73
34
40
0
40
0
40
0
40
0
40
0.249999999999992
40
0.249999999999992
40
0.374999999999989
40
0.374999999999989
40
0.499999999999986
40
0.499999999999986
40
0.624999999999983
40
0.624999999999983
40
0.687499999999982
40
0.687499999999982
40
0.74999999999998
40
0.74999999999998
40
0.812499999999979
40
0.812499999999979
40
0.843749999999982
40
0.843749999999982
40
0.874999999999986
40
0.874999999999986
40
0.890624999999988
40
0.890624999999988
40
0.90624999999999
40
0.90624999999999
40
0.921874999999992
40
0.921874999999992
40
0.937499999999995
40
0.937499999999995
40
0.953124999999997
40
0.953124999999997
40
0.968749999999999
40
0.968749999999999
40
1
40
1
40
1
40
1
41
1
10
967.65725
20
-22.4891181707944
30
0
41
1
10
967.637160543969
20
-22.4084426508294
30
0
41
1
10
967.619450956248
20
-22.3278589682298
30
0
41
1
10
967.596561035942
20
-22.2071319922709
30
0
41
1
10
967.589551068574
20
-22.1668818956882
30
0
41
1
10
967.577025664879
20
-22.0865719725031
30
0
41
1
10
967.571531729367
20
-22.0466854379582
30
0
41
1
10
967.562511855497
20
-21.9675757886334
30
0
41
1
10
967.558965882088
20
-21.9283468091138
30
0
41
1
10
967.555852527796
20
-21.870214949915
30
0
41
1
10
967.555186994494
20
-21.8509576275213
30
0
41
1
10
967.554879827929
20
-21.8127647711365
30
0
41
1
10
967.555228028269
20
-21.7938262640279
30
0
41
1
10
967.557508733815
20
-21.7564351112184
30
0
41
1
10
967.559446424528
20
-21.7378314576241
30
0
41
1
10
967.564397741791
20
-21.7117813007986
30
0
41
1
10
967.566393256596
20
-21.7033789059254
30
0
41
1
10
967.571427719529
20
-21.6874176046577
30
0
41
1
10
967.574462350046
20
-21.6798137810843
30
0
41
1
10
967.580359838198
20
-21.6696187180123
30
0
41
1
10
967.582518143519
20
-21.6664929744975
30
0
41
1
10
967.587336978515
20
-21.6609509485892
30
0
41
1
10
967.59003095863
20
-21.6585138200469
30
0
41
1
10
967.595913788948
20
-21.6547380925183
30
0
41
1
10
967.599092314858
20
-21.653390942036
30
0
41
1
10
967.606024814218
20
-21.6520063859393
30
0
41
1
10
967.609662347773
20
-21.6520040831206
30
0
41
1
10
967.617139507214
20
-21.6533292840575
30
0
41
1
10
967.621035240753
20
-21.6546831952793
30
0
41
1
10
967.628645050978
20
-21.6584096521326
30
0
41
1
10
967.632407400583
20
-21.6607803665225
30
0
41
1
10
967.643593243054
20
-21.6690962440329
30
0
41
1
10
967.650578102516
20
-21.6759448261146
30
0
41
1
10
967.657250000003
20
-21.6834680366323
30
0
0
SPLINE
5
251
100
AcDbEntity
8
1
62
256
6
ByLayer
370
18
48
1
60
0
100
AcDbSpline
70
4
71
3
72
8
73
4
40
0
40
0
40
0
40
0
40
1
40
1
40
1
40
1
41
1
10
967.65725
20
-21.6834680366392
30
0
41
1
10
967.882439703319
20
-21.9373912343118
30
0
41
1
10
968.105220267217
20
-22.1940971669937
30
0
41
1
10
968.325
20
-22.4542692825464
30
0
0
SPLINE
5
252
100
AcDbEntity
8
1
62
256
6
ByLayer
370
18
48
1
60
0
100
AcDbSpline
70
4
71
3
72
8
73
4
40
0
40
0
40
0
40
0
40
1
40
1
40
1
40
1
41
1
10
968.325
20
-21.6413678580242
30
0
41
1
10
968.122833855469
20
-20.9435601143574
30
0
41
1
10
967.899443492047
20
-20.2548941844886
30
0
41
1
10
967.65725
20
-19.574327242931
30
0
0
SPLINE
5
253
100
AcDbEntity
8
1
62
256
6
ByLayer
370
18
48
1
60
0
100
AcDbSpline
70
4
71
3
72
39
73
35
40
0
40
0
40
0
40
0
40
0.125000000000004
40
0.250000000000008
40
0.250000000000008
40
0.375000000000012
40
0.375000000000012
40
0.500000000000017
40
0.500000000000017
40
0.625000000000021
40
0.625000000000021
40
0.687500000000029
40
0.687500000000029
40
0.718750000000029
40
0.718750000000029
40
0.750000000000029
40
0.750000000000029
40
0.781250000000029
40
0.781250000000029
40
0.812500000000029
40
0.812500000000029
40
0.843750000000029
40
0.843750000000029
40
0.875000000000029
40
0.875000000000029
40
0.906250000000029
40
0.906250000000029
40
0.921875000000026
40
0.921875000000026
40
0.937500000000022
40
0.937500000000022
40
0.968750000000011
40
0.968750000000011
40
1
40
1
40
1
40
1
41
1
10
967.65725
20
-19.574327242931
30
0
41
1
10
967.646580757253
20
-19.5443465285713
30
0
41
1
10
967.626666964633
20
-19.4845475129735
30
0
41
1
10
967.609474495294
20
-19.4250680883044
30
0
41
1
10
967.593723142902
20
-19.3657586426831
30
0
41
1
10
967.586565111271
20
-19.3361886275275
30
0
41
1
10
967.573950192745
20
-19.2772451933165
30
0
41
1
10
967.568478888485
20
-19.2478457400217
30
0
41
1
10
967.559868126884
20
-19.1894053895867
30
0
41
1
10
967.55676420402
20
-19.1607742949645
30
0
41
1
10
967.554929433022
20
-19.1191795441496
30
0
41
1
10
967.55479395776
20
-19.1055426650128
30
0
41
1
10
967.555616302648
20
-19.0855723851587
30
0
41
1
10
967.55606606811
20
-19.0789820272958
30
0
41
1
10
967.557381723674
20
-19.0661836676606
30
0
41
1
10
967.558246925811
20
-19.0599572667153
30
0
41
1
10
967.560494611393
20
-19.0479333705054
30
0
41
1
10
967.5618756436
20
-19.0421346930097
30
0
41
1
10
967.565318935333
20
-19.0310996069091
30
0
41
1
10
967.567398569345
20
-19.0258233517465
30
0
41
1
10
967.572430566598
20
-19.0162634908891
30
0
41
1
10
967.575359520263
20
-19.0120016669404
30
0
41
1
10
967.582352105876
20
-19.0048963024807
30
0
41
1
10
967.586358027436
20
-19.0021423886126
30
0
41
1
10
967.595394612178
20
-18.9987372050426
30
0
41
1
10
967.600550748121
20
-18.9980977903821
30
0
41
1
10
967.608635032293
20
-18.9989147548732
30
0
41
1
10
967.611401776354
20
-18.9994694214462
30
0
41
1
10
967.617073916069
20
-19.001121934659
30
0
41
1
10
967.619995357271
20
-19.002230180919
30
0
41
1
10
967.628690733006
20
-19.0062055455793
30
0
41
1
10
967.634474936354
20
-19.0097278597311
30
0
41
1
10
967.646023948476
20
-19.0180958744247
30
0
41
1
10
967.651713152806
20
-19.0228938300856
30
0
41
1
10
967.657250000001
20
-19.0280631922891
30
0
0
SPLINE
5
254
100
AcDbEntity
8
1
62
256
6
ByLayer
370
18
48
1
60
0
100
AcDbSpline
70
4
71
3
72
8
73
4
40
0
40
0
40
0
40
0
40
1
40
1
40
1
40
1
41
1
10
967.65725
20
-19.028063192291
30
0
41
1
10
967.880459452193
20
-19.2364580540485
30
0
41
1
10
968.103076961139
20
-19.4456923332224
30
0
41
1
10
968.325
20
-19.6559114201237
30
0
0
SPLINE
5
255
100
AcDbEntity
8
1
62
256
6
ByLayer
370
18
48
1
60
0
100
AcDbSpline
70
4
71
3
72
8
73
4
40
0
40
0
40
0
40
0
40
1
40
1
40
1
40
1
41
1
10
968.325
20
-19.1002470304676
30
0
41
1
10
968.11364948325
20
-18.5576051289741
30
0
41
1
10
967.890641792267
20
-18.0214125283715
30
0
41
1
10
967.65725
20
-17.4909649044102
30
0
0
SPLINE
5
256
100
AcDbEntity
8
1
62
256
6
ByLayer
370
18
48
1
60
0
100
AcDbSpline
70
4
71
3
72
39
73
35
40
0
40
0
40
0
40
0
40
0.125000000000008
40
0.250000000000015
40
0.250000000000015
40
0.375000000000023
40
0.375000000000023
40
0.437500000000019
40
0.437500000000019
40
0.500000000000016
40
0.500000000000016
40
0.624999999999992
40
0.624999999999992
40
0.68749999999998
40
0.68749999999998
40
0.718749999999982
40
0.718749999999982
40
0.749999999999984
40
0.749999999999984
40
0.781249999999986
40
0.781249999999986
40
0.812499999999988
40
0.812499999999988
40
0.84374999999999
40
0.84374999999999
40
0.874999999999992
40
0.874999999999992
40
0.906249999999994
40
0.906249999999994
40
0.937499999999996
40
0.937499999999996
40
0.968749999999998
40
0.968749999999998
40
1
40
1
40
1
40
1
41
1
10
967.65725
20
-17.4909649044102
30
0
41
1
10
967.646225164343
20
-17.4659079055244
30
0
41
1
10
967.625662803589
20
-17.4160033455104
30
0
41
1
10
967.607968252585
20
-17.3665127941211
30
0
41
1
10
967.591816858937
20
-17.3172467845373
30
0
41
1
10
967.584508407246
20
-17.2927254826753
30
0
41
1
10
967.57494949961
20
-17.2561458542189
30
0
41
1
10
967.571999129151
20
-17.2439866161051
30
0
41
1
10
967.566652232335
20
-17.2197469680031
30
0
41
1
10
967.564261614681
20
-17.2076834143749
30
0
41
1
10
967.558188988545
20
-17.1721922713445
30
0
41
1
10
967.555502694857
20
-17.1492651907857
30
0
41
1
10
967.554840261363
20
-17.1166594019
30
0
41
1
10
967.55520248862
20
-17.1060388125869
30
0
41
1
10
967.556973345991
20
-17.0911698326573
30
0
41
1
10
967.557768449191
20
-17.0863804092951
30
0
41
1
10
967.559861553343
20
-17.0772099038972
30
0
41
1
10
967.561164570343
20
-17.072825509707
30
0
41
1
10
967.564334883021
20
-17.0647434740191
30
0
41
1
10
967.566205229861
20
-17.0610224290632
30
0
41
1
10
967.570649829864
20
-17.05436763016
30
0
41
1
10
967.573254028098
20
-17.0514095262516
30
0
41
1
10
967.579220243511
20
-17.0466367104663
30
0
41
1
10
967.582554449093
20
-17.0448289279456
30
0
41
1
10
967.590023947377
20
-17.04253001802
30
0
41
1
10
967.594177796038
20
-17.0420627777068
30
0
41
1
10
967.602907259085
20
-17.0425667422555
30
0
41
1
10
967.607543497602
20
-17.0435213308503
30
0
41
1
10
967.617256085205
20
-17.0467659871579
30
0
41
1
10
967.622195531083
20
-17.0490041278869
30
0
41
1
10
967.632212550562
20
-17.0545004074335
30
0
41
1
10
967.63731316436
20
-17.0577814738431
30
0
41
1
10
967.647347757395
20
-17.0650047072691
30
0
41
1
10
967.652317900227
20
-17.0689637907148
30
0
41
1
10
967.65725
20
-17.0732026113513
30
0
0
SPLINE
5
257
100
AcDbEntity
8
1
62
256
6
ByLayer
370
18
48
1
60
0
100
AcDbSpline
70
4
71
3
72
8
73
4
40
0
40
0
40
0
40
0
40
1
40
1
40
1
40
1
41
1
10
967.65725
20
-17.0732026113533
30
0
41
1
10
967.880013178354
20
-17.2646531498612
30
0
41
1
10
968.102604575938
20
-17.456369588335
30
0
41
1
10
968.325
20
-17.6483893748088
30
0
0
SPLINE
5
258
100
AcDbEntity
8
1
62
256
6
ByLayer
370
18
48
1
60
0
100
AcDbSpline
70
4
71
3
72
8
73
4
40
0
40
0
40
0
40
0
40
1
40
1
40
1
40
1
41
1
10
968.325
20
-17.2233612280541
30
0
41
1
10
968.10966477276
20
-16.7663013177364
30
0
41
1
10
967.886818670973
20
-16.3141696356165
30
0
41
1
10
967.65725
20
-15.8664489385043
30
0
0
SPLINE
5
259
100
AcDbEntity
8
1
62
256
6
ByLayer
370
18
48
1
60
0
100
AcDbSpline
70
4
71
3
72
34
73
30
40
0
40
0
40
0
40
0
40
0.124999999999999
40
0.124999999999999
40
0.249999999999997
40
0.249999999999997
40
0.374999999999996
40
0.374999999999996
40
0.499999999999995
40
0.499999999999995
40
0.562499999999994
40
0.562499999999994
40
0.624999999999994
40
0.624999999999994
40
0.687499999999994
40
0.687499999999994
40
0.718749999999996
40
0.718749999999996
40
0.749999999999998
40
0.749999999999998
40
0.812500000000004
40
0.812500000000004
40
0.875000000000009
40
0.875000000000009
40
0.906250000000007
40
0.906250000000007
40
0.937500000000005
40
0.937500000000005
40
1
40
1
40
1
40
1
41
1
10
967.65725
20
-15.8664489385043
30
0
41
1
10
967.645947569854
20
-15.8444061576562
30
0
41
1
10
967.635390176449
20
-15.8224757933608
30
0
41
1
10
967.615742019619
20
-15.7788417704521
30
0
41
1
10
967.606650068239
20
-15.757137914981
30
0
41
1
10
967.590085510798
20
-15.7139830743641
30
0
41
1
10
967.582606227346
20
-15.692531114225
30
0
41
1
10
967.569694945613
20
-15.6499454361593
30
0
41
1
10
967.564359427979
20
-15.6291588631814
30
0
41
1
10
967.558704902089
20
-15.5990954978876
30
0
41
1
10
967.55722402769
20
-15.5892827869522
30
0
41
1
10
967.555295929659
20
-15.5704267455699
30
0
41
1
10
967.554838459604
20
-15.5613483138648
30
0
41
1
10
967.555262619244
20
-15.544110414277
30
0
41
1
10
967.556158911307
20
-15.5359093170232
30
0
41
1
10
967.558858420317
20
-15.5249907429625
30
0
41
1
10
967.559984533795
20
-15.5215682165573
30
0
41
1
10
967.562777789928
20
-15.5152406284567
30
0
41
1
10
967.564455662165
20
-15.5123313465993
30
0
41
1
10
967.570292459914
20
-15.5047720377828
30
0
41
1
10
967.575288908285
20
-15.5011674973895
30
0
41
1
10
967.588051770599
20
-15.4977762428707
30
0
41
1
10
967.595399596579
20
-15.4981045109904
30
0
41
1
10
967.607827631656
20
-15.5015288709589
30
0
41
1
10
967.612142497255
20
-15.5031496128314
30
0
41
1
10
967.620909687214
20
-15.5071722594606
30
0
41
1
10
967.62538989515
20
-15.5095822595713
30
0
41
1
10
967.63908284868
20
-15.5178732778844
30
0
41
1
10
967.64817805849
20
-15.5245681402678
30
0
41
1
10
967.65725
20
-15.5320774075225
30
0
0
SPLINE
5
25A
100
AcDbEntity
8
1
62
256
6
ByLayer
370
18
48
1
60
0
100
AcDbSpline
70
4
71
3
72
8
73
4
40
0
40
0
40
0
40
0
40
1
40
1
40
1
40
1
41
1
10
967.65725
20
-15.5320774075235
30
0
41
1
10
967.879873851596
20
-15.7163535073071
30
0
41
1
10
968.102458794819
20
-15.900692300938
30
0
41
1
10
968.325
20
-16.0851014547591
30
0
0
SPLINE
5
25B
100
AcDbEntity
8
1
62
256
6
ByLayer
370
18
48
1
60
0
100
AcDbSpline
70
4
71
3
72
8
73
4
40
0
40
0
40
0
40
0
40
1
40
1
40
1
40
1
41
1
10
968.325
20
-15.745864395876
30
0
41
1
10
968.107474410811
20
-15.3452292816126
30
0
41
1
10
967.884714477839
20
-14.9485085551561
30
0
41
1
10
967.65725
20
-14.555306018146
30
0
0
SPLINE
5
25C
100
AcDbEntity
8
1
62
256
6
ByLayer
370
18
48
1
60
0
100
AcDbSpline
70
4
71
3
72
38
73
34
40
0
40
0
40
0
40
0
40
0.125
40
0.125
40
0.249999999999999
40
0.249999999999999
40
0.312499999999996
40
0.312499999999996
40
0.374999999999993
40
0.374999999999993
40
0.43749999999999
40
0.43749999999999
40
0.499999999999986
40
0.499999999999986
40
0.562499999999983
40
0.562499999999983
40
0.62499999999998
40
0.62499999999998
40
0.687499999999977
40
0.687499999999977
40
0.718749999999975
40
0.718749999999975
40
0.749999999999974
40
0.749999999999974
40
0.812499999999981
40
0.812499999999981
40
0.874999999999988
40
0.874999999999988
40
0.906249999999993
40
0.906249999999993
40
0.937499999999998
40
0.937499999999998
40
1
40
1
40
1
40
1
41
1
10
967.65725
20
-14.555306018146
30
0
41
1
10
967.645729252827
20
-14.535390877727
30
0
41
1
10
967.6349441526
20
-14.5156068941395
30
0
41
1
10
967.61485300466
20
-14.4763084026962
30
0
41
1
10
967.605544881582
20
-14.4567935032521
30
0
41
1
10
967.592841568741
20
-14.4277530585966
30
0
41
1
10
967.588818547235
20
-14.4181118373193
30
0
41
1
10
967.581249401669
20
-14.3989172918497
30
0
41
1
10
967.577714050631
20
-14.389387232
30
0
41
1
10
967.571284863396
20
-14.3706968425875
30
0
41
1
10
967.568378653118
20
-14.3615070506212
30
0
41
1
10
967.563283976011
20
-14.3434883247402
30
0
41
1
10
967.561087923277
20
-14.3346271740564
30
0
41
1
10
967.557609873028
20
-14.3174919858903
30
0
41
1
10
967.556338551274
20
-14.3092854030136
30
0
41
1
10
967.554922968103
20
-14.293739120675
30
0
41
1
10
967.554774658789
20
-14.2863963644029
30
0
41
1
10
967.555949855096
20
-14.2728382196257
30
0
41
1
10
967.557306821874
20
-14.2665639820316
30
0
41
1
10
967.560756288818
20
-14.2587589292863
30
0
41
1
10
967.56214022622
20
-14.2564111929366
30
0
41
1
10
967.565441932077
20
-14.2522935299336
30
0
41
1
10
967.567378919058
20
-14.2505154974473
30
0
41
1
10
967.573920712582
20
-14.2463075452509
30
0
41
1
10
967.57926021677
20
-14.2449394365519
30
0
41
1
10
967.592119843747
20
-14.245393530376
30
0
41
1
10
967.599334569386
20
-14.2472180340544
30
0
41
1
10
967.611057643271
20
-14.2520329480057
30
0
41
1
10
967.615118993722
20
-14.253990074071
30
0
41
1
10
967.623294279305
20
-14.2584200899687
30
0
41
1
10
967.627438854406
20
-14.2609048005122
30
0
41
1
10
967.640022299474
20
-14.2690666207832
30
0
41
1
10
967.648662924756
20
-14.2754944837436
30
0
41
1
10
967.65725
20
-14.2825104562891
30
0
0
SPLINE
5
25D
100
AcDbEntity
8
1
62
256
6
ByLayer
370
18
48
1
60
0
100
AcDbSpline
70
4
71
3
72
8
73
4
40
0
40
0
40
0
40
0
40
1
40
1
40
1
40
1
41
1
10
967.65725
20
-14.2825104562891
30
0
41
1
10
967.879835104503
20
-14.4643710942778
30
0
41
1
10
968.102418501529
20
-14.6462345187557
30
0
41
1
10
968.325
20
-14.828101041321
30
0
0
SPLINE
5
25E
100
AcDbEntity
8
1
62
256
6
ByLayer
370
18
48
1
60
0
100
AcDbSpline
70
4
71
3
72
8
73
4
40
0
40
0
40
0
40
0
40
1
40
1
40
1
40
1
41
1
10
968.325
20
-14.5527262815497
30
0
41
1
10
968.106110862472
20
-14.1929902479635
30
0
41
1
10
967.883402868273
20
-13.8364318753173
30
0
41
1
10
967.65725
20
-13.4827399736418
30
0
0
SPLINE
5
25F
100
AcDbEntity
8
1
62
256
6
ByLayer
370
18
48
1
60
0
100
AcDbSpline
70
4
71
3
72
39
73
35
40
0
40
0
40
0
40
0
40
0.125000000000014
40
0.125000000000014
40
0.250000000000027
40
0.250000000000027
40
0.375000000000041
40
0.375000000000041
40
0.437500000000048
40
0.437500000000048
40
0.500000000000055
40
0.500000000000055
40
0.562500000000063
40
0.562500000000063
40
0.593750000000066
40
0.593750000000066
40
0.62500000000007
40
0.62500000000007
40
0.687500000000065
40
0.687500000000065
40
0.718750000000058
40
0.718750000000058
40
0.750000000000052
40
0.781250000000045
40
0.781250000000045
40
0.812500000000039
40
0.812500000000039
40
0.843750000000033
40
0.843750000000033
40
0.875000000000026
40
0.875000000000026
40
0.937500000000013
40
0.937500000000013
40
1
40
1
40
1
40
1
41
1
10
967.65725
20
-13.4827399736417
30
0
41
1
10
967.645519386215
20
-13.464393873815
30
0
41
1
10
967.634521551363
20
-13.4462215785036
30
0
41
1
10
967.614024223821
20
-13.4102387062022
30
0
41
1
10
967.604521780148
20
-13.3924273984596
30
0
41
1
10
967.587257567992
20
-13.3572293556291
30
0
41
1
10
967.579448823552
20
-13.3397176312796
30
0
41
1
10
967.569812155719
20
-13.3147185971176
30
0
41
1
10
967.566934654513
20
-13.3065744560262
30
0
41
1
10
967.561968416092
20
-13.2907305867735
30
0
41
1
10
967.559870904248
20
-13.2829882011069
30
0
41
1
10
967.556719179233
20
-13.2683361263736
30
0
41
1
10
967.55565509052
20
-13.261413570451
30
0
41
1
10
967.555000694993
20
-13.2517700669197
30
0
41
1
10
967.554940457173
20
-13.2486796807211
30
0
41
1
10
967.555181959873
20
-13.2427829652386
30
0
41
1
10
967.555487031506
20
-13.2399692136345
30
0
41
1
10
967.557000152799
20
-13.2321815351482
30
0
41
1
10
967.558794940162
20
-13.227798339957
30
0
41
1
10
967.562952677586
20
-13.2227257241577
30
0
41
1
10
967.564589139932
20
-13.2212942959271
30
0
41
1
10
967.568291601871
20
-13.2190643340271
30
0
41
1
10
967.572442699817
20
-13.2174388282754
30
0
41
1
10
967.577519317192
20
-13.2170579676639
30
0
41
1
10
967.583084020541
20
-13.2173323098131
30
0
41
1
10
967.586091614629
20
-13.2178014920586
30
0
41
1
10
967.592388092761
20
-13.2193488785422
30
0
41
1
10
967.595697643422
20
-13.2204275530424
30
0
41
1
10
967.602621795316
20
-13.2231605323249
30
0
41
1
10
967.606262068668
20
-13.22482895529
30
0
41
1
10
967.61739864662
20
-13.2305458936447
30
0
41
1
10
967.625099764707
20
-13.2352776824478
30
0
41
1
10
967.640942426848
20
-13.2462000066489
30
0
41
1
10
967.649106107275
20
-13.2524185177239
30
0
41
1
10
967.65725
20
-13.2590869134497
30
0
0
SPLINE
5
260
100
AcDbEntity
8
1
62
256
6
ByLayer
370
18
48
1
60
0
100
AcDbSpline
70
4
71
3
72
8
73
4
40
0
40
0
40
0
40
0
40
1
40
1
40
1
40
1
41
1
10
967.65725
20
-13.2590869134497
30
0
41
1
10
967.879840463616
20
-13.441348805438
30
0
41
1
10
968.102424037712
20
-13.6236219166496
30
0
41
1
10
968.325
20
-13.8059074196675
30
0
0
SPLINE
5
261
100
AcDbEntity
8
1
62
256
6
ByLayer
370
18
48
1
60
0
100
AcDbSpline
70
4
71
3
72
8
73
4
40
0
40
0
40
0
40
0
40
1
40
1
40
1
40
1
41
1
10
968.325
20
-13.5818347905531
30
0
41
1
10
968.105193688956
20
-13.2535479598728
30
0
41
1
10
967.882519487208
20
-12.927873893694
30
0
41
1
10
967.65725
20
-12.6045642376068
30
0
0
SPLINE
5
262
100
AcDbEntity
8
1
62
256
6
ByLayer
370
18
48
1
60
0
100
AcDbSpline
70
4
71
3
72
39
73
35
40
0
40
0
40
0
40
0
40
0.12500000000001
40
0.12500000000001
40
0.25000000000002
40
0.25000000000002
40
0.312500000000025
40
0.312500000000025
40
0.37500000000003
40
0.37500000000003
40
0.437500000000036
40
0.437500000000036
40
0.500000000000041
40
0.500000000000041
40
0.562500000000046
40
0.562500000000046
40
0.593750000000044
40
0.593750000000044
40
0.625000000000042
40
0.656250000000041
40
0.656250000000041
40
0.687500000000039
40
0.687500000000039
40
0.750000000000026
40
0.750000000000026
40
0.781250000000023
40
0.781250000000023
40
0.812500000000019
40
0.812500000000019
40
0.875000000000013
40
0.875000000000013
40
0.937500000000006
40
0.937500000000006
40
1
40
1
40
1
40
1
41
1
10
967.65725
20
-12.6045642376068
30
0
41
1
10
967.645324701891
20
-12.5874488968731
30
0
41
1
10
967.634118740494
20
-12.570544742862
30
0
41
1
10
967.613209011872
20
-12.537184357289
30
0
41
1
10
967.603501112796
20
-12.5207268669997
30
0
41
1
10
967.590286631661
20
-12.4964464511758
30
0
41
1
10
967.586092554181
20
-12.4883868215108
30
0
41
1
10
967.5783577017
20
-12.4726828384541
30
0
41
1
10
967.574805765259
20
-12.4650218141136
30
0
41
1
10
967.56841768522
20
-12.4501331229536
30
0
41
1
10
967.565580397058
20
-12.4429047723781
30
0
41
1
10
967.560764477946
20
-12.4289674835815
30
0
41
1
10
967.558804524416
20
-12.4223001155763
30
0
41
1
10
967.556019272251
20
-12.4099372045515
30
0
41
1
10
967.555178204018
20
-12.4042031653911
30
0
41
1
10
967.554948466163
20
-12.3964371878702
30
0
41
1
10
967.55504774884
20
-12.3939809499631
30
0
41
1
10
967.555629984416
20
-12.3894784117741
30
0
41
1
10
967.55659262905
20
-12.3853637374984
30
0
41
1
10
967.558374363258
20
-12.3820830447473
30
0
41
1
10
967.560607203657
20
-12.3792609701171
30
0
41
1
10
967.561960358768
20
-12.3780769702918
30
0
41
1
10
967.566634579587
20
-12.3753606482777
30
0
41
1
10
967.570581849336
20
-12.3746163082792
30
0
41
1
10
967.577798497833
20
-12.3751570596841
30
0
41
1
10
967.58044056997
20
-12.3756223480671
30
0
41
1
10
967.586012659557
20
-12.3770816044153
30
0
41
1
10
967.58895339239
20
-12.3780731322464
30
0
41
1
10
967.598210098366
20
-12.3817819911013
30
0
41
1
10
967.605040761242
20
-12.385285490014
30
0
41
1
10
967.61918299044
20
-12.393720167864
30
0
41
1
10
967.626524213264
20
-12.3986486055801
30
0
41
1
10
967.641654445611
20
-12.4096798248163
30
0
41
1
10
967.649445016526
20
-12.4157910743389
30
0
41
1
10
967.65725
20
-12.4222622506136
30
0
0
SPLINE
5
263
100
AcDbEntity
8
1
62
256
6
ByLayer
370
18
48
1
60
0
100
AcDbSpline
70
4
71
3
72
8
73
4
40
0
40
0
40
0
40
0
40
1
40
1
40
1
40
1
41
1
10
967.65725
20
-12.4222622506136
30
0
41
1
10
967.87987051103
20
-12.6068387553714
30
0
41
1
10
968.102455053618
20
-12.7914731194792
30
0
41
1
10
968.325
20
-12.9761710832022
30
0
0
SPLINE
5
264
100
AcDbEntity
8
1
62
256
6
ByLayer
370
18
48
1
60
0
100
AcDbSpline
70
4
71
3
72
8
73
4
40
0
40
0
40
0
40
0
40
1
40
1
40
1
40
1
41
1
10
968.325
20
-12.7955228979006
30
0
41
1
10
968.104543176151
20
-12.4924100862426
30
0
41
1
10
967.88189214863
20
-12.1914605821749
30
0
41
1
10
967.65725
20
-11.8924741626924
30
0
0
SPLINE
5
265
100
AcDbEntity
8
1
62
256
6
ByLayer
370
18
48
1
60
0
100
AcDbSpline
70
4
71
3
72
41
73
37
40
0
40
0
40
0
40
0
40
0.124999999999992
40
0.124999999999992
40
0.249999999999985
40
0.249999999999985
40
0.312499999999982
40
0.312499999999982
40
0.374999999999978
40
0.374999999999978
40
0.437499999999975
40
0.437499999999975
40
0.499999999999972
40
0.499999999999972
40
0.531249999999972
40
0.531249999999972
40
0.562499999999973
40
0.562499999999973
40
0.624999999999975
40
0.624999999999975
40
0.656249999999973
40
0.656249999999973
40
0.687499999999972
40
0.718749999999971
40
0.718749999999971
40
0.749999999999969
40
0.749999999999969
40
0.812499999999973
40
0.812499999999973
40
0.843749999999979
40
0.843749999999979
40
0.874999999999984
40
0.874999999999984
40
0.937499999999992
40
0.937499999999992
40
1
40
1
40
1
40
1
41
1
10
967.65725
20
-11.8924741626924
30
0
41
1
10
967.645133612853
20
-11.8763479137578
30
0
41
1
10
967.633721354955
20
-11.8604772642669
30
0
41
1
10
967.61239933665
20
-11.8292889383238
30
0
41
1
10
967.602484034729
20
-11.8139691810634
30
0
41
1
10
967.589000608028
20
-11.7915059477139
30
0
41
1
10
967.584764161257
20
-11.7841414183161
30
0
41
1
10
967.576991896134
20
-11.7699057935758
30
0
41
1
10
967.573436872586
20
-11.7630037445018
30
0
41
1
10
967.567090720929
20
-11.7496977273678
30
0
41
1
10
967.56428522212
20
-11.7432574908697
30
0
41
1
10
967.559676075155
20
-11.731162333676
30
0
41
1
10
967.557880787462
20
-11.7255403929831
30
0
41
1
10
967.55608161498
20
-11.7178536117273
30
0
41
1
10
967.555631576596
20
-11.7154163052967
30
0
41
1
10
967.555064878203
20
-11.7108197535115
30
0
41
1
10
967.554949380237
20
-11.7086510237402
30
0
41
1
10
967.555163437304
20
-11.7027220669796
30
0
41
1
10
967.556039062514
20
-11.6995107984697
30
0
41
1
10
967.558608393519
20
-11.6959613557094
30
0
41
1
10
967.559685167868
20
-11.6949863059576
30
0
41
1
10
967.562248039143
20
-11.6935300499055
30
0
41
1
10
967.565209750923
20
-11.6925613902196
30
0
41
1
10
967.568962971665
20
-11.6925590016916
30
0
41
1
10
967.573116175665
20
-11.6930441925323
30
0
41
1
10
967.575406894813
20
-11.693535025829
30
0
41
1
10
967.582795550642
20
-11.6957277804477
30
0
41
1
10
967.588325129078
20
-11.6981103514808
30
0
41
1
10
967.597417129716
20
-11.7028962650834
30
0
41
1
10
967.600599370303
20
-11.7047062342747
30
0
41
1
10
967.607106219725
20
-11.7086459444341
30
0
41
1
10
967.610434173347
20
-11.7107758120732
30
0
41
1
10
967.620618706119
20
-11.7175953226238
30
0
41
1
10
967.627674624594
20
-11.7227119588404
30
0
41
1
10
967.642242551994
20
-11.7339187240611
30
0
41
1
10
967.649723591615
20
-11.7399887210133
30
0
41
1
10
967.65725
20
-11.7463549448068
30
0
0
SPLINE
5
266
100
AcDbEntity
8
1
62
256
6
ByLayer
370
18
48
1
60
0
100
AcDbSpline
70
4
71
3
72
8
73
4
40
0
40
0
40
0
40
0
40
1
40
1
40
1
40
1
41
1
10
967.65725
20
-11.7463549448068
30
0
41
1
10
967.879918034686
20
-11.9346990351024
30
0
41
1
10
968.102504008099
20
-12.1231723395842
30
0
41
1
10
968.325
20
-12.3117873295118
30
0
0
SPLINE
5
267
100
AcDbEntity
8
1
62
256
6
ByLayer
370
18
48
1
60
0
100
AcDbSpline
70
4
71
3
72
8
73
4
40
0
40
0
40
0
40
0
40
1
40
1
40
1
40
1
41
1
10
968.325
20
-12.1693545863131
30
0
41
1
10
968.104063620197
20
-11.886980916137
30
0
41
1
10
967.881429112876
20
-11.6064030728346
30
0
41
1
10
967.65725
20
-11.3274587017734
30
0
0
SPLINE
5
268
100
AcDbEntity
8
1
62
256
6
ByLayer
370
18
48
1
60
0
100
AcDbSpline
70
4
71
3
72
32
73
28
40
0
40
0
40
0
40
0
40
0.124999999999999
40
0.124999999999999
40
0.187499999999996
40
0.187499999999996
40
0.249999999999993
40
0.249999999999993
40
0.374999999999991
40
0.374999999999991
40
0.437499999999992
40
0.437499999999992
40
0.499999999999992
40
0.499999999999992
40
0.562499999999992
40
0.562499999999992
40
0.624999999999993
40
0.624999999999993
40
0.687499999999993
40
0.687499999999993
40
0.749999999999994
40
0.749999999999994
40
0.812499999999994
40
0.812499999999994
40
0.874999999999994
40
0.874999999999994
40
1
40
1
40
1
40
1
41
1
10
967.65725
20
-11.3274587017734
30
0
41
1
10
967.64494057418
20
-11.3121421765206
30
0
41
1
10
967.633318873655
20
-11.2971328689691
30
0
41
1
10
967.617011628257
20
-11.275127859699
30
0
41
1
10
967.611764913675
20
-11.2678783493811
30
0
41
1
10
967.601689781501
20
-11.2535695000928
30
0
41
1
10
967.596845051518
20
-11.2464857584914
30
0
41
1
10
967.583145933226
20
-11.2257307826934
30
0
41
1
10
967.575242776462
20
-11.2127590422361
30
0
41
1
10
967.565799614548
20
-11.1950024286769
30
0
41
1
10
967.563060350952
20
-11.1893612356471
30
0
41
1
10
967.558712460972
20
-11.1790953248408
30
0
41
1
10
967.55707817739
20
-11.1744273918559
30
0
41
1
10
967.555090762479
20
-11.1661946456552
30
0
41
1
10
967.554755261166
20
-11.1626363738214
30
0
41
1
10
967.555617055609
20
-11.1571222022187
30
0
41
1
10
967.556803731201
20
-11.1551129459001
30
0
41
1
10
967.560865190671
20
-11.1528330364862
30
0
41
1
10
967.563668877088
20
-11.1525955564234
30
0
41
1
10
967.570780971869
20
-11.1538731328645
30
0
41
1
10
967.575153344152
20
-11.1554267650848
30
0
41
1
10
967.584978642164
20
-11.1600936727283
30
0
41
1
10
967.590446879234
20
-11.1631947211747
30
0
41
1
10
967.602385796368
20
-11.1707773629465
30
0
41
1
10
967.608690809113
20
-11.1751533119428
30
0
41
1
10
967.628372566574
20
-11.1896723435047
30
0
41
1
10
967.642665907693
20
-11.2013291716371
30
0
41
1
10
967.65725
20
-11.2139878841796
30
0
0
SPLINE
5
269
100
AcDbEntity
8
1
62
256
6
ByLayer
370
18
48
1
60
0
100
AcDbSpline
70
4
71
3
72
8
73
4
40
0
40
0
40
0
40
0
40
1
40
1
40
1
40
1
41
1
10
967.65725
20
-11.2139878841796
30
0
41
1
10
967.87998075361
20
-11.4073139085188
30
0
41
1
10
968.102568584439
20
-11.6008590795965
30
0
41
1
10
968.325
20
-11.7946440857522
30
0
0
SPLINE
5
26A
100
AcDbEntity
8
1
62
256
6
ByLayer
370
18
48
1
60
0
100
AcDbSpline
70
4
71
3
72
8
73
4
40
0
40
0
40
0
40
0
40
1
40
1
40
1
40
1
41
1
10
968.325
20
-11.6868954193832
30
0
41
1
10
968.103699542003
20
-11.4219731118894
30
0
41
1
10
967.881077169411
20
-11.1585397935152
30
0
41
1
10
967.65725
20
-10.8964635441707
30
0
0
SPLINE
5
26B
100
AcDbEntity
8
1
62
256
6
ByLayer
370
18
48
1
60
0
100
AcDbSpline
70
4
71
3
72
39
73
35
40
0
40
0
40
0
40
0
40
0.125000000000012
40
0.125000000000012
40
0.187500000000014
40
0.187500000000014
40
0.250000000000015
40
0.250000000000015
40
0.312500000000016
40
0.312500000000016
40
0.375000000000018
40
0.375000000000018
40
0.437500000000019
40
0.437500000000019
40
0.500000000000021
40
0.500000000000021
40
0.562500000000022
40
0.562500000000022
40
0.593750000000021
40
0.593750000000021
40
0.62500000000002
40
0.656250000000019
40
0.656250000000019
40
0.687500000000018
40
0.687500000000018
40
0.750000000000015
40
0.750000000000015
40
0.812500000000011
40
0.812500000000011
40
0.875000000000007
40
0.875000000000007
40
0.937500000000004
40
0.937500000000004
40
1
40
1
40
1
40
1
41
1
10
967.65725
20
-10.8964635441707
30
0
41
1
10
967.644720301885
20
-10.8817926876519
30
0
41
1
10
967.632831620295
20
-10.8674529119375
30
0
41
1
10
967.616089807214
20
-10.8465138172428
30
0
41
1
10
967.610673127516
20
-10.8396044147755
30
0
41
1
10
967.600350782586
20
-10.8261284407633
30
0
41
1
10
967.595467318582
20
-10.8195921443877
30
0
41
1
10
967.586309842177
20
-10.8069634182908
30
0
41
1
10
967.582035169824
20
-10.8008705064542
30
0
41
1
10
967.57418926886
20
-10.7891981018148
30
0
41
1
10
967.570602612509
20
-10.7835900645109
30
0
41
1
10
967.564448553245
20
-10.7732781207079
30
0
41
1
10
967.561857320965
20
-10.7685425105207
30
0
41
1
10
967.557802629483
20
-10.7600474494585
30
0
41
1
10
967.556337441899
20
-10.7562633976462
30
0
41
1
10
967.554842247904
20
-10.7501190123382
30
0
41
1
10
967.554789161882
20
-10.7477251825896
30
0
41
1
10
967.555879548971
20
-10.7452760028389
30
0
41
1
10
967.556443906822
20
-10.7446522211822
30
0
41
1
10
967.557950612297
20
-10.7438322316757
30
0
41
1
10
967.559837032911
20
-10.7434272130451
30
0
41
1
10
967.562474123868
20
-10.7438418179271
30
0
41
1
10
967.565488600722
20
-10.7446680507559
30
0
41
1
10
967.56719588308
20
-10.7452922543919
30
0
41
1
10
967.572808138481
20
-10.7477550258765
30
0
41
1
10
967.577166551717
20
-10.7501576438176
30
0
41
1
10
967.586979316917
20
-10.7563106231526
30
0
41
1
10
967.592462904165
20
-10.7600881222534
30
0
41
1
10
967.604001675492
20
-10.7685563930464
30
0
41
1
10
967.610103027308
20
-10.7732741973195
30
0
41
1
10
967.622880118554
20
-10.7835436661578
30
0
41
1
10
967.629588591916
20
-10.7891251558896
30
0
41
1
10
967.643220612098
20
-10.8007800613656
30
0
41
1
10
967.65017465678
20
-10.8068767721831
30
0
41
1
10
967.65725
20
-10.8132091106791
30
0
0
SPLINE
5
26C
100
AcDbEntity
8
1
62
256
6
ByLayer
370
18
48
1
60
0
100
AcDbSpline
70
4
71
3
72
8
73
4
40
0
40
0
40
0
40
0
40
1
40
1
40
1
40
1
41
1
10
967.65725
20
-10.8132091106791
30
0
41
1
10
967.880058917021
20
-11.0126201411421
30
0
41
1
10
968.102649044268
20
-11.2123562438339
30
0
41
1
10
968.325
20
-11.4124477014196
30
0
0
SPLINE
5
26D
100
AcDbEntity
8
1
62
256
6
ByLayer
370
18
48
1
60
0
100
AcDbSpline
70
4
71
3
72
8
73
4
40
0
40
0
40
0
40
0
40
1
40
1
40
1
40
1
41
1
10
968.325
20
-11.3369969487068
30
0
41
1
10
968.10341668238
20
-11.0869914038402
30
0
41
1
10
967.880803440279
20
-10.8382143276318
30
0
41
1
10
967.65725
20
-10.5905586967472
30
0
0
SPLINE
5
26E
100
AcDbEntity
8
1
62
256
6
ByLayer
370
18
48
1
60
0
100
AcDbSpline
70
4
71
3
72
38
73
34
40
0
40
0
40
0
40
0
40
0.124999999999999
40
0.124999999999999
40
0.1875
40
0.1875
40
0.250000000000001
40
0.250000000000001
40
0.312500000000001
40
0.312500000000001
40
0.375000000000002
40
0.375000000000002
40
0.437500000000003
40
0.437500000000003
40
0.468750000000002
40
0.468750000000002
40
0.5
40
0.5
40
0.5625
40
0.5625
40
0.625
40
0.625
40
0.6875
40
0.6875
40
0.75
40
0.75
40
0.8125
40
0.8125
40
0.875
40
0.875
40
0.9375
40
0.9375
40
1
40
1
40
1
40
1
41
1
10
967.65725
20
-10.5905586967472
30
0
41
1
10
967.644516424558
20
-10.576452263603
30
0
41
1
10
967.632415757923
20
-10.5627585940202
30
0
41
1
10
967.615362180513
20
-10.542941631189
30
0
41
1
10
967.609843681087
20
-10.5364353813394
30
0
41
1
10
967.599315823628
20
-10.5238057039197
30
0
41
1
10
967.594346351019
20
-10.5177308887059
30
0
41
1
10
967.585057088003
20
-10.5061123441035
30
0
41
1
10
967.58073649483
20
-10.5005679552885
30
0
41
1
10
967.57285188582
20
-10.4900990586808
30
0
41
1
10
967.569289806117
20
-10.4851728482567
30
0
41
1
10
967.563275020147
20
-10.4763582557512
30
0
41
1
10
967.560789116348
20
-10.4724275501338
30
0
41
1
10
967.55797040398
20
-10.4673637492386
30
0
41
1
10
967.5571807071
20
-10.4658084570749
30
0
41
1
10
967.555958387771
20
-10.4630525650613
30
0
41
1
10
967.555522888384
20
-10.4618485721048
30
0
41
1
10
967.554757589445
20
-10.4587724478418
30
0
41
1
10
967.554968098834
20
-10.457430579761
30
0
41
1
10
967.556970634973
20
-10.4563312043709
30
0
41
1
10
967.558727151058
20
-10.456586787448
30
0
41
1
10
967.563678010358
20
-10.4586288052348
30
0
41
1
10
967.566920781157
20
-10.4604501167348
30
0
41
1
10
967.574553372275
20
-10.4654291009496
30
0
41
1
10
967.578939391943
20
-10.4685746916769
30
0
41
1
10
967.588732659252
20
-10.4760388912359
30
0
41
1
10
967.594093655634
20
-10.4803248510794
30
0
41
1
10
967.60536971005
20
-10.4896450982842
30
0
41
1
10
967.611321002803
20
-10.4947073509854
30
0
41
1
10
967.623774439075
20
-10.5055364710499
30
0
41
1
10
967.630297453056
20
-10.5113233573851
30
0
41
1
10
967.643565991622
20
-10.5232854605885
30
0
41
1
10
967.650343891601
20
-10.5294883716101
30
0
41
1
10
967.65725
20
-10.5358884599038
30
0
0
SPLINE
5
26F
100
AcDbEntity
8
1
62
256
6
ByLayer
370
18
48
1
60
0
100
AcDbSpline
70
4
71
3
72
8
73
4
40
0
40
0
40
0
40
0
40
1
40
1
40
1
40
1
41
1
10
967.65725
20
-10.5358884599038
30
0
41
1
10
967.880154410721
20
-10.7424603564467
30
0
41
1
10
968.102747357519
20
-10.9494787322674
30
0
41
1
10
968.325
20
-11.1569849296753
30
0
0
SPLINE
5
270
100
AcDbEntity
8
1
62
256
6
ByLayer
370
18
48
1
60
0
100
AcDbSpline
70
4
71
3
72
8
73
4
40
0
40
0
40
0
40
0
40
1
40
1
40
1
40
1
41
1
10
968.325
20
-11.1122905993195
30
0
41
1
10
968.103192833685
20
-10.8751799435513
30
0
41
1
10
967.880586600133
20
-10.6390735659259
30
0
41
1
10
967.65725
20
-10.4038851225648
30
0
0
SPLINE
5
271
100
AcDbEntity
8
1
62
256
6
ByLayer
370
18
48
1
60
0
100
AcDbSpline
70
4
71
3
72
36
73
32
40
0
40
0
40
0
40
0
40
0.124999999999999
40
0.124999999999999
40
0.187499999999999
40
0.187499999999999
40
0.25
40
0.25
40
0.3125
40
0.3125
40
0.375
40
0.375
40
0.4375
40
0.4375
40
0.5
40
0.5
40
0.5625
40
0.5625
40
0.625
40
0.625
40
0.6875
40
0.6875
40
0.75
40
0.75
40
0.8125
40
0.8125
40
0.875
40
0.875
40
0.9375
40
0.9375
40
1
40
1
40
1
40
1
41
1
10
967.65725
20
-10.4038851225648
30
0
41
1
10
967.644297810295
20
-10.390245596697
30
0
41
1
10
967.631971469554
20
-10.3771110626408
30
0
41
1
10
967.614587766373
20
-10.3583103766373
30
0
41
1
10
967.608962437992
20
-10.3521765838632
30
0
41
1
10
967.598219744535
20
-10.3403457337925
30
0
41
1
10
967.593162452165
20
-10.3347151606933
30
0
41
1
10
967.583744054987
20
-10.3240872795776
30
0
41
1
10
967.579381977264
20
-10.3190890809688
30
0
41
1
10
967.571475424566
20
-10.3098381872917
30
0
41
1
10
967.56796393266
20
-10.3056220884437
30
0
41
1
10
967.562123476241
20
-10.2983393687294
30
0
41
1
10
967.559763016764
20
-10.295236477516
30
0
41
1
10
967.556345506592
20
-10.2902855313947
30
0
41
1
10
967.555339389409
20
-10.2885067486507
30
0
41
1
10
967.554805792476
20
-10.2864425830209
30
0
41
1
10
967.555270373726
20
-10.2861435725775
30
0
41
1
10
967.557760513605
20
-10.2871185975467
30
0
41
1
10
967.559738775618
20
-10.2883720341766
30
0
41
1
10
967.565035279268
20
-10.2922769940658
30
0
41
1
10
967.568396074916
20
-10.2949656286602
30
0
41
1
10
967.576150554506
20
-10.3014700751924
30
0
41
1
10
967.580543608829
20
-10.3052815816087
30
0
41
1
10
967.590239294518
20
-10.3138883747757
30
0
41
1
10
967.595524602478
20
-10.3186696765186
30
0
41
1
10
967.60658470537
20
-10.3288123383443
30
0
41
1
10
967.612396656112
20
-10.3342067222856
30
0
41
1
10
967.624514642587
20
-10.3455596096555
30
0
41
1
10
967.630846485558
20
-10.3515428277416
30
0
41
1
10
967.643842245097
20
-10.3639102498049
30
0
41
1
10
967.650482231385
20
-10.3702712851477
30
0
41
1
10
967.65725
20
-10.3767909999389
30
0
0
SPLINE
5
272
100
AcDbEntity
8
1
62
256
6
ByLayer
370
18
48
1
60
0
100
AcDbSpline
70
4
71
3
72
8
73
4
40
0
40
0
40
0
40
0
40
1
40
1
40
1
40
1
41
1
10
967.65725
20
-10.3767909999389
30
0
41
1
10
967.880270558999
20
-10.5916373577255
30
0
41
1
10
968.102866984829
20
-10.8070679535866
30
0
41
1
10
968.325
20
-11.0231368917699
30
0
0
SPLINE
5
273
100
AcDbEntity
8
1
62
256
6
ByLayer
370
18
48
1
60
0
100
AcDbSpline
70
4
71
3
72
8
73
4
40
0
40
0
40
0
40
0
40
1
40
1
40
1
40
1
41
1
10
968.325
20
-11.0083320922956
30
0
41
1
10
968.1030130494
20
-10.7824508877928
30
0
41
1
10
967.880412287865
20
-10.5573789661038
30
0
41
1
10
967.65725
20
-10.3330473922659
30
0
0
SPLINE
5
274
100
AcDbEntity
8
1
62
256
6
ByLayer
370
18
48
1
60
0
100
AcDbSpline
70
4
71
3
72
34
73
30
40
0
40
0
40
0
40
0
40
0.178898807749725
40
0.178898807749725
40
0.268348211624585
40
0.268348211624585
40
0.357797615499445
40
0.357797615499445
40
0.447247019374305
40
0.447247019374305
40
0.536696423249165
40
0.536696423249165
40
0.581421125186593
40
0.581421125186593
40
0.626145827124021
40
0.626145827124021
40
0.715595230998874
40
0.715595230998874
40
0.760319932936301
40
0.760319932936301
40
0.805044634873728
40
0.805044634873728
40
0.894494038748579
40
0.894494038748579
40
0.939218740686001
40
0.939218740686001
40
0.983943442623424
40
0.983943442623424
40
1
40
1
40
1
40
1
41
1
10
967.65725
20
-10.3330473922659
30
0
41
1
10
967.644065127169
20
-10.3197934356887
30
0
41
1
10
967.631499690005
20
-10.3071489991861
30
0
41
1
10
967.613767488913
20
-10.2892904647345
30
0
41
1
10
967.608029628151
20
-10.2835090829068
30
0
41
1
10
967.597063181624
20
-10.2724551199167
30
0
41
1
10
967.591917003684
20
-10.2672656231912
30
0
41
1
10
967.582374604036
20
-10.257639748075
30
0
41
1
10
967.577977210357
20
-10.2532021838559
30
0
41
1
10
967.570069925254
20
-10.24522056754
30
0
41
1
10
967.566638932007
20
-10.2417561641997
30
0
41
1
10
967.562418282625
20
-10.2374937027415
30
0
41
1
10
967.561162433677
20
-10.2362252665611
30
0
41
1
10
967.558973145788
20
-10.2340138825151
30
0
41
1
10
967.558035604913
20
-10.2330667908121
30
0
41
1
10
967.555782453196
20
-10.2307905875903
30
0
41
1
10
967.55502129948
20
-10.2300215198044
30
0
41
1
10
967.554990007903
20
-10.229989904549
30
0
41
1
10
967.555165390467
20
-10.2301671038986
30
0
41
1
10
967.555896933859
20
-10.230906195096
30
0
41
1
10
967.556455981111
20
-10.2314710025185
30
0
41
1
10
967.558654369785
20
-10.23369189286
30
0
41
1
10
967.560818210051
20
-10.2358777498541
30
0
41
1
10
967.565025639673
20
-10.2401269027428
30
0
41
1
10
967.566596637724
20
-10.2417133321016
30
0
41
1
10
967.569995938922
20
-10.2451455545827
30
0
41
1
10
967.57182715684
20
-10.2469942925845
30
0
41
1
10
967.57448073408
20
-10.2496728465072
30
0
41
1
10
967.575197483871
20
-10.2503963061238
30
0
41
1
10
967.575929600263
20
-10.2511352353844
30
0
0
SPLINE
5
275
100
AcDbEntity
8
1
62
256
6
ByLayer
370
13
48
1
60
0
100
AcDbSpline
70
4
71
3
72
25
73
21
40
0
40
0
40
0
40
0
40
0.125
40
0.125
40
0.25
40
0.25
40
0.375
40
0.375
40
0.499999999999999
40
0.499999999999999
40
0.75
40
0.75
40
0.875
40
0.875
40
0.9375
40
0.96875
40
0.984375
40
0.9921875
40
0.9921875
40
1
40
1
40
1
40
1
41
1
10
965.6
20
-49.0233009708774
30
0
41
1
10
965.6
20
-49.1049758418931
30
0
41
1
10
965.593729874198
20
-49.1813051820007
30
0
41
1
10
965.572464648319
20
-49.323590577421
30
0
41
1
10
965.55743057391
20
-49.3895447818368
30
0
41
1
10
965.520891871903
20
-49.5112701490781
30
0
41
1
10
965.499371862381
20
-49.5670405424353
30
0
41
1
10
965.451443054775
20
-49.6685039460727
30
0
41
1
10
965.425026907574
20
-49.7141965993179
30
0
41
1
10
965.340251804385
20
-49.8362124725188
30
0
41
1
10
965.276417550533
20
-49.8975032094958
30
0
41
1
10
965.175226139302
20
-49.9590200764965
30
0
41
1
10
965.140664900068
20
-49.9743899529195
30
0
41
1
10
965.088219134601
20
-49.9897571980752
30
0
41
1
10
965.061841689119
20
-49.9955198572969
30
0
41
1
10
965.030924703025
20
-49.9988813636504
30
0
41
1
10
965.01544608373
20
-49.9997211429199
30
0
41
1
10
965.008809763702
20
-49.9999007641135
30
0
41
1
10
965.004385154011
20
-49.9999804384377
30
0
41
1
10
965.002194896914
20
-50.0000000000036
30
0
41
1
10
965
20
-50.0000000000036
30
0
0
SPLINE
5
276
100
AcDbEntity
8
1
62
256
6
ByLayer
370
18
48
1
60
0
100
AcDbSpline
70
4
71
3
72
10
73
6
40
0
40
0
40
0
40
0
40
0.5
40
0.5
40
1
40
1
40
1
40
1
41
1
10
965
20
-48.7648333333369
30
0
41
1
10
965
20
-48.8789619420858
30
0
41
1
10
965.005810786142
20
-48.9822550724908
30
0
41
1
10
965.028720778305
20
-49.1697520377631
30
0
41
1
10
965.045818710837
20
-49.2539639235937
30
0
41
1
10
965.068069438108
20
-49.3299769406331
30
0
0
SPLINE
5
277
100
AcDbEntity
8
1
62
256
6
ByLayer
370
18
48
1
60
0
100
AcDbSpline
70
4
71
3
72
92
73
88
40
0
40
0
40
0
40
0
40
0.0177718693346744
40
0.0354006844680412
40
0.0528864458455395
40
0.0702291539236776
40
0.0874288091704015
40
0.104485412065478
40
0.121398963100894
40
0.138169462781274
40
0.154796911624312
40
0.171281310161228
40
0.187622658937238
40
0.203820958512052
40
0.219876209460386
40
0.235788412372502
40
0.251557567854774
40
0.267183676530274
40
0.282666739039393
40
0.298006756040483
40
0.313203728210531
40
0.328257656245874
40
0.343168540862932
40
0.357936382798993
40
0.372561182813024
40
0.38704294168653
40
0.401381660224452
40
0.415577339256108
40
0.42962997963619
40
0.443539582245803
40
0.457306147993564
40
0.470929677816757
40
0.484410172682548
40
0.497747633589266
40
0.510942061567755
40
0.523993457682797
40
0.536901823034617
40
0.549667158760468
40
0.562289466036313
40
0.574768746078593
40
0.587105000146111
40
0.599298229542009
40
0.611348435615881
40
0.623255619765998
40
0.635019783441678
40
0.646640928145795
40
0.658119055437448
40
0.669454166934797
40
0.680646264318083
40
0.691695349332837
40
0.702601423793306
40
0.713364489586102
40
0.7239845486741
40
0.734461603100598
40
0.744795654993768
40
0.754986706571419
40
0.765034760146096
40
0.774939818130547
40
0.784701883043597
40
0.794320957516447
40
0.803797044299457
40
0.813130146269445
40
0.822320266437556
40
0.831367407957743
40
0.840271574135944
40
0.849032768439993
40
0.85765099451036
40
0.866126256171795
40
0.874458557445968
40
0.882647902565216
40
0.890694295987502
40
0.898597742412735
40
0.906358246800585
40
0.913975814389972
40
0.921450450720412
40
0.928782161655449
40
0.935970953408404
40
0.943016832570739
40
0.949919806143358
40
0.956679881571198
40
0.963297066781565
40
0.969771370226691
40
0.97610280093108
40
0.982291368544316
40
0.988337083400107
40
0.99423995658245
40
1
40
1
40
1
40
1
41
1
10
965
20
-50.0000000000036
30
0
41
1
10
964.998148389299
20
-49.9999760074349
30
0
41
1
10
964.99446007239
20
-49.9999282154251
30
0
41
1
10
964.988927864436
20
-49.9995440200552
30
0
41
1
10
964.983424128562
20
-49.9989379960493
30
0
41
1
10
964.977947316813
20
-49.998093736922
30
0
41
1
10
964.972497838944
20
-49.9970230451925
30
0
41
1
10
964.96707558655
20
-49.9957301967834
30
0
41
1
10
964.961680588358
20
-49.9942213991229
30
0
41
1
10
964.956312836809
20
-49.9925022880003
30
0
41
1
10
964.950972333947
20
-49.9905785898411
30
0
41
1
10
964.945659079275
20
-49.9884559463785
30
0
41
1
10
964.94037307297
20
-49.9861399609462
30
0
41
1
10
964.935114315034
20
-49.9836361861435
30
0
41
1
10
964.929882805516
20
-49.9809501270119
30
0
41
1
10
964.924678544454
20
-49.9780872401146
30
0
41
1
10
964.919501531891
20
-49.9750529337013
30
0
41
1
10
964.914351767871
20
-49.9718525675909
30
0
41
1
10
964.909229252439
20
-49.9684914531317
30
0
41
1
10
964.904133985644
20
-49.9649748531446
30
0
41
1
10
964.899065967533
20
-49.9613079818744
30
0
41
1
10
964.894025198158
20
-49.957496004942
30
0
41
1
10
964.889011677571
20
-49.9535440392993
30
0
41
1
10
964.884025405828
20
-49.9494571531873
30
0
41
1
10
964.879066382986
20
-49.9452403660958
30
0
41
1
10
964.874134609103
20
-49.9408986487257
30
0
41
1
10
964.869230084242
20
-49.9364369229538
30
0
41
1
10
964.864352808467
20
-49.9318600617993
30
0
41
1
10
964.859502781844
20
-49.9271728893936
30
0
41
1
10
964.854680004444
20
-49.9223801809506
30
0
41
1
10
964.849884476338
20
-49.9174866627404
30
0
41
1
10
964.845116197602
20
-49.9124970120645
30
0
41
1
10
964.840375168315
20
-49.907415857233
30
0
41
1
10
964.835661388559
20
-49.9022477775438
30
0
41
1
10
964.83097485842
20
-49.8969973032634
30
0
41
1
10
964.826315577986
20
-49.8916689156097
30
0
41
1
10
964.821683547352
20
-49.8862670467369
30
0
41
1
10
964.817078766615
20
-49.8807960797212
30
0
41
1
10
964.812501235877
20
-49.8752603485493
30
0
41
1
10
964.807950955244
20
-49.869664138107
30
0
41
1
10
964.803427924829
20
-49.8640116841714
30
0
41
1
10
964.798932144748
20
-49.8583071734027
30
0
41
1
10
964.794463615124
20
-49.8525547433381
30
0
41
1
10
964.790022336084
20
-49.8467584823878
30
0
41
1
10
964.785608307764
20
-49.8409224298312
30
0
41
1
10
964.781221530306
20
-49.8350505758154
30
0
41
1
10
964.776862003856
20
-49.8291468613545
30
0
41
1
10
964.77252972857
20
-49.8232151783298
30
0
41
1
10
964.768224704614
20
-49.817259369492
30
0
41
1
10
964.763946932159
20
-49.811283228464
30
0
41
1
10
964.759696411385
20
-49.8052904997447
30
0
41
1
10
964.755473142485
20
-49.7992848787142
30
0
41
1
10
964.751277125659
20
-49.7932700116396
30
0
41
1
10
964.747108361119
20
-49.7872494956824
30
0
41
1
10
964.74296684909
20
-49.781226878906
30
0
41
1
10
964.738852589808
20
-49.7752056602847
30
0
41
1
10
964.734765583523
20
-49.7691892897133
30
0
41
1
10
964.730705830499
20
-49.7631811680172
30
0
41
1
10
964.726673331017
20
-49.7571846469646
30
0
41
1
10
964.722668085373
20
-49.7512030292768
30
0
41
1
10
964.718690093881
20
-49.7452395686422
30
0
41
1
10
964.714739356877
20
-49.7392974697288
30
0
41
1
10
964.710815874713
20
-49.7333798881983
30
0
41
1
10
964.706919647768
20
-49.7274899307203
30
0
41
1
10
964.703050676442
20
-49.7216306549871
30
0
41
1
10
964.699208961163
20
-49.7158050697298
30
0
41
1
10
964.695394502387
20
-49.7100161347332
30
0
41
1
10
964.691607300601
20
-49.704266760853
30
0
41
1
10
964.687847356323
20
-49.6985598100317
30
0
41
1
10
964.684114670112
20
-49.6928980953164
30
0
41
1
10
964.680409242562
20
-49.6872843808754
30
0
41
1
10
964.676731074313
20
-49.6817213820165
30
0
41
1
10
964.673080166049
20
-49.6762117652044
30
0
41
1
10
964.66945651851
20
-49.6707581480795
30
0
41
1
10
964.665860132485
20
-49.6653630994737
30
0
41
1
10
964.662291008843
20
-49.6600291394387
30
0
41
1
10
964.658749148458
20
-49.6547587392277
30
0
41
1
10
964.655234552511
20
-49.6495543214489
30
0
41
1
10
964.651747221416
20
-49.6444182595939
30
0
41
1
10
964.64828715876
20
-49.6393528798337
30
0
41
1
10
964.644854357077
20
-49.6343604546063
30
0
41
1
10
964.64144884933
20
-49.6294432258803
30
0
41
1
10
964.638070523013
20
-49.6246033212232
30
0
41
1
10
964.634719791106
20
-49.6198430567812
30
0
41
1
10
964.63139517263
20
-49.6151638448049
30
0
41
1
10
964.628102010361
20
-49.610570130083
30
0
41
1
10
964.625887610491
20
-49.6075228729794
30
0
41
1
10
964.624793969866
20
-49.606017903526
30
0
0
SPLINE
5
278
100
AcDbEntity
8
1
62
256
6
ByLayer
370
18
48
1
60
0
100
AcDbSpline
70
4
71
3
72
40
73
36
40
0
40
0
40
0
40
0
40
0.0333310842128016
40
0.0664706611588963
40
0.0994189203514362
40
0.132176054624134
40
0.164742260205833
40
0.197117736797064
40
0.229302687648666
40
0.261297319642524
40
0.293101843374496
40
0.324716473239576
40
0.356141427519398
40
0.387376928472109
40
0.418423202424726
40
0.449280479868011
40
0.47994899555398
40
0.510428988596101
40
0.540720702572276
40
0.570824385630686
40
0.600740290598597
40
0.630468675094206
40
0.660009801641635
40
0.689363937789153
40
0.718531356230748
40
0.747512334931138
40
0.776307157254316
40
0.804916112095785
40
0.833339494018532
40
0.861577603392914
40
0.889630746540555
40
0.917499235882355
40
0.945183390090794
40
0.972683534246607
40
1
40
1
40
1
40
1
41
1
10
964.624793969865
20
-49.606017903526
30
0
41
1
10
964.622309375204
20
-49.602748048006
30
0
41
1
10
964.617354461383
20
-49.5962271242664
30
0
41
1
10
964.610176646774
20
-49.5863191943047
30
0
41
1
10
964.603212888404
20
-49.5763565833136
30
0
41
1
10
964.596479636385
20
-49.5663302295716
30
0
41
1
10
964.589972521035
20
-49.556245062597
30
0
41
1
10
964.583692702932
20
-49.5461022808399
30
0
41
1
10
964.577639873739
20
-49.535904059123
30
0
41
1
10
964.571814115266
20
-49.5256522982871
30
0
41
1
10
964.566215405703
20
-49.5153489572807
30
0
41
1
10
964.560843750761
20
-49.504995964957
30
0
41
1
10
964.55569914884
20
-49.494595243495
30
0
41
1
10
964.550781600283
20
-49.4841487021765
30
0
41
1
10
964.546091104917
20
-49.4736582390355
30
0
41
1
10
964.541627662706
20
-49.4631257404182
30
0
41
1
10
964.537391273578
20
-49.4525530810974
30
0
41
1
10
964.533381937471
20
-49.4419421242409
30
0
41
1
10
964.529599654321
20
-49.4312947214177
30
0
41
1
10
964.526044424064
20
-49.420612712596
30
0
41
1
10
964.522716246639
20
-49.4098979261428
30
0
41
1
10
964.519615121981
20
-49.3991521788246
30
0
41
1
10
964.516741050042
20
-49.3883772758015
30
0
41
1
10
964.514094030715
20
-49.3775750106523
30
0
41
1
10
964.511674064107
20
-49.3667471652812
30
0
41
1
10
964.509481149553
20
-49.3558955102668
30
0
41
1
10
964.507515289236
20
-49.3450218035757
30
0
41
1
10
964.505776474827
20
-49.3341277953205
30
0
41
1
10
964.504264736851
20
-49.3232152101831
30
0
41
1
10
964.502979962246
20
-49.3122858123801
30
0
41
1
10
964.501922568593
20
-49.3013411655846
30
0
41
1
10
964.501091012558
20
-49.2903835201266
30
0
41
1
10
964.500490996794
20
-49.2794125345809
30
0
41
1
10
964.50010144986
20
-49.2684373897213
30
0
41
1
10
964.500033740994
20
-49.2610758458763
30
0
41
1
10
964.5
20
-49.257407407411
30
0
0
SPLINE
5
279
100
AcDbEntity
8
1
62
256
6
ByLayer
370
18
48
1
60
0
100
AcDbSpline
70
4
71
3
72
17
73
13
40
0
40
0
40
0
40
0
40
0.250105089937477
40
0.250105089937477
40
0.312631362421846
40
0.312631362421846
40
0.375157634906216
40
0.500210179874954
40
0.500210179874954
40
0.750315269812432
40
0.750315269812432
40
1
40
1
40
1
40
1
41
1
10
964.5
20
49.3166666666631
30
0
41
1
10
964.659907034501
20
49.4286015908139
30
0
41
1
10
964.802864612289
20
49.5274008626205
30
0
41
1
10
964.958312627537
20
49.6340007742533
30
0
41
1
10
964.988249117436
20
49.6544816806922
30
0
41
1
10
965.045698578296
20
49.6937063076665
30
0
41
1
10
965.128205425451
20
49.7499153144825
30
0
41
1
10
965.199551043659
20
49.7982262658177
30
0
41
1
10
965.326963776545
20
49.8842637440006
30
0
41
1
10
965.391520006347
20
49.9275150628825
30
0
41
1
10
965.477967314685
20
49.9853345381803
30
0
41
1
10
965.499935249302
20
49.9999569007385
30
0
41
1
10
965.499995925272
20
49.9999972878059
30
0
0
SPLINE
5
27A
100
AcDbEntity
8
1
62
256
6
ByLayer
370
18
48
1
60
0
100
AcDbSpline
70
4
71
3
72
8
73
4
40
0
40
0
40
0
40
0
40
1
40
1
40
1
40
1
41
1
10
964.5
20
49.3166666666631
30
0
41
1
10
964.666676957419
20
49.1555456078253
30
0
41
1
10
964.833343818363
20
48.9944343089119
30
0
41
1
10
965
20
48.8333333333297
30
0
0
SPLINE
5
27B
100
AcDbEntity
8
1
62
256
6
ByLayer
370
18
48
1
60
0
100
AcDbSpline
70
4
71
1
72
4
73
2
40
0
40
0
40
1
40
1
41
1
10
965
20
-48.7648333333369
30
0
41
1
10
964.5
20
-49.257407407411
30
0
0
LINE
5
83
100
AcDbEntity
8
SK4
62
256
6
ByLayer
370
18
48
0.05
60
0
100
AcDbLine
10
4
20
0
30
0
11
962
21
0
31
0
39
0
210
0
220
0
230
1
0
LINE
5
85
100
AcDbEntity
8
81
62
256
6
ByLayer
370
18
48
1
60
0
100
AcDbLine
10
968
20
30
30
0
11
973
21
30
31
0
39
0
210
0
220
0
230
1
0
LINE
5
86
100
AcDbEntity
8
4
62
256
6
ByLayer
370
18
48
0.05
60
0
100
AcDbLine
10
962
20
30
30
0
11
968
21
30
31
0
39
0
210
0
220
0
230
1
0
LINE
5
88
100
AcDbEntity
8
80
62
256
6
ByLayer
370
18
48
1
60
0
100
AcDbLine
10
0
20
0
30
0
11
-5
21
0
31
0
39
0
210
0
220
0
230
1
0
LINE
5
89
100
AcDbEntity
8
1
62
256
6
ByLayer
370
18
48
1
60
0
100
AcDbLine
10
974.8
20
23.100505
30
0
11
974.8
21
17.100505
31
0
39
0
210
0
220
0
230
1
0
LINE
5
8B
100
AcDbEntity
8
1
62
256
6
ByLayer
370
13
48
1
60
0
100
AcDbLine
10
968.325198
20
17.655005
30
0
11
974.8
21
17.655005
31
0
39
0
210
0
220
0
230
1
0
LINE
5
8C
100
AcDbEntity
8
1
62
256
6
ByLayer
370
13
48
1
60
0
100
AcDbLine
10
968.325198
20
22.546005
30
0
11
974.8
21
22.546005
31
0
39
0
210
0
220
0
230
1
0
LINE
5
8D
100
AcDbEntity
8
1
62
256
6
ByLayer
370
18
48
1
60
0
100
AcDbLine
10
974.8
20
-17.100505
30
0
11
974.8
21
-23.100505
31
0
39
0
210
0
220
0
230
1
0
LINE
5
8E
100
AcDbEntity
8
1
62
256
6
ByLayer
370
13
48
1
60
0
100
AcDbLine
10
968.325198
20
-22.546005
30
0
11
974.8
21
-22.546005
31
0
39
0
210
0
220
0
230
1
0
LINE
5
8F
100
AcDbEntity
8
1
62
256
6
ByLayer
370
13
48
1
60
0
100
AcDbLine
10
968.325198
20
-17.655005
30
0
11
974.8
21
-17.655005
31
0
39
0
210
0
220
0
230
1
0
LINE
5
90
100
AcDbEntity
8
1
62
256
6
ByLayer
370
18
48
1
60
0
100
AcDbLine
10
974.8
20
-36.899495
30
0
11
974.8
21
-42.899495
31
0
39
0
210
0
220
0
230
1
0
LINE
5
91
100
AcDbEntity
8
1
62
256
6
ByLayer
370
13
48
1
60
0
100
AcDbLine
10
968.325198
20
-42.344995
30
0
11
974.8
21
-42.344995
31
0
39
0
210
0
220
0
230
1
0
LINE
5
92
100
AcDbEntity
8
1
62
256
6
ByLayer
370
13
48
1
60
0
100
AcDbLine
10
968.325198
20
-37.453995
30
0
11
974.8
21
-37.453995
31
0
39
0
210
0
220
0
230
1
0
LINE
5
93
100
AcDbEntity
8
1
62
256
6
ByLayer
370
18
48
1
60
0
100
AcDbLine
10
974.8
20
42.899495
30
0
11
974.8
21
36.899495
31
0
39
0
210
0
220
0
230
1
0
LINE
5
94
100
AcDbEntity
8
1
62
256
6
ByLayer
370
13
48
1
60
0
100
AcDbLine
10
968.325198
20
37.453995
30
0
11
974.8
21
37.453995
31
0
39
0
210
0
220
0
230
1
0
LINE
5
95
100
AcDbEntity
8
1
62
256
6
ByLayer
370
13
48
1
60
0
100
AcDbLine
10
968.325198
20
42.344995
30
0
11
974.8
21
42.344995
31
0
39
0
210
0
220
0
230
1
0
LINE
5
96
100
AcDbEntity
8
1
62
256
6
ByLayer
370
18
48
1
60
0
100
AcDbLine
10
0
20
-49.7
30
0
11
0.3
21
-50
31
0
39
0
210
0
220
0
230
1
0
LINE
5
97
100
AcDbEntity
8
1
62
256
6
ByLayer
370
18
48
1
60
0
100
AcDbLine
10
0.3
20
50
30
0
11
0
21
49.7
31
0
39
0
210
0
220
0
230
1
0
LINE
5
98
100
AcDbEntity
8
1
62
256
6
ByLayer
370
18
48
1
60
0
100
AcDbLine
10
961.8
20
50
30
0
11
0.3
21
50
31
0
39
0
210
0
220
0
230
1
0
LINE
5
99
100
AcDbEntity
8
1
62
256
6
ByLayer
370
18
48
1
60
0
100
AcDbLine
10
0.3
20
-50
30
0
11
961.8
21
-50
31
0
39
0
210
0
220
0
230
1
0
LINE
5
9A
100
AcDbEntity
8
1
62
256
6
ByLayer
370
18
48
1
60
0
100
AcDbLine
10
968.325098
20
17.100505
30
0
11
974.8
21
17.100505
31
0
39
0
210
0
220
0
230
1
0
LINE
5
9B
100
AcDbEntity
8
1
62
256
6
ByLayer
370
18
48
1
60
0
100
AcDbLine
10
974.8
20
23.100505
30
0
11
968.325098
21
23.100505
31
0
39
0
210
0
220
0
230
1
0
LINE
5
9C
100
AcDbEntity
8
1
62
256
6
ByLayer
370
18
48
1
60
0
100
AcDbLine
10
975
20
15.100505
30
0
11
980.4
21
15.100505
31
0
39
0
210
0
220
0
230
1
0
LINE
5
9D
100
AcDbEntity
8
1
62
256
6
ByLayer
370
18
48
1
60
0
100
AcDbLine
10
980.4
20
25.100505
30
0
11
975
21
25.100505
31
0
39
0
210
0
220
0
230
1
0
LINE
5
9E
100
AcDbEntity
8
1
62
256
6
ByLayer
370
18
48
1
60
0
100
AcDbLine
10
968.325098
20
-23.100505
30
0
11
974.8
21
-23.100505
31
0
39
0
210
0
220
0
230
1
0
LINE
5
9F
100
AcDbEntity
8
1
62
256
6
ByLayer
370
18
48
1
60
0
100
AcDbLine
10
974.8
20
-17.100505
30
0
11
968.325098
21
-17.100505
31
0
39
0
210
0
220
0
230
1
0
LINE
5
A0
100
AcDbEntity
8
1
62
256
6
ByLayer
370
18
48
1
60
0
100
AcDbLine
10
975
20
-25.100505
30
0
11
980.4
21
-25.100505
31
0
39
0
210
0
220
0
230
1
0
LINE
5
A1
100
AcDbEntity
8
1
62
256
6
ByLayer
370
18
48
1
60
0
100
AcDbLine
10
980.4
20
-15.100505
30
0
11
975
21
-15.100505
31
0
39
0
210
0
220
0
230
1
0
LINE
5
A2
100
AcDbEntity
8
1
62
256
6
ByLayer
370
18
48
1
60
0
100
AcDbLine
10
968.325098
20
-42.899495
30
0
11
974.8
21
-42.899495
31
0
39
0
210
0
220
0
230
1
0
LINE
5
A3
100
AcDbEntity
8
1
62
256
6
ByLayer
370
18
48
1
60
0
100
AcDbLine
10
974.8
20
-36.899495
30
0
11
968.325098
21
-36.899495
31
0
39
0
210
0
220
0
230
1
0
LINE
5
A4
100
AcDbEntity
8
1
62
256
6
ByLayer
370
18
48
1
60
0
100
AcDbLine
10
975
20
-44.899495
30
0
11
980.4
21
-44.899495
31
0
39
0
210
0
220
0
230
1
0
LINE
5
A5
100
AcDbEntity
8
1
62
256
6
ByLayer
370
18
48
1
60
0
100
AcDbLine
10
980.4
20
-34.899495
30
0
11
975
21
-34.899495
31
0
39
0
210
0
220
0
230
1
0
LINE
5
A6
100
AcDbEntity
8
1
62
256
6
ByLayer
370
18
48
1
60
0
100
AcDbLine
10
968.325098
20
36.899495
30
0
11
974.8
21
36.899495
31
0
39
0
210
0
220
0
230
1
0
LINE
5
A7
100
AcDbEntity
8
1
62
256
6
ByLayer
370
18
48
1
60
0
100
AcDbLine
10
974.8
20
42.899495
30
0
11
968.325098
21
42.899495
31
0
39
0
210
0
220
0
230
1
0
LINE
5
A8
100
AcDbEntity
8
1
62
256
6
ByLayer
370
18
48
1
60
0
100
AcDbLine
10
975
20
34.899495
30
0
11
980.4
21
34.899495
31
0
39
0
210
0
220
0
230
1
0
LINE
5
A9
100
AcDbEntity
8
1
62
256
6
ByLayer
370
18
48
1
60
0
100
AcDbLine
10
980.4
20
44.899495
30
0
11
975
21
44.899495
31
0
39
0
210
0
220
0
230
1
0
LINE
5
AA
100
AcDbEntity
8
1
62
256
6
ByLayer
370
18
48
1
60
0
100
AcDbLine
10
967.556678
20
49.768322
30
0
11
967.325
21
50
31
0
39
0
210
0
220
0
230
1
0
LINE
5
AB
100
AcDbEntity
8
1
62
256
6
ByLayer
370
18
48
1
60
0
100
AcDbLine
10
967.325
20
10
30
0
11
967.556678
21
10.231678
31
0
39
0
210
0
220
0
230
1
0
LINE
5
AC
100
AcDbEntity
8
1
62
256
6
ByLayer
370
18
48
1
60
0
100
AcDbLine
10
965.5
20
10
30
0
11
967.325
21
10
31
0
39
0
210
0
220
0
230
1
0
LINE
5
AD
100
AcDbEntity
8
1
62
256
6
ByLayer
370
18
48
1
60
0
100
AcDbLine
10
967.325
20
50
30
0
11
965.5
21
50
31
0
39
0
210
0
220
0
230
1
0
LINE
5
AE
100
AcDbEntity
8
1
62
256
6
ByLayer
370
18
48
1
60
0
100
AcDbLine
10
967.556678
20
-10.231678
30
0
11
967.325
21
-10
31
0
39
0
210
0
220
0
230
1
0
LINE
5
AF
100
AcDbEntity
8
1
62
256
6
ByLayer
370
18
48
1
60
0
100
AcDbLine
10
967.325
20
-50
30
0
11
967.556678
21
-49.768322
31
0
39
0
210
0
220
0
230
1
0
LINE
5
B0
100
AcDbEntity
8
1
62
256
6
ByLayer
370
18
48
1
60
0
100
AcDbLine
10
965
20
-50
30
0
11
967.325
21
-50
31
0
39
0
210
0
220
0
230
1
0
LINE
5
B1
100
AcDbEntity
8
1
62
256
6
ByLayer
370
18
48
1
60
0
100
AcDbLine
10
967.325
20
-10
30
0
11
965.6
21
-10
31
0
39
0
210
0
220
0
230
1
0
LINE
5
B2
100
AcDbEntity
8
1
62
256
6
ByLayer
370
18
48
1
60
0
100
AcDbLine
10
965
20
9.5
30
0
11
965.5
21
10
31
0
39
0
210
0
220
0
230
1
0
LINE
5
B3
100
AcDbEntity
8
1
62
256
6
ByLayer
370
18
48
1
60
0
100
AcDbLine
10
965.5
20
50
30
0
11
962.25
21
50
31
0
39
0
210
0
220
0
230
1
0
LINE
5
B4
100
AcDbEntity
8
1
62
256
6
ByLayer
370
18
48
1
60
0
100
AcDbLine
10
962.25
20
-50
30
0
11
965
21
-50
31
0
39
0
210
0
220
0
230
1
0
LINE
5
B5
100
AcDbEntity
8
SK1
62
256
6
ByLayer
370
18
48
1
60
0
100
AcDbLine
10
-0.2
20
-6.815135
30
0
11
-0.2
21
-37.983485
31
0
39
0
210
0
220
0
230
1
0
LINE
5
B7
100
AcDbEntity
8
SK1
62
256
6
ByLayer
370
18
48
1
60
0
100
AcDbLine
10
-0.2
20
37.983485
30
0
11
-0.2
21
6.815135
31
0
39
0
210
0
220
0
230
1
0
LINE
5
B8
100
AcDbEntity
8
SK1
62
256
6
ByLayer
370
13
48
1
60
0
100
AcDbLine
10
-1.307107
20
4.605927
30
0
11
-1.307107
21
-4.605926
31
0
39
0
210
0
220
0
230
1
0
LINE
5
B9
100
AcDbEntity
8
1
62
256
6
ByLayer
370
13
48
1
60
0
100
AcDbLine
10
18.211325
20
-14.993155
30
0
11
18.211325
21
-47.699112
31
0
39
0
210
0
220
0
230
1
0
LINE
5
BA
100
AcDbEntity
8
1
62
256
6
ByLayer
370
13
48
1
60
0
100
AcDbLine
10
18.644338
20
-15.513346
30
0
11
18.644338
21
-47.532474
31
0
39
0
210
0
220
0
230
1
0
LINE
5
BB
100
AcDbEntity
8
1
62
256
6
ByLayer
370
13
48
1
60
0
100
AcDbLine
10
13.355662
20
47.532474
30
0
11
13.355662
21
15.513346
31
0
39
0
210
0
220
0
230
1
0
LINE
5
BC
100
AcDbEntity
8
1
62
256
6
ByLayer
370
13
48
1
60
0
100
AcDbLine
10
13.788675
20
47.699112
30
0
11
13.788675
21
14.993155
31
0
39
0
210
0
220
0
230
1
0
LINE
5
BD
100
AcDbEntity
8
1
62
256
6
ByLayer
370
13
48
1
60
0
100
AcDbLine
10
13.355662
20
-15.513346
30
0
11
13.355662
21
-47.532474
31
0
39
0
210
0
220
0
230
1
0
LINE
5
BE
100
AcDbEntity
8
1
62
256
6
ByLayer
370
13
48
1
60
0
100
AcDbLine
10
13.788675
20
-14.993155
30
0
11
13.788675
21
-47.699112
31
0
39
0
210
0
220
0
230
1
0
LINE
5
BF
100
AcDbEntity
8
1
62
256
6
ByLayer
370
13
48
1
60
0
100
AcDbLine
10
18.211325
20
47.699112
30
0
11
18.211325
21
14.993155
31
0
39
0
210
0
220
0
230
1
0
LINE
5
C0
100
AcDbEntity
8
1
62
256
6
ByLayer
370
13
48
1
60
0
100
AcDbLine
10
18.644338
20
47.532474
30
0
11
18.644338
21
15.513346
31
0
39
0
210
0
220
0
230
1
0
LINE
5
C1
100
AcDbEntity
8
1
62
256
6
ByLayer
370
18
48
1
60
0
100
AcDbLine
10
0
20
-49.7
30
0
11
0
21
49.7
31
0
39
0
210
0
220
0
230
1
0
LINE
5
C2
100
AcDbEntity
8
1
62
256
6
ByLayer
370
18
48
1
60
0
100
AcDbLine
10
0.3
20
-50
30
0
11
0.3
21
50
31
0
39
0
210
0
220
0
230
1
0
LINE
5
C3
100
AcDbEntity
8
1
62
256
6
ByLayer
370
18
48
1
60
0
100
AcDbLine
10
18.211325
20
14.993155
30
0
11
13.788675
21
14.993155
31
0
39
0
210
0
220
0
230
1
0
LINE
5
C4
100
AcDbEntity
8
1
62
256
6
ByLayer
370
18
48
1
60
0
100
AcDbLine
10
13.788675
20
47.699112
30
0
11
18.211325
21
47.699112
31
0
39
0
210
0
220
0
230
1
0
LINE
5
C5
100
AcDbEntity
8
1
62
256
6
ByLayer
370
18
48
1
60
0
100
AcDbLine
10
13.788675
20
-14.993155
30
0
11
18.211325
21
-14.993155
31
0
39
0
210
0
220
0
230
1
0
LINE
5
C6
100
AcDbEntity
8
1
62
256
6
ByLayer
370
18
48
1
60
0
100
AcDbLine
10
18.211325
20
-47.699112
30
0
11
13.788675
21
-47.699112
31
0
39
0
210
0
220
0
230
1
0
LINE
5
C7
100
AcDbEntity
8
1
62
256
6
ByLayer
370
13
48
1
60
0
100
AcDbLine
10
961.8
20
50
30
0
11
961.8
21
-50
31
0
39
0
210
0
220
0
230
1
0
LINE
5
C8
100
AcDbEntity
8
1
62
256
6
ByLayer
370
18
48
1
60
0
100
AcDbLine
10
962
20
49.8
30
0
11
962
21
-49.8
31
0
39
0
210
0
220
0
230
1
0
LINE
5
C9
100
AcDbEntity
8
1
62
256
6
ByLayer
370
13
48
1
60
0
100
AcDbLine
10
974.8
20
23.100505
30
0
11
974.8
21
20.100505
31
0
39
0
210
0
220
0
230
1
0
LINE
5
CA
100
AcDbEntity
8
1
62
256
6
ByLayer
370
13
48
1
60
0
100
AcDbLine
10
974.8
20
20.100505
30
0
11
974.8
21
17.100505
31
0
39
0
210
0
220
0
230
1
0
LINE
5
CB
100
AcDbEntity
8
1
62
256
6
ByLayer
370
18
48
1
60
0
100
AcDbLine
10
975
20
15.100505
30
0
11
975
21
20.100505
31
0
39
0
210
0
220
0
230
1
0
LINE
5
CC
100
AcDbEntity
8
1
62
256
6
ByLayer
370
18
48
1
60
0
100
AcDbLine
10
975
20
20.100505
30
0
11
975
21
25.100505
31
0
39
0
210
0
220
0
230
1
0
LINE
5
CD
100
AcDbEntity
8
1
62
256
6
ByLayer
370
13
48
1
60
0
100
AcDbLine
10
980.4
20
25.100505
30
0
11
980.4
21
20.100505
31
0
39
0
210
0
220
0
230
1
0
LINE
5
CE
100
AcDbEntity
8
1
62
256
6
ByLayer
370
13
48
1
60
0
100
AcDbLine
10
980.4
20
20.100505
30
0
11
980.4
21
15.100505
31
0
39
0
210
0
220
0
230
1
0
LINE
5
CF
100
AcDbEntity
8
1
62
256
6
ByLayer
370
18
48
1
60
0
100
AcDbLine
10
981
20
15.700505
30
0
11
981
21
20.100505
31
0
39
0
210
0
220
0
230
1
0
LINE
5
D0
100
AcDbEntity
8
1
62
256
6
ByLayer
370
18
48
1
60
0
100
AcDbLine
10
981
20
20.100505
30
0
11
981
21
24.500505
31
0
39
0
210
0
220
0
230
1
0
LINE
5
D1
100
AcDbEntity
8
1
62
256
6
ByLayer
370
13
48
1
60
0
100
AcDbLine
10
974.8
20
-17.100505
30
0
11
974.8
21
-23.100505
31
0
39
0
210
0
220
0
230
1
0
LINE
5
D2
100
AcDbEntity
8
1
62
256
6
ByLayer
370
18
48
1
60
0
100
AcDbLine
10
975
20
-15.100505
30
0
11
975
21
-25.100505
31
0
39
0
210
0
220
0
230
1
0
LINE
5
D3
100
AcDbEntity
8
1
62
256
6
ByLayer
370
13
48
1
60
0
100
AcDbLine
10
980.4
20
-15.100505
30
0
11
980.4
21
-25.100505
31
0
39
0
210
0
220
0
230
1
0
LINE
5
D4
100
AcDbEntity
8
1
62
256
6
ByLayer
370
18
48
1
60
0
100
AcDbLine
10
981
20
-15.700505
30
0
11
981
21
-24.500505
31
0
39
0
210
0
220
0
230
1
0
LINE
5
D5
100
AcDbEntity
8
1
62
256
6
ByLayer
370
13
48
1
60
0
100
AcDbLine
10
974.8
20
-36.899495
30
0
11
974.8
21
-39.899495
31
0
39
0
210
0
220
0
230
1
0
LINE
5
D6
100
AcDbEntity
8
1
62
256
6
ByLayer
370
13
48
1
60
0
100
AcDbLine
10
974.8
20
-39.899495
30
0
11
974.8
21
-42.899495
31
0
39
0
210
0
220
0
230
1
0
LINE
5
D7
100
AcDbEntity
8
1
62
256
6
ByLayer
370
18
48
1
60
0
100
AcDbLine
10
975
20
-44.899495
30
0
11
975
21
-39.899495
31
0
39
0
210
0
220
0
230
1
0
LINE
5
D8
100
AcDbEntity
8
1
62
256
6
ByLayer
370
18
48
1
60
0
100
AcDbLine
10
975
20
-39.899495
30
0
11
975
21
-34.899495
31
0
39
0
210
0
220
0
230
1
0
LINE
5
D9
100
AcDbEntity
8
1
62
256
6
ByLayer
370
13
48
1
60
0
100
AcDbLine
10
980.4
20
-34.899495
30
0
11
980.4
21
-39.899495
31
0
39
0
210
0
220
0
230
1
0
LINE
5
DA
100
AcDbEntity
8
1
62
256
6
ByLayer
370
13
48
1
60
0
100
AcDbLine
10
980.4
20
-39.899495
30
0
11
980.4
21
-44.899495
31
0
39
0
210
0
220
0
230
1
0
LINE
5
DB
100
AcDbEntity
8
1
62
256
6
ByLayer
370
18
48
1
60
0
100
AcDbLine
10
981
20
-44.299495
30
0
11
981
21
-39.899495
31
0
39
0
210
0
220
0
230
1
0
LINE
5
DC
100
AcDbEntity
8
1
62
256
6
ByLayer
370
18
48
1
60
0
100
AcDbLine
10
981
20
-39.899495
30
0
11
981
21
-35.499495
31
0
39
0
210
0
220
0
230
1
0
LINE
5
DD
100
AcDbEntity
8
1
62
256
6
ByLayer
370
13
48
1
60
0
100
AcDbLine
10
974.8
20
42.899495
30
0
11
974.8
21
36.899495
31
0
39
0
210
0
220
0
230
1
0
LINE
5
DE
100
AcDbEntity
8
1
62
256
6
ByLayer
370
18
48
1
60
0
100
AcDbLine
10
975
20
44.899495
30
0
11
975
21
34.899495
31
0
39
0
210
0
220
0
230
1
0
LINE
5
DF
100
AcDbEntity
8
1
62
256
6
ByLayer
370
13
48
1
60
0
100
AcDbLine
10
980.4
20
44.899495
30
0
11
980.4
21
34.899495
31
0
39
0
210
0
220
0
230
1
0
LINE
5
E0
100
AcDbEntity
8
1
62
256
6
ByLayer
370
18
48
1
60
0
100
AcDbLine
10
981
20
44.299495
30
0
11
981
21
35.499495
31
0
39
0
210
0
220
0
230
1
0
LINE
5
E1
100
AcDbEntity
8
1
62
256
6
ByLayer
370
18
48
1
60
0
100
AcDbLine
10
968.325
20
11.112452
30
0
11
968.325
21
11.023137
31
0
39
0
210
0
220
0
230
1
0
LINE
5
E2
100
AcDbEntity
8
1
62
256
6
ByLayer
370
18
48
1
60
0
100
AcDbLine
10
968.325
20
-48.887548
30
0
11
968.325
21
-48.976863
31
0
39
0
210
0
220
0
230
1
0
LINE
5
E3
100
AcDbEntity
8
1
62
256
6
ByLayer
370
18
48
1
60
0
100
AcDbLine
10
968.325
20
48.976863
30
0
11
968.325
21
48.887548
31
0
39
0
210
0
220
0
230
1
0
LINE
5
E4
100
AcDbEntity
8
1
62
256
6
ByLayer
370
18
48
1
60
0
100
AcDbLine
10
968.325
20
-11.023137
30
0
11
968.325
21
-11.112452
31
0
39
0
210
0
220
0
230
1
0
LINE
5
E5
100
AcDbEntity
8
1
62
256
6
ByLayer
370
13
48
1
60
0
100
AcDbLine
10
967.65725
20
10.403899
30
0
11
967.65725
21
10.376791
31
0
39
0
210
0
220
0
230
1
0
LINE
5
E6
100
AcDbEntity
8
1
62
256
6
ByLayer
370
13
48
1
60
0
100
AcDbLine
10
967.65725
20
-49.596101
30
0
11
967.65725
21
-49.623209
31
0
39
0
210
0
220
0
230
1
0
LINE
5
E7
100
AcDbEntity
8
1
62
256
6
ByLayer
370
13
48
1
60
0
100
AcDbLine
10
967.65725
20
49.623209
30
0
11
967.65725
21
49.596101
31
0
39
0
210
0
220
0
230
1
0
LINE
5
E8
100
AcDbEntity
8
1
62
256
6
ByLayer
370
13
48
1
60
0
100
AcDbLine
10
967.65725
20
-10.376791
30
0
11
967.65725
21
-10.403899
31
0
39
0
210
0
220
0
230
1
0
LINE
5
E9
100
AcDbEntity
8
1
62
256
6
ByLayer
370
18
48
1
60
0
100
AcDbLine
10
968.325
20
-11.156985
30
0
11
968.325
21
-11.337141
31
0
39
0
210
0
220
0
230
1
0
LINE
5
EA
100
AcDbEntity
8
1
62
256
6
ByLayer
370
18
48
1
60
0
100
AcDbLine
10
968.325
20
-48.662859
30
0
11
968.325
21
-48.843015
31
0
39
0
210
0
220
0
230
1
0
LINE
5
EB
100
AcDbEntity
8
1
62
256
6
ByLayer
370
18
48
1
60
0
100
AcDbLine
10
968.325
20
11.337141
30
0
11
968.325
21
11.156985
31
0
39
0
210
0
220
0
230
1
0
LINE
5
EC
100
AcDbEntity
8
1
62
256
6
ByLayer
370
18
48
1
60
0
100
AcDbLine
10
968.325
20
48.843015
30
0
11
968.325
21
48.662859
31
0
39
0
210
0
220
0
230
1
0
LINE
5
ED
100
AcDbEntity
8
1
62
256
6
ByLayer
370
13
48
1
60
0
100
AcDbLine
10
967.65725
20
10.590748
30
0
11
967.65725
21
10.535888
31
0
39
0
210
0
220
0
230
1
0
LINE
5
EE
100
AcDbEntity
8
1
62
256
6
ByLayer
370
13
48
1
60
0
100
AcDbLine
10
967.65725
20
-49.409252
30
0
11
967.65725
21
-49.464112
31
0
39
0
210
0
220
0
230
1
0
LINE
5
EF
100
AcDbEntity
8
1
62
256
6
ByLayer
370
13
48
1
60
0
100
AcDbLine
10
967.65725
20
-10.535888
30
0
11
967.65725
21
-10.590748
31
0
39
0
210
0
220
0
230
1
0
LINE
5
F0
100
AcDbEntity
8
1
62
256
6
ByLayer
370
13
48
1
60
0
100
AcDbLine
10
967.65725
20
49.464112
30
0
11
967.65725
21
49.409252
31
0
39
0
210
0
220
0
230
1
0
LINE
5
F1
100
AcDbEntity
8
1
62
256
6
ByLayer
370
18
48
1
60
0
100
AcDbLine
10
968.325
20
-11.412448
30
0
11
968.325
21
-11.687061
31
0
39
0
210
0
220
0
230
1
0
LINE
5
F2
100
AcDbEntity
8
1
62
256
6
ByLayer
370
18
48
1
60
0
100
AcDbLine
10
968.325
20
-48.312939
30
0
11
968.325
21
-48.587552
31
0
39
0
210
0
220
0
230
1
0
LINE
5
F3
100
AcDbEntity
8
1
62
256
6
ByLayer
370
18
48
1
60
0
100
AcDbLine
10
968.325
20
11.687061
30
0
11
968.325
21
11.412448
31
0
39
0
210
0
220
0
230
1
0
LINE
5
F4
100
AcDbEntity
8
1
62
256
6
ByLayer
370
18
48
1
60
0
100
AcDbLine
10
968.325
20
48.587552
30
0
11
968.325
21
48.312939
31
0
39
0
210
0
220
0
230
1
0
LINE
5
F5
100
AcDbEntity
8
1
62
256
6
ByLayer
370
13
48
1
60
0
100
AcDbLine
10
967.65725
20
-49.103454
30
0
11
967.65725
21
-49.186791
31
0
39
0
210
0
220
0
230
1
0
LINE
5
F6
100
AcDbEntity
8
1
62
256
6
ByLayer
370
13
48
1
60
0
100
AcDbLine
10
967.65725
20
-10.813209
30
0
11
967.65725
21
-10.896546
31
0
39
0
210
0
220
0
230
1
0
LINE
5
F7
100
AcDbEntity
8
1
62
256
6
ByLayer
370
13
48
1
60
0
100
AcDbLine
10
967.65725
20
10.896546
30
0
11
967.65725
21
10.813209
31
0
39
0
210
0
220
0
230
1
0
LINE
5
F8
100
AcDbEntity
8
1
62
256
6
ByLayer
370
13
48
1
60
0
100
AcDbLine
10
967.65725
20
49.186791
30
0
11
967.65725
21
49.103454
31
0
39
0
210
0
220
0
230
1
0
LINE
5
F9
100
AcDbEntity
8
1
62
256
6
ByLayer
370
18
48
1
60
0
100
AcDbLine
10
968.325
20
-11.794644
30
0
11
968.325
21
-12.169467
31
0
39
0
210
0
220
0
230
1
0
LINE
5
FA
100
AcDbEntity
8
1
62
256
6
ByLayer
370
18
48
1
60
0
100
AcDbLine
10
968.325
20
-47.830533
30
0
11
968.325
21
-48.205356
31
0
39
0
210
0
220
0
230
1
0
LINE
5
FB
100
AcDbEntity
8
1
62
256
6
ByLayer
370
18
48
1
60
0
100
AcDbLine
10
968.325
20
48.205356
30
0
11
968.325
21
47.830533
31
0
39
0
210
0
220
0
230
1
0
LINE
5
FC
100
AcDbEntity
8
1
62
256
6
ByLayer
370
18
48
1
60
0
100
AcDbLine
10
968.325
20
12.169467
30
0
11
968.325
21
11.794644
31
0
39
0
210
0
220
0
230
1
0
LINE
5
FD
100
AcDbEntity
8
1
62
256
6
ByLayer
370
13
48
1
60
0
100
AcDbLine
10
967.65725
20
48.786012
30
0
11
967.65725
21
48.672122
31
0
39
0
210
0
220
0
230
1
0
LINE
5
FE
100
AcDbEntity
8
1
62
256
6
ByLayer
370
13
48
1
60
0
100
AcDbLine
10
967.65725
20
11.327878
30
0
11
967.65725
21
11.213988
31
0
39
0
210
0
220
0
230
1
0
LINE
5
FF
100
AcDbEntity
8
1
62
256
6
ByLayer
370
13
48
1
60
0
100
AcDbLine
10
967.65725
20
-11.213988
30
0
11
967.65725
21
-11.327878
31
0
39
0
210
0
220
0
230
1
0
LINE
5
100
100
AcDbEntity
8
1
62
256
6
ByLayer
370
13
48
1
60
0
100
AcDbLine
10
967.65725
20
-48.672122
30
0
11
967.65725
21
-48.786012
31
0
39
0
210
0
220
0
230
1
0
LINE
5
101
100
AcDbEntity
8
1
62
256
6
ByLayer
370
18
48
1
60
0
100
AcDbLine
10
968.325
20
-47.204427
30
0
11
968.325
21
-47.688213
31
0
39
0
210
0
220
0
230
1
0
LINE
5
102
100
AcDbEntity
8
1
62
256
6
ByLayer
370
18
48
1
60
0
100
AcDbLine
10
968.325
20
47.688213
30
0
11
968.325
21
47.204427
31
0
39
0
210
0
220
0
230
1
0
LINE
5
103
100
AcDbEntity
8
1
62
256
6
ByLayer
370
18
48
1
60
0
100
AcDbLine
10
968.325
20
-12.311787
30
0
11
968.325
21
-12.795573
31
0
39
0
210
0
220
0
230
1
0
LINE
5
104
100
AcDbEntity
8
1
62
256
6
ByLayer
370
18
48
1
60
0
100
AcDbLine
10
968.325
20
12.795573
30
0
11
968.325
21
12.311787
31
0
39
0
210
0
220
0
230
1
0
LINE
5
105
100
AcDbEntity
8
1
62
256
6
ByLayer
370
13
48
1
60
0
100
AcDbLine
10
967.65725
20
48.253645
30
0
11
967.65725
21
48.10742
31
0
39
0
210
0
220
0
230
1
0
LINE
5
106
100
AcDbEntity
8
1
62
256
6
ByLayer
370
13
48
1
60
0
100
AcDbLine
10
967.65725
20
-48.10742
30
0
11
967.65725
21
-48.253645
31
0
39
0
210
0
220
0
230
1
0
LINE
5
107
100
AcDbEntity
8
1
62
256
6
ByLayer
370
13
48
1
60
0
100
AcDbLine
10
967.65725
20
-11.746355
30
0
11
967.65725
21
-11.89258
31
0
39
0
210
0
220
0
230
1
0
LINE
5
108
100
AcDbEntity
8
1
62
256
6
ByLayer
370
13
48
1
60
0
100
AcDbLine
10
967.65725
20
11.89258
30
0
11
967.65725
21
11.746355
31
0
39
0
210
0
220
0
230
1
0
LINE
5
109
100
AcDbEntity
8
1
62
256
6
ByLayer
370
18
48
1
60
0
100
AcDbLine
10
968.325
20
47.023829
30
0
11
968.325
21
46.418146
31
0
39
0
210
0
220
0
230
1
0
LINE
5
10A
100
AcDbEntity
8
1
62
256
6
ByLayer
370
18
48
1
60
0
100
AcDbLine
10
968.325
20
13.581854
30
0
11
968.325
21
12.976171
31
0
39
0
210
0
220
0
230
1
0
LINE
5
10B
100
AcDbEntity
8
1
62
256
6
ByLayer
370
18
48
1
60
0
100
AcDbLine
10
968.325
20
-46.418146
30
0
11
968.325
21
-47.023829
31
0
39
0
210
0
220
0
230
1
0
LINE
5
10C
100
AcDbEntity
8
1
62
256
6
ByLayer
370
18
48
1
60
0
100
AcDbLine
10
968.325
20
-12.976171
30
0
11
968.325
21
-13.581854
31
0
39
0
210
0
220
0
230
1
0
LINE
5
10D
100
AcDbEntity
8
1
62
256
6
ByLayer
370
13
48
1
60
0
100
AcDbLine
10
967.65725
20
12.604596
30
0
11
967.65725
21
12.422262
31
0
39
0
210
0
220
0
230
1
0
LINE
5
10E
100
AcDbEntity
8
1
62
256
6
ByLayer
370
13
48
1
60
0
100
AcDbLine
10
967.65725
20
-47.395404
30
0
11
967.65725
21
-47.577738
31
0
39
0
210
0
220
0
230
1
0
LINE
5
10F
100
AcDbEntity
8
1
62
256
6
ByLayer
370
13
48
1
60
0
100
AcDbLine
10
967.65725
20
-12.422262
30
0
11
967.65725
21
-12.604596
31
0
39
0
210
0
220
0
230
1
0
LINE
5
110
100
AcDbEntity
8
1
62
256
6
ByLayer
370
13
48
1
60
0
100
AcDbLine
10
967.65725
20
47.577738
30
0
11
967.65725
21
47.395404
31
0
39
0
210
0
220
0
230
1
0
LINE
5
111
100
AcDbEntity
8
1
62
256
6
ByLayer
370
18
48
1
60
0
100
AcDbLine
10
968.325
20
-45.447252
30
0
11
968.325
21
-46.194093
31
0
39
0
210
0
220
0
230
1
0
LINE
5
112
100
AcDbEntity
8
1
62
256
6
ByLayer
370
18
48
1
60
0
100
AcDbLine
10
968.325
20
-13.805907
30
0
11
968.325
21
-14.552748
31
0
39
0
210
0
220
0
230
1
0
LINE
5
113
100
AcDbEntity
8
1
62
256
6
ByLayer
370
18
48
1
60
0
100
AcDbLine
10
968.325
20
14.552748
30
0
11
968.325
21
13.805907
31
0
39
0
210
0
220
0
230
1
0
LINE
5
114
100
AcDbEntity
8
1
62
256
6
ByLayer
370
18
48
1
60
0
100
AcDbLine
10
968.325
20
46.194093
30
0
11
968.325
21
45.447252
31
0
39
0
210
0
220
0
230
1
0
LINE
5
115
100
AcDbEntity
8
1
62
256
6
ByLayer
370
13
48
1
60
0
100
AcDbLine
10
967.65725
20
13.482767
30
0
11
967.65725
21
13.259087
31
0
39
0
210
0
220
0
230
1
0
LINE
5
116
100
AcDbEntity
8
1
62
256
6
ByLayer
370
13
48
1
60
0
100
AcDbLine
10
967.65725
20
-46.517233
30
0
11
967.65725
21
-46.740913
31
0
39
0
210
0
220
0
230
1
0
LINE
5
117
100
AcDbEntity
8
1
62
256
6
ByLayer
370
13
48
1
60
0
100
AcDbLine
10
967.65725
20
46.740913
30
0
11
967.65725
21
46.517233
31
0
39
0
210
0
220
0
230
1
0
LINE
5
118
100
AcDbEntity
8
1
62
256
6
ByLayer
370
13
48
1
60
0
100
AcDbLine
10
967.65725
20
-13.259087
30
0
11
967.65725
21
-13.482767
31
0
39
0
210
0
220
0
230
1
0
LINE
5
119
100
AcDbEntity
8
1
62
256
6
ByLayer
370
18
48
1
60
0
100
AcDbLine
10
968.325
20
15.745873
30
0
11
968.325
21
14.828101
31
0
39
0
210
0
220
0
230
1
0
LINE
5
11A
100
AcDbEntity
8
1
62
256
6
ByLayer
370
18
48
1
60
0
100
AcDbLine
10
968.325
20
-44.254127
30
0
11
968.325
21
-45.171899
31
0
39
0
210
0
220
0
230
1
0
LINE
5
11B
100
AcDbEntity
8
1
62
256
6
ByLayer
370
18
48
1
60
0
100
AcDbLine
10
968.325
20
45.171899
30
0
11
968.325
21
44.254127
31
0
39
0
210
0
220
0
230
1
0
LINE
5
11C
100
AcDbEntity
8
1
62
256
6
ByLayer
370
18
48
1
60
0
100
AcDbLine
10
968.325
20
-14.828101
30
0
11
968.325
21
-15.745873
31
0
39
0
210
0
220
0
230
1
0
LINE
5
11D
100
AcDbEntity
8
1
62
256
6
ByLayer
370
13
48
1
60
0
100
AcDbLine
10
967.65725
20
-45.444653
30
0
11
967.65725
21
-45.71749
31
0
39
0
210
0
220
0
230
1
0
LINE
5
11E
100
AcDbEntity
8
1
62
256
6
ByLayer
370
13
48
1
60
0
100
AcDbLine
10
967.65725
20
14.555347
30
0
11
967.65725
21
14.28251
31
0
39
0
210
0
220
0
230
1
0
LINE
5
11F
100
AcDbEntity
8
1
62
256
6
ByLayer
370
13
48
1
60
0
100
AcDbLine
10
967.65725
20
45.71749
30
0
11
967.65725
21
45.444653
31
0
39
0
210
0
220
0
230
1
0
LINE
5
120
100
AcDbEntity
8
1
62
256
6
ByLayer
370
13
48
1
60
0
100
AcDbLine
10
967.65725
20
-14.28251
30
0
11
967.65725
21
-14.555347
31
0
39
0
210
0
220
0
230
1
0
LINE
5
121
100
AcDbEntity
8
1
62
256
6
ByLayer
370
18
48
1
60
0
100
AcDbLine
10
968.325
20
-16.085101
30
0
11
968.325
21
-17.223383
31
0
39
0
210
0
220
0
230
1
0
LINE
5
122
100
AcDbEntity
8
1
62
256
6
ByLayer
370
18
48
1
60
0
100
AcDbLine
10
968.325
20
-42.776617
30
0
11
968.325
21
-43.914899
31
0
39
0
210
0
220
0
230
1
0
LINE
5
123
100
AcDbEntity
8
1
62
256
6
ByLayer
370
18
48
1
60
0
100
AcDbLine
10
968.325
20
43.914899
30
0
11
968.325
21
42.776617
31
0
39
0
210
0
220
0
230
1
0
LINE
5
124
100
AcDbEntity
8
1
62
256
6
ByLayer
370
18
48
1
60
0
100
AcDbLine
10
968.325
20
17.223383
30
0
11
968.325
21
16.085101
31
0
39
0
210
0
220
0
230
1
0
LINE
5
125
100
AcDbEntity
8
1
62
256
6
ByLayer
370
13
48
1
60
0
100
AcDbLine
10
967.65725
20
44.467923
30
0
11
967.65725
21
44.133352
31
0
39
0
210
0
220
0
230
1
0
LINE
5
126
100
AcDbEntity
8
1
62
256
6
ByLayer
370
13
48
1
60
0
100
AcDbLine
10
967.65725
20
15.866648
30
0
11
967.65725
21
15.532077
31
0
39
0
210
0
220
0
230
1
0
LINE
5
127
100
AcDbEntity
8
1
62
256
6
ByLayer
370
13
48
1
60
0
100
AcDbLine
10
967.65725
20
-15.532077
30
0
11
967.65725
21
-15.866648
31
0
39
0
210
0
220
0
230
1
0
LINE
5
128
100
AcDbEntity
8
1
62
256
6
ByLayer
370
13
48
1
60
0
100
AcDbLine
10
967.65725
20
-44.133352
30
0
11
967.65725
21
-44.467923
31
0
39
0
210
0
220
0
230
1
0
LINE
5
129
100
AcDbEntity
8
1
62
256
6
ByLayer
370
18
48
1
60
0
100
AcDbLine
10
968.325
20
42.351611
30
0
11
968.325
21
40.899524
31
0
39
0
210
0
220
0
230
1
0
LINE
5
12A
100
AcDbEntity
8
1
62
256
6
ByLayer
370
18
48
1
60
0
100
AcDbLine
10
968.325
20
19.100476
30
0
11
968.325
21
17.648389
31
0
39
0
210
0
220
0
230
1
0
LINE
5
12B
100
AcDbEntity
8
1
62
256
6
ByLayer
370
18
48
1
60
0
100
AcDbLine
10
968.325
20
-17.648389
30
0
11
968.325
21
-19.100476
31
0
39
0
210
0
220
0
230
1
0
LINE
5
12C
100
AcDbEntity
8
1
62
256
6
ByLayer
370
18
48
1
60
0
100
AcDbLine
10
968.325
20
-40.899524
30
0
11
968.325
21
-42.351611
31
0
39
0
210
0
220
0
230
1
0
LINE
5
12D
100
AcDbEntity
8
1
62
256
6
ByLayer
370
13
48
1
60
0
100
AcDbLine
10
967.65725
20
42.926797
30
0
11
967.65725
21
42.508696
31
0
39
0
210
0
220
0
230
1
0
LINE
5
12E
100
AcDbEntity
8
1
62
256
6
ByLayer
370
13
48
1
60
0
100
AcDbLine
10
967.65725
20
17.491304
30
0
11
967.65725
21
17.073203
31
0
39
0
210
0
220
0
230
1
0
LINE
5
12F
100
AcDbEntity
8
1
62
256
6
ByLayer
370
13
48
1
60
0
100
AcDbLine
10
967.65725
20
-17.073203
30
0
11
967.65725
21
-17.491304
31
0
39
0
210
0
220
0
230
1
0
LINE
5
130
100
AcDbEntity
8
1
62
256
6
ByLayer
370
13
48
1
60
0
100
AcDbLine
10
967.65725
20
-42.508696
30
0
11
967.65725
21
-42.926797
31
0
39
0
210
0
220
0
230
1
0
LINE
5
131
100
AcDbEntity
8
1
62
256
6
ByLayer
370
18
48
1
60
0
100
AcDbLine
10
968.325
20
-19.655911
30
0
11
968.325
21
-21.641653
31
0
39
0
210
0
220
0
230
1
0
LINE
5
132
100
AcDbEntity
8
1
62
256
6
ByLayer
370
18
48
1
60
0
100
AcDbLine
10
968.325
20
-38.358347
30
0
11
968.325
21
-40.344089
31
0
39
0
210
0
220
0
230
1
0
LINE
5
133
100
AcDbEntity
8
1
62
256
6
ByLayer
370
18
48
1
60
0
100
AcDbLine
10
968.325
20
40.344089
30
0
11
968.325
21
38.358347
31
0
39
0
210
0
220
0
230
1
0
LINE
5
134
100
AcDbEntity
8
1
62
256
6
ByLayer
370
18
48
1
60
0
100
AcDbLine
10
968.325
20
21.641653
30
0
11
968.325
21
19.655911
31
0
39
0
210
0
220
0
230
1
0
LINE
5
135
100
AcDbEntity
8
1
62
256
6
ByLayer
370
13
48
1
60
0
100
AcDbLine
10
967.65725
20
40.971937
30
0
11
967.65725
21
40.425397
31
0
39
0
210
0
220
0
230
1
0
LINE
5
136
100
AcDbEntity
8
1
62
256
6
ByLayer
370
13
48
1
60
0
100
AcDbLine
10
967.65725
20
19.574603
30
0
11
967.65725
21
19.028063
31
0
39
0
210
0
220
0
230
1
0
LINE
5
137
100
AcDbEntity
8
1
62
256
6
ByLayer
370
13
48
1
60
0
100
AcDbLine
10
967.65725
20
-19.028063
30
0
11
967.65725
21
-19.574603
31
0
39
0
210
0
220
0
230
1
0
LINE
5
138
100
AcDbEntity
8
1
62
256
6
ByLayer
370
13
48
1
60
0
100
AcDbLine
10
967.65725
20
-40.425397
30
0
11
967.65725
21
-40.971937
31
0
39
0
210
0
220
0
230
1
0
LINE
5
139
100
AcDbEntity
8
1
62
256
6
ByLayer
370
18
48
1
60
0
100
AcDbLine
10
968.325
20
37.545731
30
0
11
968.325
21
34.053236
31
0
39
0
210
0
220
0
230
1
0
LINE
5
13A
100
AcDbEntity
8
1
62
256
6
ByLayer
370
18
48
1
60
0
100
AcDbLine
10
968.325
20
25.946764
30
0
11
968.325
21
22.454269
31
0
39
0
210
0
220
0
230
1
0
LINE
5
13B
100
AcDbEntity
8
1
62
256
6
ByLayer
370
18
48
1
60
0
100
AcDbLine
10
968.325
20
-22.454269
30
0
11
968.325
21
-25.946764
31
0
39
0
210
0
220
0
230
1
0
LINE
5
13C
100
AcDbEntity
8
1
62
256
6
ByLayer
370
18
48
1
60
0
100
AcDbLine
10
968.325
20
-34.053236
30
0
11
968.325
21
-37.545731
31
0
39
0
210
0
220
0
230
1
0
LINE
5
13D
100
AcDbEntity
8
1
62
256
6
ByLayer
370
13
48
1
60
0
100
AcDbLine
10
967.65725
20
-21.683468
30
0
11
967.65725
21
-22.489132
31
0
39
0
210
0
220
0
230
1
0
LINE
5
13E
100
AcDbEntity
8
1
62
256
6
ByLayer
370
13
48
1
60
0
100
AcDbLine
10
967.65725
20
-37.510868
30
0
11
967.65725
21
-38.316532
31
0
39
0
210
0
220
0
230
1
0
LINE
5
13F
100
AcDbEntity
8
1
62
256
6
ByLayer
370
13
48
1
60
0
100
AcDbLine
10
967.65725
20
38.316532
30
0
11
967.65725
21
37.510868
31
0
39
0
210
0
220
0
230
1
0
LINE
5
140
100
AcDbEntity
8
1
62
256
6
ByLayer
370
13
48
1
60
0
100
AcDbLine
10
967.65725
20
22.489132
30
0
11
967.65725
21
21.683468
31
0
39
0
210
0
220
0
230
1
0
LINE
5
141
100
AcDbEntity
8
1
62
256
6
ByLayer
370
18
48
1
60
0
100
AcDbLine
10
968.325
20
-28.458593
30
0
11
968.325
21
-31.541407
31
0
39
0
210
0
220
0
230
1
0
LINE
5
142
100
AcDbEntity
8
1
62
256
6
ByLayer
370
18
48
1
60
0
100
AcDbLine
10
968.325
20
31.541407
30
0
11
968.325
21
28.458593
31
0
39
0
210
0
220
0
230
1
0
LINE
5
143
100
AcDbEntity
8
1
62
256
6
ByLayer
370
13
48
1
60
0
100
AcDbLine
10
967.65725
20
33.66688
30
0
11
967.65725
21
26.33312
31
0
39
0
210
0
220
0
230
1
0
LINE
5
144
100
AcDbEntity
8
1
62
256
6
ByLayer
370
13
48
1
60
0
100
AcDbLine
10
967.65725
20
-26.33312
30
0
11
967.65725
21
-33.66688
31
0
39
0
210
0
220
0
230
1
0
LINE
5
145
100
AcDbEntity
8
1
62
256
6
ByLayer
370
18
48
1
60
0
100
AcDbLine
10
968.325
20
11.023137
30
0
11
968.325
21
11.008332
31
0
39
0
210
0
220
0
230
1
0
LINE
5
146
100
AcDbEntity
8
1
62
256
6
ByLayer
370
18
48
1
60
0
100
AcDbLine
10
968.325
20
11.156985
30
0
11
968.325
21
11.112291
31
0
39
0
210
0
220
0
230
1
0
LINE
5
147
100
AcDbEntity
8
1
62
256
6
ByLayer
370
18
48
1
60
0
100
AcDbLine
10
968.325
20
11.412448
30
0
11
968.325
21
11.336997
31
0
39
0
210
0
220
0
230
1
0
LINE
5
148
100
AcDbEntity
8
1
62
256
6
ByLayer
370
18
48
1
60
0
100
AcDbLine
10
968.325
20
11.794644
30
0
11
968.325
21
11.686895
31
0
39
0
210
0
220
0
230
1
0
LINE
5
149
100
AcDbEntity
8
1
62
256
6
ByLayer
370
18
48
1
60
0
100
AcDbLine
10
968.325
20
12.311787
30
0
11
968.325
21
12.169355
31
0
39
0
210
0
220
0
230
1
0
LINE
5
14A
100
AcDbEntity
8
1
62
256
6
ByLayer
370
18
48
1
60
0
100
AcDbLine
10
968.325
20
12.976171
30
0
11
968.325
21
12.795523
31
0
39
0
210
0
220
0
230
1
0
LINE
5
14B
100
AcDbEntity
8
1
62
256
6
ByLayer
370
18
48
1
60
0
100
AcDbLine
10
968.325
20
13.805907
30
0
11
968.325
21
13.581835
31
0
39
0
210
0
220
0
230
1
0
LINE
5
14C
100
AcDbEntity
8
1
62
256
6
ByLayer
370
18
48
1
60
0
100
AcDbLine
10
968.325
20
14.828101
30
0
11
968.325
21
14.552726
31
0
39
0
210
0
220
0
230
1
0
LINE
5
14D
100
AcDbEntity
8
1
62
256
6
ByLayer
370
18
48
1
60
0
100
AcDbLine
10
968.325
20
16.085101
30
0
11
968.325
21
15.745864
31
0
39
0
210
0
220
0
230
1
0
LINE
5
14E
100
AcDbEntity
8
1
62
256
6
ByLayer
370
18
48
1
60
0
100
AcDbLine
10
968.325
20
17.648389
30
0
11
968.325
21
17.223361
31
0
39
0
210
0
220
0
230
1
0
LINE
5
14F
100
AcDbEntity
8
1
62
256
6
ByLayer
370
18
48
1
60
0
100
AcDbLine
10
968.325
20
19.655911
30
0
11
968.325
21
19.100247
31
0
39
0
210
0
220
0
230
1
0
LINE
5
150
100
AcDbEntity
8
1
62
256
6
ByLayer
370
18
48
1
60
0
100
AcDbLine
10
968.325
20
22.454269
30
0
11
968.325
21
21.641368
31
0
39
0
210
0
220
0
230
1
0
LINE
5
151
100
AcDbEntity
8
1
62
256
6
ByLayer
370
18
48
1
60
0
100
AcDbLine
10
968.325
20
28.458593
30
0
11
968.325
21
25.946748
31
0
39
0
210
0
220
0
230
1
0
LINE
5
152
100
AcDbEntity
8
1
62
256
6
ByLayer
370
18
48
1
60
0
100
AcDbLine
10
968.325
20
34.053252
30
0
11
968.325
21
31.541407
31
0
39
0
210
0
220
0
230
1
0
LINE
5
153
100
AcDbEntity
8
1
62
256
6
ByLayer
370
18
48
1
60
0
100
AcDbLine
10
968.325
20
38.358632
30
0
11
968.325
21
37.545731
31
0
39
0
210
0
220
0
230
1
0
LINE
5
154
100
AcDbEntity
8
1
62
256
6
ByLayer
370
18
48
1
60
0
100
AcDbLine
10
968.325
20
40.899753
30
0
11
968.325
21
40.344089
31
0
39
0
210
0
220
0
230
1
0
LINE
5
155
100
AcDbEntity
8
1
62
256
6
ByLayer
370
18
48
1
60
0
100
AcDbLine
10
968.325
20
42.776639
30
0
11
968.325
21
42.351611
31
0
39
0
210
0
220
0
230
1
0
LINE
5
156
100
AcDbEntity
8
1
62
256
6
ByLayer
370
18
48
1
60
0
100
AcDbLine
10
968.325
20
44.254136
30
0
11
968.325
21
43.914899
31
0
39
0
210
0
220
0
230
1
0
LINE
5
157
100
AcDbEntity
8
1
62
256
6
ByLayer
370
18
48
1
60
0
100
AcDbLine
10
968.325
20
45.447274
30
0
11
968.325
21
45.171899
31
0
39
0
210
0
220
0
230
1
0
LINE
5
158
100
AcDbEntity
8
1
62
256
6
ByLayer
370
18
48
1
60
0
100
AcDbLine
10
968.325
20
46.418165
30
0
11
968.325
21
46.194093
31
0
39
0
210
0
220
0
230
1
0
LINE
5
159
100
AcDbEntity
8
1
62
256
6
ByLayer
370
18
48
1
60
0
100
AcDbLine
10
968.325
20
47.204477
30
0
11
968.325
21
47.023829
31
0
39
0
210
0
220
0
230
1
0
LINE
5
15A
100
AcDbEntity
8
1
62
256
6
ByLayer
370
18
48
1
60
0
100
AcDbLine
10
968.325
20
47.830645
30
0
11
968.325
21
47.688213
31
0
39
0
210
0
220
0
230
1
0
LINE
5
15B
100
AcDbEntity
8
1
62
256
6
ByLayer
370
18
48
1
60
0
100
AcDbLine
10
968.325
20
48.313105
30
0
11
968.325
21
48.205356
31
0
39
0
210
0
220
0
230
1
0
LINE
5
15C
100
AcDbEntity
8
1
62
256
6
ByLayer
370
18
48
1
60
0
100
AcDbLine
10
968.325
20
48.663003
30
0
11
968.325
21
48.587552
31
0
39
0
210
0
220
0
230
1
0
LINE
5
15D
100
AcDbEntity
8
1
62
256
6
ByLayer
370
18
48
1
60
0
100
AcDbLine
10
968.325
20
48.887709
30
0
11
968.325
21
48.843015
31
0
39
0
210
0
220
0
230
1
0
LINE
5
15E
100
AcDbEntity
8
1
62
256
6
ByLayer
370
18
48
1
60
0
100
AcDbLine
10
968.325
20
48.991668
30
0
11
968.325
21
48.976863
31
0
39
0
210
0
220
0
230
1
0
LINE
5
15F
100
AcDbEntity
8
1
62
256
6
ByLayer
370
18
48
1
60
0
100
AcDbLine
10
967.325
20
50
30
0
11
967.325
21
10
31
0
39
0
210
0
220
0
230
1
0
LINE
5
160
100
AcDbEntity
8
1
62
256
6
ByLayer
370
18
48
1
60
0
100
AcDbLine
10
968.325
20
-48.976863
30
0
11
968.325
21
-48.991668
31
0
39
0
210
0
220
0
230
1
0
LINE
5
161
100
AcDbEntity
8
1
62
256
6
ByLayer
370
18
48
1
60
0
100
AcDbLine
10
968.325
20
-48.843015
30
0
11
968.325
21
-48.887709
31
0
39
0
210
0
220
0
230
1
0
LINE
5
162
100
AcDbEntity
8
1
62
256
6
ByLayer
370
18
48
1
60
0
100
AcDbLine
10
968.325
20
-48.587552
30
0
11
968.325
21
-48.663003
31
0
39
0
210
0
220
0
230
1
0
LINE
5
163
100
AcDbEntity
8
1
62
256
6
ByLayer
370
18
48
1
60
0
100
AcDbLine
10
968.325
20
-48.205356
30
0
11
968.325
21
-48.313105
31
0
39
0
210
0
220
0
230
1
0
LINE
5
164
100
AcDbEntity
8
1
62
256
6
ByLayer
370
18
48
1
60
0
100
AcDbLine
10
968.325
20
-47.688213
30
0
11
968.325
21
-47.830645
31
0
39
0
210
0
220
0
230
1
0
LINE
5
165
100
AcDbEntity
8
1
62
256
6
ByLayer
370
18
48
1
60
0
100
AcDbLine
10
968.325
20
-47.023829
30
0
11
968.325
21
-47.204477
31
0
39
0
210
0
220
0
230
1
0
LINE
5
166
100
AcDbEntity
8
1
62
256
6
ByLayer
370
18
48
1
60
0
100
AcDbLine
10
968.325
20
-46.194093
30
0
11
968.325
21
-46.418165
31
0
39
0
210
0
220
0
230
1
0
LINE
5
167
100
AcDbEntity
8
1
62
256
6
ByLayer
370
18
48
1
60
0
100
AcDbLine
10
968.325
20
-45.171899
30
0
11
968.325
21
-45.447274
31
0
39
0
210
0
220
0
230
1
0
LINE
5
168
100
AcDbEntity
8
1
62
256
6
ByLayer
370
18
48
1
60
0
100
AcDbLine
10
968.325
20
-43.914899
30
0
11
968.325
21
-44.254136
31
0
39
0
210
0
220
0
230
1
0
LINE
5
169
100
AcDbEntity
8
1
62
256
6
ByLayer
370
18
48
1
60
0
100
AcDbLine
10
968.325
20
-42.351611
30
0
11
968.325
21
-42.776639
31
0
39
0
210
0
220
0
230
1
0
LINE
5
16A
100
AcDbEntity
8
1
62
256
6
ByLayer
370
18
48
1
60
0
100
AcDbLine
10
968.325
20
-40.344089
30
0
11
968.325
21
-40.899753
31
0
39
0
210
0
220
0
230
1
0
LINE
5
16B
100
AcDbEntity
8
1
62
256
6
ByLayer
370
18
48
1
60
0
100
AcDbLine
10
968.325
20
-37.545731
30
0
11
968.325
21
-38.358632
31
0
39
0
210
0
220
0
230
1
0
LINE
5
16C
100
AcDbEntity
8
1
62
256
6
ByLayer
370
18
48
1
60
0
100
AcDbLine
10
968.325
20
-31.541407
30
0
11
968.325
21
-34.053252
31
0
39
0
210
0
220
0
230
1
0
LINE
5
16D
100
AcDbEntity
8
1
62
256
6
ByLayer
370
18
48
1
60
0
100
AcDbLine
10
968.325
20
-25.946748
30
0
11
968.325
21
-28.458593
31
0
39
0
210
0
220
0
230
1
0
LINE
5
16E
100
AcDbEntity
8
1
62
256
6
ByLayer
370
18
48
1
60
0
100
AcDbLine
10
968.325
20
-21.641368
30
0
11
968.325
21
-22.454269
31
0
39
0
210
0
220
0
230
1
0
LINE
5
16F
100
AcDbEntity
8
1
62
256
6
ByLayer
370
18
48
1
60
0
100
AcDbLine
10
968.325
20
-19.100247
30
0
11
968.325
21
-19.655911
31
0
39
0
210
0
220
0
230
1
0
LINE
5
170
100
AcDbEntity
8
1
62
256
6
ByLayer
370
18
48
1
60
0
100
AcDbLine
10
968.325
20
-17.223361
30
0
11
968.325
21
-17.648389
31
0
39
0
210
0
220
0
230
1
0
LINE
5
171
100
AcDbEntity
8
1
62
256
6
ByLayer
370
18
48
1
60
0
100
AcDbLine
10
968.325
20
-15.745864
30
0
11
968.325
21
-16.085101
31
0
39
0
210
0
220
0
230
1
0
LINE
5
172
100
AcDbEntity
8
1
62
256
6
ByLayer
370
18
48
1
60
0
100
AcDbLine
10
968.325
20
-14.552726
30
0
11
968.325
21
-14.828101
31
0
39
0
210
0
220
0
230
1
0
LINE
5
173
100
AcDbEntity
8
1
62
256
6
ByLayer
370
18
48
1
60
0
100
AcDbLine
10
968.325
20
-13.581835
30
0
11
968.325
21
-13.805907
31
0
39
0
210
0
220
0
230
1
0
LINE
5
174
100
AcDbEntity
8
1
62
256
6
ByLayer
370
18
48
1
60
0
100
AcDbLine
10
968.325
20
-12.795523
30
0
11
968.325
21
-12.976171
31
0
39
0
210
0
220
0
230
1
0
LINE
5
175
100
AcDbEntity
8
1
62
256
6
ByLayer
370
18
48
1
60
0
100
AcDbLine
10
968.325
20
-12.169355
30
0
11
968.325
21
-12.311787
31
0
39
0
210
0
220
0
230
1
0
LINE
5
176
100
AcDbEntity
8
1
62
256
6
ByLayer
370
18
48
1
60
0
100
AcDbLine
10
968.325
20
-11.686895
30
0
11
968.325
21
-11.794644
31
0
39
0
210
0
220
0
230
1
0
LINE
5
177
100
AcDbEntity
8
1
62
256
6
ByLayer
370
18
48
1
60
0
100
AcDbLine
10
968.325
20
-11.336997
30
0
11
968.325
21
-11.412448
31
0
39
0
210
0
220
0
230
1
0
LINE
5
178
100
AcDbEntity
8
1
62
256
6
ByLayer
370
18
48
1
60
0
100
AcDbLine
10
968.325
20
-11.112291
30
0
11
968.325
21
-11.156985
31
0
39
0
210
0
220
0
230
1
0
LINE
5
179
100
AcDbEntity
8
1
62
256
6
ByLayer
370
18
48
1
60
0
100
AcDbLine
10
968.325
20
-11.008332
30
0
11
968.325
21
-11.023137
31
0
39
0
210
0
220
0
230
1
0
LINE
5
17A
100
AcDbEntity
8
1
62
256
6
ByLayer
370
18
48
1
60
0
100
AcDbLine
10
967.325
20
-10
30
0
11
967.325
21
-50
31
0
39
0
210
0
220
0
230
1
0
LINE
5
17B
100
AcDbEntity
8
1
62
256
6
ByLayer
370
18
48
1
60
0
100
AcDbLine
10
965.5
20
50
30
0
11
965.5
21
10
31
0
39
0
210
0
220
0
230
1
0
LINE
5
17C
100
AcDbEntity
8
1
62
256
6
ByLayer
370
13
48
1
60
0
100
AcDbLine
10
965.6
20
-10
30
0
11
965.6
21
-49.023301
31
0
39
0
210
0
220
0
230
1
0
LINE
5
17D
100
AcDbEntity
8
1
62
256
6
ByLayer
370
13
48
1
60
0
100
AcDbLine
10
962.25
20
50
30
0
11
962.25
21
-50
31
0
39
0
210
0
220
0
230
1
0
LINE
5
17E
100
AcDbEntity
8
1
62
256
6
ByLayer
370
18
48
1
60
0
100
AcDbLine
10
964.5
20
-49.257407
30
0
11
964.5
21
49.316667
31
0
39
0
210
0
220
0
230
1
0
LINE
5
17F
100
AcDbEntity
8
1
62
256
6
ByLayer
370
18
48
1
60
0
100
AcDbLine
10
965
20
48.833333
30
0
11
965
21
-48.764833
31
0
39
0
210
0
220
0
230
1
0
LINE
5
180
100
AcDbEntity
8
SK2
62
256
6
ByLayer
370
18
48
1
60
0
100
AcDbLine
10
-66.6
20
-50
30
0
11
-66.6
21
50
31
0
39
0
210
0
220
0
230
1
0
LINE
5
182
100
AcDbEntity
8
SK2
62
256
6
ByLayer
370
18
48
1
60
0
100
AcDbLine
10
-1.2875
20
50
30
0
11
-68.6
21
50
31
0
39
0
210
0
220
0
230
1
0
LINE
5
183
100
AcDbEntity
8
SK2
62
256
6
ByLayer
370
18
48
1
60
0
100
AcDbLine
10
-1.2875
20
-50
30
0
11
-68.6
21
-50
31
0
39
0
210
0
220
0
230
1
0
LINE
5
184
100
AcDbEntity
8
1
62
256
6
ByLayer
370
18
48
1
60
1
100
AcDbLine
10
-66.6
20
50
30
0
11
-66.139216
21
46.500002
31
0
39
0
210
0
220
0
230
1
0
LINE
5
185
100
AcDbEntity
8
1
62
256
6
ByLayer
370
18
48
1
60
1
100
AcDbLine
10
-66.139216
20
46.500002
30
0
11
-67.060784
21
46.499998
31
0
39
0
210
0
220
0
230
1
0
LINE
5
186
100
AcDbEntity
8
1
62
256
6
ByLayer
370
18
48
1
60
1
100
AcDbLine
10
-67.060784
20
46.499998
30
0
11
-66.6
21
50
31
0
39
0
210
0
220
0
230
1
0
LINE
5
187
100
AcDbEntity
8
1
62
256
6
ByLayer
370
18
48
1
60
1
100
AcDbLine
10
-66.6
20
-50
30
0
11
-67.060784
21
-46.500002
31
0
39
0
210
0
220
0
230
1
0
LINE
5
188
100
AcDbEntity
8
1
62
256
6
ByLayer
370
18
48
1
60
1
100
AcDbLine
10
-67.060784
20
-46.500002
30
0
11
-66.139216
21
-46.499998
31
0
39
0
210
0
220
0
230
1
0
LINE
5
189
100
AcDbEntity
8
1
62
256
6
ByLayer
370
18
48
1
60
1
100
AcDbLine
10
-66.139216
20
-46.499998
30
0
11
-66.6
21
-50
31
0
39
0
210
0
220
0
230
1
0
LINE
5
18A
100
AcDbEntity
8
SK2
62
256
6
ByLayer
370
18
48
1
60
0
100
AcDbLine
10
992.748181
20
-50
30
0
11
992.748181
21
50
31
0
39
0
210
0
220
0
230
1
0
LINE
5
18B
100
AcDbEntity
8
SK2
62
256
6
ByLayer
370
18
48
1
60
0
100
AcDbLine
10
963.3875
20
50
30
0
11
994.748181
21
50
31
0
39
0
210
0
220
0
230
1
0
LINE
5
18C
100
AcDbEntity
8
SK2
62
256
6
ByLayer
370
18
48
1
60
0
100
AcDbLine
10
963.3875
20
-50
30
0
11
994.748181
21
-50
31
0
39
0
210
0
220
0
230
1
0
LINE
5
18D
100
AcDbEntity
8
1
62
256
6
ByLayer
370
18
48
1
60
1
100
AcDbLine
10
992.748181
20
50
30
0
11
993.208964
21
46.500002
31
0
39
0
210
0
220
0
230
1
0
LINE
5
18E
100
AcDbEntity
8
1
62
256
6
ByLayer
370
18
48
1
60
1
100
AcDbLine
10
993.208964
20
46.500002
30
0
11
992.287397
21
46.499998
31
0
39
0
210
0
220
0
230
1
0
LINE
5
18F
100
AcDbEntity
8
1
62
256
6
ByLayer
370
18
48
1
60
1
100
AcDbLine
10
992.287397
20
46.499998
30
0
11
992.748181
21
50
31
0
39
0
210
0
220
0
230
1
0
LINE
5
190
100
AcDbEntity
8
1
62
256
6
ByLayer
370
18
48
1
60
1
100
AcDbLine
10
992.748181
20
-50
30
0
11
992.287397
21
-46.500002
31
0
39
0
210
0
220
0
230
1
0
LINE
5
191
100
AcDbEntity
8
1
62
256
6
ByLayer
370
18
48
1
60
1
100
AcDbLine
10
992.287397
20
-46.500002
30
0
11
993.208964
21
-46.499998
31
0
39
0
210
0
220
0
230
1
0
LINE
5
192
100
AcDbEntity
8
1
62
256
6
ByLayer
370
18
48
1
60
1
100
AcDbLine
10
993.208964
20
-46.499998
30
0
11
992.748181
21
-50
31
0
39
0
210
0
220
0
230
1
0
LINE
5
193
100
AcDbEntity
8
SK2
62
256
6
ByLayer
370
18
48
1
60
0
100
AcDbLine
10
0
20
55.6
30
0
11
968
21
55.6
31
0
39
0
210
0
220
0
230
1
0
LINE
5
194
100
AcDbEntity
8
SK2
62
256
6
ByLayer
370
18
48
1
60
0
100
AcDbLine
10
968
20
51.5875
30
0
11
968
21
57.6
31
0
39
0
210
0
220
0
230
1
0
LINE
5
195
100
AcDbEntity
8
SK2
62
256
6
ByLayer
370
18
48
1
60
0
100
AcDbLine
10
0
20
51.2875
30
0
11
0
21
57.6
31
0
39
0
210
0
220
0
230
1
0
LINE
5
196
100
AcDbEntity
8
1
62
256
6
ByLayer
370
18
48
1
60
1
100
AcDbLine
10
968
20
55.6
30
0
11
964.500002
21
55.139216
31
0
39
0
210
0
220
0
230
1
0
LINE
5
197
100
AcDbEntity
8
1
62
256
6
ByLayer
370
18
48
1
60
1
100
AcDbLine
10
964.500002
20
55.139216
30
0
11
964.499998
21
56.060784
31
0
39
0
210
0
220
0
230
1
0
LINE
5
198
100
AcDbEntity
8
1
62
256
6
ByLayer
370
18
48
1
60
1
100
AcDbLine
10
964.499998
20
56.060784
30
0
11
968
21
55.6
31
0
39
0
210
0
220
0
230
1
0
LINE
5
199
100
AcDbEntity
8
1
62
256
6
ByLayer
370
18
48
1
60
1
100
AcDbLine
10
0
20
55.6
30
0
11
3.499998
21
56.060784
31
0
39
0
210
0
220
0
230
1
0
LINE
5
19A
100
AcDbEntity
8
1
62
256
6
ByLayer
370
18
48
1
60
1
100
AcDbLine
10
3.499998
20
56.060784
30
0
11
3.500002
21
55.139216
31
0
39
0
210
0
220
0
230
1
0
LINE
5
19B
100
AcDbEntity
8
1
62
256
6
ByLayer
370
18
48
1
60
1
100
AcDbLine
10
3.500002
20
55.139216
30
0
11
0
21
55.6
31
0
39
0
210
0
220
0
230
1
0
LINE
5
280
100
AcDbEntity
8
1
62
256
6
ByLayer
370
18
48
1
60
1
100
AcDbLine
10
-66.6
20
50
30
0
11
-66.139216
21
46.500002
31
0
39
0
210
0
220
0
230
1
0
LINE
5
281
100
AcDbEntity
8
1
62
256
6
ByLayer
370
18
48
1
60
1
100
AcDbLine
10
-66.139216
20
46.500002
30
0
11
-67.060784
21
46.499998
31
0
39
0
210
0
220
0
230
1
0
LINE
5
282
100
AcDbEntity
8
1
62
256
6
ByLayer
370
18
48
1
60
1
100
AcDbLine
10
-67.060784
20
46.499998
30
0
11
-66.6
21
50
31
0
39
0
210
0
220
0
230
1
0
LINE
5
284
100
AcDbEntity
8
1
62
256
6
ByLayer
370
18
48
1
60
1
100
AcDbLine
10
-66.6
20
-50
30
0
11
-67.060784
21
-46.500002
31
0
39
0
210
0
220
0
230
1
0
LINE
5
285
100
AcDbEntity
8
1
62
256
6
ByLayer
370
18
48
1
60
1
100
AcDbLine
10
-67.060784
20
-46.500002
30
0
11
-66.139216
21
-46.499998
31
0
39
0
210
0
220
0
230
1
0
LINE
5
286
100
AcDbEntity
8
1
62
256
6
ByLayer
370
18
48
1
60
1
100
AcDbLine
10
-66.139216
20
-46.499998
30
0
11
-66.6
21
-50
31
0
39
0
210
0
220
0
230
1
0
LINE
5
28A
100
AcDbEntity
8
1
62
256
6
ByLayer
370
18
48
1
60
1
100
AcDbLine
10
992.748181
20
50
30
0
11
993.208964
21
46.500002
31
0
39
0
210
0
220
0
230
1
0
LINE
5
28B
100
AcDbEntity
8
1
62
256
6
ByLayer
370
18
48
1
60
1
100
AcDbLine
10
993.208964
20
46.500002
30
0
11
992.287397
21
46.499998
31
0
39
0
210
0
220
0
230
1
0
LINE
5
28C
100
AcDbEntity
8
1
62
256
6
ByLayer
370
18
48
1
60
1
100
AcDbLine
10
992.287397
20
46.499998
30
0
11
992.748181
21
50
31
0
39
0
210
0
220
0
230
1
0
LINE
5
28E
100
AcDbEntity
8
1
62
256
6
ByLayer
370
18
48
1
60
1
100
AcDbLine
10
992.748181
20
-50
30
0
11
992.287397
21
-46.500002
31
0
39
0
210
0
220
0
230
1
0
LINE
5
28F
100
AcDbEntity
8
1
62
256
6
ByLayer
370
18
48
1
60
1
100
AcDbLine
10
992.287397
20
-46.500002
30
0
11
993.208964
21
-46.499998
31
0
39
0
210
0
220
0
230
1
0
LINE
5
290
100
AcDbEntity
8
1
62
256
6
ByLayer
370
18
48
1
60
1
100
AcDbLine
10
993.208964
20
-46.499998
30
0
11
992.748181
21
-50
31
0
39
0
210
0
220
0
230
1
0
LINE
5
293
100
AcDbEntity
8
1
62
256
6
ByLayer
370
18
48
1
60
1
100
AcDbLine
10
968
20
55.6
30
0
11
964.500002
21
55.139216
31
0
39
0
210
0
220
0
230
1
0
LINE
5
294
100
AcDbEntity
8
1
62
256
6
ByLayer
370
18
48
1
60
1
100
AcDbLine
10
964.500002
20
55.139216
30
0
11
964.499998
21
56.060784
31
0
39
0
210
0
220
0
230
1
0
LINE
5
295
100
AcDbEntity
8
1
62
256
6
ByLayer
370
18
48
1
60
1
100
AcDbLine
10
964.499998
20
56.060784
30
0
11
968
21
55.6
31
0
39
0
210
0
220
0
230
1
0
LINE
5
297
100
AcDbEntity
8
1
62
256
6
ByLayer
370
18
48
1
60
1
100
AcDbLine
10
0
20
55.6
30
0
11
3.499998
21
56.060784
31
0
39
0
210
0
220
0
230
1
0
LINE
5
298
100
AcDbEntity
8
1
62
256
6
ByLayer
370
18
48
1
60
1
100
AcDbLine
10
3.499998
20
56.060784
30
0
11
3.500002
21
55.139216
31
0
39
0
210
0
220
0
230
1
0
LINE
5
299
100
AcDbEntity
8
1
62
256
6
ByLayer
370
18
48
1
60
1
100
AcDbLine
10
3.500002
20
55.139216
30
0
11
0
21
55.6
31
0
39
0
210
0
220
0
230
1
0
MTEXT
5
27C
100
AcDbEntity
8
SK2
62
256
6
ByLayer
370
18
48
1
60
0
100
AcDbMText
10
-68.164634
20
-5.400922
30
0
210
0
220
0
230
1
1
%%c
40
3.5
41
0
44
1.084337
50
90
71
7
72
5
7
iso_b_vert
0
MTEXT
5
27F
100
AcDbEntity
8
SK2
62
256
6
ByLayer
370
18
48
1
60
0
100
AcDbMText
10
-68.164634
20
1.571734
30
0
210
0
220
0
230
1
1
\W0.6217;100
40
3.5
41
0
44
1.084337
50
90
71
7
72
5
7
iso_b_vert
0
MTEXT
5
288
100
AcDbEntity
8
SK2
62
256
6
ByLayer
370
18
48
1
60
0
100
AcDbMText
10
991.183547
20
-5.400922
30
0
210
0
220
0
230
1
1
%%c
40
3.5
41
0
44
1.084337
50
90
71
7
72
5
7
iso_b_vert
0
MTEXT
5
289
100
AcDbEntity
8
SK2
62
256
6
ByLayer
370
18
48
1
60
0
100
AcDbMText
10
991.183547
20
1.571734
30
0
210
0
220
0
230
1
1
\W0.6217;100
40
3.5
41
0
44
1.084337
50
90
71
7
72
5
7
iso_b_vert
0
MTEXT
5
292
100
AcDbEntity
8
SK2
62
256
6
ByLayer
370
18
48
1
60
0
100
AcDbMText
10
480.787301
20
56.632634
30
0
210
0
220
0
230
1
1
\W0.7138;968
40
3.5
41
0
44
1.084337
50
0
71
7
72
5
7
iso_b_vert
0
MTEXT
5
29B
100
AcDbEntity
8
SK6
62
256
6
ByLayer
370
18
48
1
60
0
100
AcDbMText
10
433.096095
20
-76.044277
30
0
210
0
220
0
230
1
1
\W0.7245;HT30D-C10 100 968-40-2
40
3.5
41
0
44
1.084337
50
0
71
7
72
5
7
iso_b_vert
0
HATCH
5
283
100
AcDbEntity
8
SK2
62
256
6
ByLayer
370
13
48
1
60
0
100
AcDbHatch
10
0
20
0
30
0
210
0
220
0
230
1
2
ANSI31
70
0
71
0
91
1
92
5
93
3
72
1
10
-66.6000000000003
20
49.9999999999964
11
-66.1392162584475
21
46.5000016925496
72
1
10
-66.1392162584475
20
46.5000016925496
11
-67.060783741553
21
46.4999983074432
72
1
10
-67.060783741553
20
46.4999983074432
11
-66.6000000000003
21
49.9999999999964
97
0
75
0
76
1
52
0
41
0.0062
77
0
78
1
53
45
43
0
44
0
45
-0.0139193969876572
46
0.0139193969876572
79
0
47
0
98
1
10
0
20
0
0
HATCH
5
287
100
AcDbEntity
8
SK2
62
256
6
ByLayer
370
13
48
1
60
0
100
AcDbHatch
10
0
20
0
30
0
210
0
220
0
230
1
2
ANSI31
70
0
71
0
91
1
92
5
93
3
72
1
10
-66.6000000000003
20
-50.0000000000036
11
-67.060783741553
21
-46.5000016925569
72
1
10
-67.060783741553
20
-46.5000016925569
11
-66.1392162584475
21
-46.4999983074504
72
1
10
-66.1392162584475
20
-46.4999983074504
11
-66.6000000000003
21
-50.0000000000036
97
0
75
0
76
1
52
0
41
0.0062
77
0
78
1
53
45
43
0
44
0
45
-0.0139193969876572
46
0.0139193969876572
79
0
47
0
98
1
10
0
20
0
0
HATCH
5
28D
100
AcDbEntity
8
SK2
62
256
6
ByLayer
370
13
48
1
60
0
100
AcDbHatch
10
0
20
0
30
0
210
0
220
0
230
1
2
ANSI31
70
0
71
0
91
1
92
5
93
3
72
1
10
992.748180566759
20
49.9999999999964
11
993.208964308312
21
46.5000016925496
72
1
10
993.208964308312
20
46.5000016925496
11
992.287396825206
21
46.4999983074432
72
1
10
992.287396825206
20
46.4999983074432
11
992.748180566759
21
49.9999999999964
97
0
75
0
76
1
52
0
41
0.0062
77
0
78
1
53
45
43
0
44
0
45
-0.0139193969876572
46
0.0139193969876572
79
0
47
0
98
1
10
0
20
0
0
HATCH
5
291
100
AcDbEntity
8
SK2
62
256
6
ByLayer
370
13
48
1
60
0
100
AcDbHatch
10
0
20
0
30
0
210
0
220
0
230
1
2
ANSI31
70
0
71
0
91
1
92
5
93
3
72
1
10
992.748180566759
20
-50.0000000000036
11
992.287396825206
21
-46.5000016925569
72
1
10
992.287396825206
20
-46.5000016925569
11
993.208964308312
21
-46.4999983074504
72
1
10
993.208964308312
20
-46.4999983074504
11
992.748180566759
21
-50.0000000000036
97
0
75
0
76
1
52
0
41
0.0062
77
0
78
1
53
45
43
0
44
0
45
-0.0139193969876572
46
0.0139193969876572
79
0
47
0
98
1
10
0
20
0
0
HATCH
5
296
100
AcDbEntity
8
SK2
62
256
6
ByLayer
370
13
48
1
60
0
100
AcDbHatch
10
0
20
0
30
0
210
0
220
0
230
1
2
ANSI31
70
0
71
0
91
1
92
5
93
3
72
1
10
968
20
55.6000000000002
11
964.500001692554
21
55.1392162584474
72
1
10
964.500001692554
20
55.1392162584474
11
964.499998307447
21
56.060783741553
72
1
10
964.499998307447
20
56.060783741553
11
968
21
55.6000000000002
97
0
75
0
76
1
52
0
41
0.0062
77
0
78
1
53
45
43
0
44
0
45
-0.0139193969876572
46
0.0139193969876572
79
0
47
0
98
1
10
0
20
0
0
HATCH
5
29A
100
AcDbEntity
8
SK2
62
256
6
ByLayer
370
13
48
1
60
0
100
AcDbHatch
10
0
20
0
30
0
210
0
220
0
230
1
2
ANSI31
70
0
71
0
91
1
92
5
93
3
72
1
10
0
20
55.6000000000002
11
3.49999830744682
21
56.060783741553
72
1
10
3.49999830744682
20
56.060783741553
11
3.50000169255318
21
55.1392162584474
72
1
10
3.50000169255318
20
55.1392162584474
11
0
21
55.6000000000002
97
0
75
0
76
1
52
0
41
0.0062
77
0
78
1
53
45
43
0
44
0
45
-0.0139193969876572
46
0.0139193969876572
79
0
47
0
98
1
10
0
20
0
0
ENDSEC
0
SECTION
2
OBJECTS
0
DICTIONARY
5
30a
330
0
100
AcDbDictionary
280
0
281
1
3
ACAD_GROUP
350
30b
3
ACAD_MLINESTYLE
350
30c
0
DICTIONARY
5
30b
330
0
100
AcDbDictionary
280
0
281
1
0
DICTIONARY
5
30c
330
0
100
AcDbDictionary
280
0
281
1
3
Standard
350
18
0
MLINESTYLE
5
18
330
30c
100
AcDbMlineStyle
2
Standard
70
0
3

62
256
51
90
52
90
71
2
49
-0.5
62
256
6
ByLayer
49
0.5
62
256
6
ByLayer
0
RASTERVARIABLES
5
2f8
330

100
AcDbRasterVariables
90
0
70
1
71
1
72
1
0
ENDSEC
0
EOF
