0
SECTION
2
HEADER
9
$ACADVER
1
AC1015
9
$DWGCODEPAGE
3
ANSI_1252
9
$HANDSEED
5
241
9
$ANGBASE
50
0
9
$ANGDIR
70
0
9
$ATTMODE
70
1
9
$AUNITS
70
0
9
$AUPREC
70
0
9
$CECOLOR
62
256
9
$CELTSCALE
40
1
9
$CELTYPE
6
ByLayer
9
$CELWEIGHT
370
18
9
$CLAYER
8
0
9
$CMLJUST
70
0
9
$CMLSCALE
40
1
9
$CMLSTYLE
2
Standard
9
$DIMSTYLE
2
Standard
9
$TEXTSIZE
40
0.2
9
$TEXTSTYLE
7
Standard
9
$LUNITS
70
2
9
$LUPREC
70
4
9
$EXTNAMES
290
1
9
$INSUNITS
70
4
9
$LTSCALE
40
1
9
$LWDISPLAY
290
1
9
$PDMODE
70
0
9
$PDSIZE
40
0
9
$PLINEGEN
70
0
0
ENDSEC
0
SECTION
2
CLASSES
0
CLASS
1
RASTERVARIABLES
2
AcDbRasterVariables
3
ISM
90
0
280
0
281
0
0
ENDSEC
0
SECTION
2
TABLES
0
TABLE
2
VPORT
5
237
100
AcDbSymbolTable
0
VPORT
5
1
100
AcDbSymbolTableRecord
100
AcDbViewportTableRecord
2
*Active
70
0
10
0
20
0
11
1
21
1
12
-1
22
1
13
0
23
0
14
0.5
24
0.5
15
10
25
10
16
0
26
0
36
1
17
0
27
0
37
0
0
ENDTAB
0
TABLE
2
LTYPE
5
238
100
AcDbSymbolTable
0
LTYPE
5
14
100
AcDbSymbolTableRecord
100
AcDbLinetypeTableRecord
70
0
2
ByBlock
3

72
65
73
0
40
0
0
LTYPE
5
15
100
AcDbSymbolTableRecord
100
AcDbLinetypeTableRecord
70
0
2
ByLayer
3

72
65
73
0
40
0
0
LTYPE
5
16
100
AcDbSymbolTableRecord
100
AcDbLinetypeTableRecord
70
0
2
Continuous
3
Solid line
72
65
73
0
40
0
0
LTYPE
5
6E
100
AcDbSymbolTableRecord
100
AcDbLinetypeTableRecord
70
0
2
CENTER
3
____ _ ____ _ ____ _ ____
72
65
73
4
40
47.5
49
22
74
0
49
-8.5
74
0
49
8.5
74
0
49
-8.5
74
0
0
LTYPE
5
6F
100
AcDbSymbolTableRecord
100
AcDbLinetypeTableRecord
70
0
2
DASHED
3
__ __ __ __ __ __ __ __ __
72
65
73
2
40
25.72
49
12.86
74
0
49
-12.86
74
0
0
ENDTAB
0
TABLE
2
LAYER
5
239
100
AcDbSymbolTable
0
LAYER
5
10
100
AcDbSymbolTableRecord
100
AcDbLayerTableRecord
2
0
70
0
62
7
6
Continuous
290
1
370
-3
390
0
0
LAYER
5
71
100
AcDbSymbolTableRecord
100
AcDbLayerTableRecord
2
2
70
0
62
7
6
Continuous
290
1
370
-3
390
0
0
LAYER
5
85
100
AcDbSymbolTableRecord
100
AcDbLayerTableRecord
2
81
70
0
62
-3
6
Continuous
290
1
370
-3
390
0
0
LAYER
5
87
100
AcDbSymbolTableRecord
100
AcDbLayerTableRecord
2
80
70
0
62
-6
6
Continuous
290
1
370
-3
390
0
0
LAYER
5
89
100
AcDbSymbolTableRecord
100
AcDbLayerTableRecord
2
4
70
0
62
-2
6
CENTER
290
1
370
-3
390
0
0
LAYER
5
8F
100
AcDbSymbolTableRecord
100
AcDbLayerTableRecord
2
1
70
0
62
4
6
Continuous
290
1
370
-3
390
0
0
LAYER
5
223
100
AcDbSymbolTableRecord
100
AcDbLayerTableRecord
2
SK4
70
0
62
2
6
CENTER
290
1
370
-3
390
0
0
LAYER
5
224
100
AcDbSymbolTableRecord
100
AcDbLayerTableRecord
2
SK1
70
0
62
4
6
Continuous
290
1
370
-3
390
0
0
LAYER
5
225
100
AcDbSymbolTableRecord
100
AcDbLayerTableRecord
2
SK2
70
0
62
7
6
Continuous
290
1
370
-3
390
0
0
LAYER
5
226
100
AcDbSymbolTableRecord
100
AcDbLayerTableRecord
2
SK6
70
0
62
5
6
Continuous
290
1
370
-3
390
0
0
ENDTAB
0
TABLE
2
STYLE
5
23a
100
AcDbSymbolTable
0
STYLE
5
11
100
AcDbSymbolTableRecord
100
AcDbTextStyleTableRecord
2
Standard
3
txt
70
0
71
0
40
0
41
1
42
0
50
0
0
STYLE
5
1A7
100
AcDbSymbolTableRecord
100
AcDbTextStyleTableRecord
2
iso_b_vert
3
simplex.shx
70
0
71
0
40
0
41
1
42
0
50
0
0
STYLE
5
1A8
100
AcDbSymbolTableRecord
100
AcDbTextStyleTableRecord
2
DWGDirectTextStyle
3
simplex
70
0
71
0
40
0
41
1
42
0
50
0
0
ENDTAB
0
TABLE
2
DIMSTYLE
5
23b
100
AcDbSymbolTable
100
AcDbDimStyleTable
0
DIMSTYLE
105
27
100
AcDbSymbolTableRecord
100
AcDbDimStyleTableRecord
2
Standard
70
0
3
<>
41
0.18
42
0.0625
44
0.18
140
0.18
147
0.09
73
0
74
0
77
1
271
2
275
0
278
52
280
0
340
11
0
ENDTAB
0
TABLE
2
VIEW
5
23c
100
AcDbSymbolTable
0
ENDTAB
0
TABLE
2
UCS
5
23d
100
AcDbSymbolTable
0
ENDTAB
0
TABLE
2
APPID
5
23e
100
AcDbSymbolTable
0
APPID
5
12
100
AcDbSymbolTableRecord
100
AcDbRegAppTableRecord
2
ACAD
70
0
0
APPID
5
21F
100
AcDbSymbolTableRecord
100
AcDbRegAppTableRecord
2
ACAD_MLEADERVER
70
0
0
ENDTAB
0
TABLE
2
BLOCK_RECORD
5
23f
100
AcDbSymbolTable
0
BLOCK_RECORD
5
1F
100
AcDbSymbolTableRecord
100
AcDbBlockTableRecord
2
*Model_Space
340
0
70
0
0
BLOCK_RECORD
5
1B
100
AcDbSymbolTableRecord
100
AcDbBlockTableRecord
2
*Paper_Space
340
0
70
0
0
BLOCK_RECORD
5
23
100
AcDbSymbolTableRecord
100
AcDbBlockTableRecord
2
*Paper_Space0
340
0
70
0
0
ENDTAB
0
ENDSEC
0
SECTION
2
BLOCKS
0
BLOCK
5
20
100
AcDbEntity
8
0
100
AcDbBlockBegin
2
*Model_Space
70
0
10
0
20
0
30
0
3
*Model_Space
0
ENDBLK
5
21
100
AcDbEntity
8
0
100
AcDbBlockEnd
0
BLOCK
5
1C
100
AcDbEntity
8
0
100
AcDbBlockBegin
2
*Paper_Space
70
0
10
0
20
0
30
0
3
*Paper_Space
0
ENDBLK
5
1D
100
AcDbEntity
8
0
100
AcDbBlockEnd
0
BLOCK
5
24
100
AcDbEntity
8
0
100
AcDbBlockBegin
2
*Paper_Space0
70
0
10
0
20
0
30
0
3
*Paper_Space0
0
ENDBLK
5
25
100
AcDbEntity
8
0
100
AcDbBlockEnd
0
ENDSEC
0
SECTION
2
ENTITIES
0
ARC
5
12B
100
AcDbEntity
8
1
62
256
6
ByLayer
370
18
48
1
60
0
100
AcDbCircle
39
0
10
425.8
20
-39.8
30
0
40
0.2
210
0
220
0
230
1
100
AcDbArc
50
270
51
360
0
ARC
5
12C
100
AcDbEntity
8
1
62
256
6
ByLayer
370
18
48
1
60
0
100
AcDbCircle
39
0
10
425.8
20
39.8
30
0
40
0.2
210
0
220
0
230
1
100
AcDbArc
50
360
51
90
0
ARC
5
12D
100
AcDbEntity
8
SK1
62
256
6
ByLayer
370
18
48
1
60
0
100
AcDbCircle
39
0
10
-0.6
20
29.6
30
0
40
0.999999999999994
210
0
220
0
230
1
100
AcDbArc
50
293.578178
51
306.869898
0
ARC
5
12E
100
AcDbEntity
8
SK1
62
256
6
ByLayer
370
18
48
1
60
0
100
AcDbCircle
39
0
10
-0.6
20
-29.6
30
0
40
0.999999999999994
210
0
220
0
230
1
100
AcDbArc
50
53.130102
51
66.421822
0
ELLIPSE
5
12F
100
AcDbEntity
8
1
62
256
6
ByLayer
370
13
48
1
60
0
100
AcDbEllipse
10
430.145698
20
-19.588981
30
0
11
2.51430274659212
21
0.662028472559391
31
0
210
0
220
0
230
1
40
0.858616
41
1.01143952070853
42
-0.559356806086417
0
ELLIPSE
5
130
100
AcDbEntity
8
1
62
256
6
ByLayer
370
13
48
0.05
60
0
100
AcDbEllipse
10
430.210961
20
19.836842
30
0
11
-2.90111855376013
21
0.763879006799318
31
0
210
0
220
0
230
1
40
0.858616
41
-1.53503829630681
42
-3.10583462310168
0
ELLIPSE
5
131
100
AcDbEntity
8
1
62
256
6
ByLayer
370
13
48
0.05
60
0
100
AcDbEllipse
10
430.210961
20
-19.836842
30
0
11
2.90111855376014
21
0.763879006799297
31
0
210
0
220
0
230
1
40
0.858616
41
1.01143952070846
42
-0.559356806086399
0
ELLIPSE
5
132
100
AcDbEntity
8
1
62
256
6
ByLayer
370
13
48
1
60
0
100
AcDbEllipse
10
430.145698
20
19.588981
30
0
11
-2.51430274659212
21
0.662028472559409
31
0
210
0
220
0
230
1
40
0.858616
41
-1.53503829630674
42
-3.10583462310167
0
ELLIPSE
5
133
100
AcDbEntity
8
1
62
256
6
ByLayer
370
18
48
1
60
0
100
AcDbEllipse
10
-6.763884
20
0
30
0
11
18.7348357595645
21
39.4834983055012
31
0
210
0
220
0
230
1
40
0.341999
41
-1.08794676716928
42
-0.161099005228948
0
ELLIPSE
5
134
100
AcDbEntity
8
1
62
256
6
ByLayer
370
18
48
1
60
0
100
AcDbEllipse
10
30.763884
20
0
30
0
11
18.7348357595637
21
-39.4834983054996
31
0
210
0
220
0
230
1
40
0.341999
41
-2.98049364836085
42
-2.05364588642049
0
ELLIPSE
5
135
100
AcDbEntity
8
1
62
256
6
ByLayer
370
18
48
1
60
0
100
AcDbEllipse
10
30.763884
20
0
30
0
11
18.7348357595625
21
39.4834983054982
31
0
210
0
220
0
230
1
40
0.341999
41
2.05364588642046
42
2.98049364836084
0
ELLIPSE
5
136
100
AcDbEntity
8
1
62
256
6
ByLayer
370
18
48
1
60
0
100
AcDbEllipse
10
-6.763884
20
0
30
0
11
18.7348357595637
21
-39.4834983055002
31
0
210
0
220
0
230
1
40
0.341999
41
0.161099005228951
42
1.0879467671693
0
ELLIPSE
5
137
100
AcDbEntity
8
1
62
256
6
ByLayer
370
18
48
1
60
0
100
AcDbEllipse
10
-78.484163
20
-510.499852
30
0
11
549.31014110178
21
528.157901259353
31
0
210
0
220
0
230
1
40
0.048593
41
-0.336550982618699
42
-0.330119284727314
0
ELLIPSE
5
138
100
AcDbEntity
8
1
62
256
6
ByLayer
370
18
48
1
60
0
100
AcDbEllipse
10
-78.54647
20
510.557775
30
0
11
549.372493808251
21
-528.215972963417
31
0
210
0
220
0
230
1
40
0.048591
41
0.33010112779526
42
0.33653244586408
0
ELLIPSE
5
139
100
AcDbEntity
8
1
62
256
6
ByLayer
370
18
48
1
60
0
100
AcDbEllipse
10
454.879096
20
0
30
0
11
38.0494836898329
21
39.322369895699
31
0
210
0
220
0
230
1
40
0.192684
41
-2.09405060701511
42
-1.93293084638512
0
ELLIPSE
5
13A
100
AcDbEntity
8
1
62
256
6
ByLayer
370
18
48
1
60
0
100
AcDbEllipse
10
454.879096
20
0
30
0
11
38.0494836837851
21
-39.3223698876939
31
0
210
0
220
0
230
1
40
0.192684
41
1.93293084632305
42
2.094050606979
0
ELLIPSE
5
13B
100
AcDbEntity
8
1
62
256
6
ByLayer
370
18
48
1
60
0
100
AcDbEllipse
10
430.210961
20
-19.836842
30
0
11
2.41759879480012
21
0.636565838999414
31
0
210
0
220
0
230
1
40
0.858616
41
-0.337653764015717
42
-0.0223161732887919
0
ELLIPSE
5
13C
100
AcDbEntity
8
1
62
256
6
ByLayer
370
18
48
1
60
0
100
AcDbEllipse
10
430.210961
20
-19.836842
30
0
11
2.41759879480012
21
0.636565838999414
31
0
210
0
220
0
230
1
40
0.858616
41
2.03346368557614
42
-0.33765330700272
0
ELLIPSE
5
13D
100
AcDbEntity
8
1
62
256
6
ByLayer
370
18
48
1
60
0
100
AcDbEllipse
10
449.291578
20
24.877983
30
0
11
-1.53900039462537
21
1.70923309859801
31
0
210
0
220
0
230
1
40
0.258819
41
-2.87033522338308
42
-0.271354208577131
0
ELLIPSE
5
13E
100
AcDbEntity
8
1
62
256
6
ByLayer
370
18
48
1
60
0
100
AcDbEllipse
10
449.148013
20
24.748717
30
0
11
1.67282651589714
21
-1.85786206369349
31
0
210
0
220
0
230
1
40
0.258819
41
0
42
-3.14159198189577
0
ELLIPSE
5
13F
100
AcDbEntity
8
1
62
256
6
ByLayer
370
18
48
1
60
0
100
AcDbEllipse
10
449.375316
20
-24.782739
30
0
11
1.53900039462538
21
1.709233098598
31
0
210
0
220
0
230
1
40
0.258819
41
-2.8703352233831
42
-0.271354208577136
0
ELLIPSE
5
140
100
AcDbEntity
8
1
62
256
6
ByLayer
370
18
48
1
60
0
100
AcDbEllipse
10
449.231751
20
-24.653473
30
0
11
-1.67282651589715
21
-1.85786206369348
31
0
210
0
220
0
230
1
40
0.258819
41
0
42
-3.14159198189577
0
ELLIPSE
5
141
100
AcDbEntity
8
1
62
256
6
ByLayer
370
18
48
1
60
0
100
AcDbEllipse
10
433.670464
20
0
30
0
11
2.44921270764508E-15
21
40.0000000000053
31
0
210
0
220
0
230
1
40
0.013091
41
-2.71806021835879
42
-0.423532435231027
0
ELLIPSE
5
142
100
AcDbEntity
8
1
62
256
6
ByLayer
370
18
48
1
60
0
100
AcDbEllipse
10
450.325003
20
7E-06
30
0
11
15.8173277660612
21
36.7397983395992
31
0
210
0
220
0
230
1
40
1
41
3.12459957207043
42
-3.12908608233503
0
ELLIPSE
5
143
100
AcDbEntity
8
1
62
256
6
ByLayer
370
18
48
1
60
0
100
AcDbEllipse
10
450.324997
20
6E-06
30
0
11
36.7070075103795
21
15.8932478957858
31
0
210
0
220
0
230
1
40
1
41
1.55622228085286
42
1.58572193907365
0
ELLIPSE
5
144
100
AcDbEntity
8
1
62
256
6
ByLayer
370
18
48
1
60
0
100
AcDbEllipse
10
408.381172
20
0.015665
30
0
11
69.2652107614095
21
-0.00897138767335515
31
0
210
0
220
0
230
1
40
0.577264
41
1.17691265683034
42
1.18178066161221
0
ELLIPSE
5
145
100
AcDbEntity
8
1
62
256
6
ByLayer
370
18
48
1
60
0
100
AcDbEllipse
10
460.331559
20
-0.000111
30
0
11
69.2821498129827
21
-6.10647822210496E-05
31
0
210
0
220
0
230
1
40
0.577351
41
1.94007031456806
42
1.95043426144391
0
ELLIPSE
5
146
100
AcDbEntity
8
1
62
256
6
ByLayer
370
18
48
1
60
0
100
AcDbEllipse
10
410.968159
20
0.000192
30
0
11
69.2818333030517
21
-0.000100087541239497
31
0
210
0
220
0
230
1
40
0.577349
41
1.21155835588597
42
1.22184220639355
0
ELLIPSE
5
147
100
AcDbEntity
8
1
62
256
6
ByLayer
370
18
48
1
60
0
100
AcDbEllipse
10
457.733477
20
-0.000117
30
0
11
69.2821506076438
21
-5.72287352726731E-05
31
0
210
0
220
0
230
1
40
0.577351
41
1.90015729203098
42
1.91036896110154
0
ELLIPSE
5
148
100
AcDbEntity
8
1
62
256
6
ByLayer
370
18
48
1
60
0
100
AcDbEllipse
10
413.565793
20
-0.000567
30
0
11
69.2825975816117
21
0.00026267640515696
31
0
210
0
220
0
230
1
40
0.577354
41
1.25132295920665
42
1.26146587591825
0
ELLIPSE
5
149
100
AcDbEntity
8
1
62
256
6
ByLayer
370
18
48
1
60
0
100
AcDbEllipse
10
455.135624
20
-0.000558
30
0
11
69.2825797058301
21
-0.000243016376107345
31
0
210
0
220
0
230
1
40
0.577354
41
1.86078504460719
42
1.87086635066224
0
ELLIPSE
5
14A
100
AcDbEntity
8
1
62
256
6
ByLayer
370
18
48
1
60
0
100
AcDbEllipse
10
416.164108
20
-0.000162
30
0
11
69.2821892258435
21
6.64568077478381E-05
31
0
210
0
220
0
230
1
40
0.577351
41
1.29057998644543
42
1.30060294226699
0
ELLIPSE
5
14B
100
AcDbEntity
8
1
62
256
6
ByLayer
370
18
48
1
60
0
100
AcDbEllipse
10
452.537192
20
0.000139
30
0
11
69.2819002152699
21
5.27713553135228E-05
31
0
210
0
220
0
230
1
40
0.577349
41
1.82186228471894
42
1.83183319060477
0
ELLIPSE
5
14C
100
AcDbEntity
8
1
62
256
6
ByLayer
370
18
48
1
60
0
100
AcDbEllipse
10
418.762122
20
-0.000341
30
0
11
69.2823530942498
21
0.00011990594043643
31
0
210
0
220
0
230
1
40
0.577353
41
1.32939410984687
42
1.33931592013316
0
ELLIPSE
5
14D
100
AcDbEntity
8
1
62
256
6
ByLayer
370
18
48
1
60
0
100
AcDbEllipse
10
449.939177
20
4E-06
30
0
11
69.2820288577059
21
1.06635880245376E-06
31
0
210
0
220
0
230
1
40
0.57735
41
1.78333025055705
42
1.79320874102571
0
ELLIPSE
5
14E
100
AcDbEntity
8
1
62
256
6
ByLayer
370
18
48
1
60
0
100
AcDbEllipse
10
421.360527
20
0.000538
30
0
11
69.2815385206726
21
-0.000158630704417221
31
0
210
0
220
0
230
1
40
0.577347
41
1.36784603398731
42
1.37768419343558
0
ELLIPSE
5
14F
100
AcDbEntity
8
1
62
256
6
ByLayer
370
18
48
1
60
0
100
AcDbEllipse
10
447.341294
20
-0.000611
30
0
11
69.2825868715789
21
-0.000163206591477061
31
0
210
0
220
0
230
1
40
0.577354
41
1.74511808552161
42
1.75492083067987
0
ELLIPSE
5
150
100
AcDbEntity
8
1
62
256
6
ByLayer
370
18
48
1
60
0
100
AcDbEllipse
10
423.958367
20
-0.000178
30
0
11
69.2821920095738
21
4.25548336060282E-05
31
0
210
0
220
0
230
1
40
0.577352
41
1.4059880688395
42
1.41575853040883
0
ELLIPSE
5
151
100
AcDbEntity
8
1
62
256
6
ByLayer
370
18
48
1
60
0
100
AcDbEllipse
10
444.743057
20
-0.000124
30
0
11
69.2821426485509
21
-2.61376518534998E-05
31
0
210
0
220
0
230
1
40
0.577351
41
1.70715645534939
42
1.71689925347936
0
ELLIPSE
5
152
100
AcDbEntity
8
1
62
256
6
ByLayer
370
18
48
1
60
0
100
AcDbEllipse
10
426.55651
20
8E-05
30
0
11
69.2819610300834
21
-1.47938556058672E-05
31
0
210
0
220
0
230
1
40
0.57735
41
1.44389372921676
42
1.45361183165249
0
ELLIPSE
5
153
100
AcDbEntity
8
1
62
256
6
ByLayer
370
18
48
1
60
0
100
AcDbEllipse
10
442.14489
20
0.000336
30
0
11
69.2817363960665
21
5.1934612977317E-05
31
0
210
0
220
0
230
1
40
0.577348
41
1.66939261487291
42
1.67909030547658
0
ELLIPSE
5
154
100
AcDbEntity
8
1
62
256
6
ByLayer
370
18
48
1
60
0
100
AcDbEllipse
10
429.154646
20
0.00053
30
0
11
69.2815682507602
21
-6.68574938748777E-05
31
0
210
0
220
0
230
1
40
0.577346
41
1.4816167429302
42
1.49129702429866
0
ELLIPSE
5
155
100
AcDbEntity
8
1
62
256
6
ByLayer
370
18
48
1
60
0
100
AcDbEllipse
10
439.546919
20
-0.000392
30
0
11
69.2823740219724
21
-3.87553628246807E-05
31
0
210
0
220
0
230
1
40
0.577353
41
1.63177227432279
42
1.64143895952817
0
ELLIPSE
5
156
100
AcDbEntity
8
1
62
256
6
ByLayer
370
18
48
1
60
0
100
AcDbEllipse
10
431.752635
20
-0.00013
30
0
11
69.2821453583084
21
8.90263168814706E-06
31
0
210
0
220
0
230
1
40
0.577351
41
1.51921081262326
42
1.5288671584313
0
ELLIPSE
5
157
100
AcDbEntity
8
1
62
256
6
ByLayer
370
18
48
1
60
0
100
AcDbEllipse
10
436.948796
20
2.2E-05
30
0
11
69.2820132633879
21
1.0361468885858E-06
31
0
210
0
220
0
230
1
40
0.57735
41
1.59423595361854
42
1.60388561834026
0
ELLIPSE
5
158
100
AcDbEntity
8
1
62
256
6
ByLayer
370
18
48
1
60
0
100
AcDbEllipse
10
434.35072
20
-6.4E-05
30
0
11
69.282087870211
21
8.44798556771037E-07
31
0
210
0
220
0
230
1
40
0.577351
41
1.55673335342604
42
1.56637956529751
0
ELLIPSE
5
159
100
AcDbEntity
8
1
62
256
6
ByLayer
370
18
48
1
60
0
100
AcDbEllipse
10
434.35072
20
6.9E-05
30
0
11
69.2820918044147
21
-9.07994363656093E-07
31
0
210
0
220
0
230
1
40
0.577351
41
-1.56637956396839
42
-1.55673335264464
0
ELLIPSE
5
15A
100
AcDbEntity
8
1
62
256
6
ByLayer
370
18
48
1
60
0
100
AcDbEllipse
10
436.948797
20
-1.8E-05
30
0
11
69.2820171086361
21
-8.01592159752562E-07
31
0
210
0
220
0
230
1
40
0.57735
41
-1.60388562237129
42
-1.59423595818451
0
ELLIPSE
5
15B
100
AcDbEntity
8
1
62
256
6
ByLayer
370
18
48
1
60
0
100
AcDbEllipse
10
431.752639
20
8E-05
30
0
11
69.2821021628463
21
-5.50650004723986E-06
31
0
210
0
220
0
230
1
40
0.577351
41
-1.52886721728567
42
-1.51921086546957
0
ELLIPSE
5
15C
100
AcDbEntity
8
1
62
256
6
ByLayer
370
18
48
1
60
0
100
AcDbEllipse
10
439.546919
20
0.000392
30
0
11
69.2823740219705
21
3.87553629504072E-05
31
0
210
0
220
0
230
1
40
0.577353
41
-1.64143895952817
42
-1.63177227432279
0
ELLIPSE
5
15D
100
AcDbEntity
8
1
62
256
6
ByLayer
370
18
48
1
60
0
100
AcDbEllipse
10
429.154571
20
-1.5E-05
30
0
11
69.282019032684
21
1.63761080565522E-06
31
0
210
0
220
0
230
1
40
0.57735
41
-1.49129590479986
42
-1.48161568597063
0
ELLIPSE
5
15E
100
AcDbEntity
8
1
62
256
6
ByLayer
370
18
48
1
60
0
100
AcDbEllipse
10
442.144943
20
-3.7E-05
30
0
11
69.2820000052645
21
-5.83288506266479E-06
31
0
210
0
220
0
230
1
40
0.57735
41
-1.67909105298229
42
-1.66939339889322
0
ELLIPSE
5
15F
100
AcDbEntity
8
1
62
256
6
ByLayer
370
18
48
1
60
0
100
AcDbEllipse
10
426.556439
20
0.000254
30
0
11
69.2822568679552
21
-4.62673883579603E-05
31
0
210
0
220
0
230
1
40
0.577352
41
-1.45361079310126
42
-1.44389273155551
0
ELLIPSE
5
160
100
AcDbEntity
8
1
62
256
6
ByLayer
370
18
48
1
60
0
100
AcDbEllipse
10
444.742992
20
-0.000139
30
0
11
69.2819081876847
21
-2.94346544854892E-05
31
0
210
0
220
0
230
1
40
0.577349
41
-1.71689834274248
42
-1.70715551228356
0
ELLIPSE
5
161
100
AcDbEntity
8
1
62
256
6
ByLayer
370
18
48
1
60
0
100
AcDbEllipse
10
423.958386
20
0.000111
30
0
11
69.2821321107903
21
-2.62114865517025E-05
31
0
210
0
220
0
230
1
40
0.577351
41
-1.41575881094438
42
-1.40598834114879
0
ELLIPSE
5
162
100
AcDbEntity
8
1
62
256
6
ByLayer
370
18
48
1
60
0
100
AcDbEllipse
10
447.341228
20
0.000401
30
0
11
69.2823961581054
21
0.000106875275670643
31
0
210
0
220
0
230
1
40
0.577353
41
-1.75491990327911
42
-1.74511713197318
0
ELLIPSE
5
163
100
AcDbEntity
8
1
62
256
6
ByLayer
370
18
48
1
60
0
100
AcDbEllipse
10
421.36041
20
-0.000202
30
0
11
69.2818472624643
21
5.95268588734604E-05
31
0
210
0
220
0
230
1
40
0.577349
41
-1.37768252257095
42
-1.36784440533847
0
ELLIPSE
5
164
100
AcDbEntity
8
1
62
256
6
ByLayer
370
18
48
1
60
0
100
AcDbEllipse
10
449.939013
20
-0.000434
30
0
11
69.2816297997879
21
-0.000140301562454488
31
0
210
0
220
0
230
1
40
0.577347
41
-1.79320644666603
42
-1.78332790183224
0
ELLIPSE
5
165
100
AcDbEntity
8
1
62
256
6
ByLayer
370
18
48
1
60
0
100
AcDbEllipse
10
418.761974
20
0.000696
30
0
11
69.2826863987014
21
-0.000244539234950374
31
0
210
0
220
0
230
1
40
0.577355
41
-1.33931382032228
42
-1.32939205528529
0
ELLIPSE
5
166
100
AcDbEntity
8
1
62
256
6
ByLayer
370
18
48
1
60
0
100
AcDbEllipse
10
452.537112
20
-0.000315
30
0
11
69.2817324196397
21
-0.000119495304068089
31
0
210
0
220
0
230
1
40
0.577348
41
-1.83183209196691
42
-1.82186116337806
0
ELLIPSE
5
167
100
AcDbEntity
8
1
62
256
6
ByLayer
370
18
48
1
60
0
100
AcDbEllipse
10
416.164403
20
-0.00044
30
0
11
69.2816068271377
21
0.000179286626023256
31
0
210
0
220
0
230
1
40
0.577347
41
-1.30060707814236
42
-1.29058404386309
0
ELLIPSE
5
168
100
AcDbEntity
8
1
62
256
6
ByLayer
370
18
48
1
60
0
100
AcDbEllipse
10
455.135285
20
-8.6E-05
30
0
11
69.2819474126991
21
-3.77967324498463E-05
31
0
210
0
220
0
230
1
40
0.57735
41
-1.8708617143562
42
-1.86078032345942
0
ELLIPSE
5
169
100
AcDbEntity
8
1
62
256
6
ByLayer
370
18
48
1
60
0
100
AcDbEllipse
10
413.566172
20
-0.000107
30
0
11
69.2819254936939
21
4.96579874621509E-05
31
0
210
0
220
0
230
1
40
0.57735
41
-1.26147112463271
42
-1.25132811810531
0
ELLIPSE
5
16A
100
AcDbEntity
8
1
62
256
6
ByLayer
370
18
48
1
60
0
100
AcDbEllipse
10
457.733453
20
7.5E-05
30
0
11
69.2821086067628
21
3.70873939089392E-05
31
0
210
0
220
0
230
1
40
0.577351
41
-1.91036863124791
42
-1.90015695657157
0
ELLIPSE
5
16B
100
AcDbEntity
8
1
62
256
6
ByLayer
370
18
48
1
60
0
100
AcDbEllipse
10
410.968219
20
-0.000287
30
0
11
69.2817352514117
21
0.000149281152854405
31
0
210
0
220
0
230
1
40
0.577349
41
-1.22184303116126
42
-1.21155916765157
0
ELLIPSE
5
16C
100
AcDbEntity
8
1
62
256
6
ByLayer
370
18
48
1
60
0
100
AcDbEllipse
10
460.331536
20
7.8E-05
30
0
11
69.2821145084493
21
4.27032285605971E-05
31
0
210
0
220
0
230
1
40
0.577351
41
-1.95043395772794
42
-1.94007000619413
0
ELLIPSE
5
16D
100
AcDbEntity
8
1
62
256
6
ByLayer
370
18
48
1
60
0
100
AcDbEllipse
10
408.371646
20
-0.002354
30
0
11
69.2795037313388
21
0.00134988590047202
31
0
210
0
220
0
230
1
40
0.577337
41
-1.18165312077824
42
-1.17678599252694
0
ELLIPSE
5
16E
100
AcDbEntity
8
1
62
256
6
ByLayer
370
18
48
1
60
0
100
AcDbEllipse
10
430.210961
20
19.836842
30
0
11
-2.41759879480011
21
0.636565838999433
31
0
210
0
220
0
230
1
40
0.858616
41
-2.88413149758207
42
0
0
ELLIPSE
5
16F
100
AcDbEntity
8
1
62
256
6
ByLayer
370
18
48
1
60
0
100
AcDbEllipse
10
430.210961
20
19.836842
30
0
11
-2.41759879480011
21
0.636565838999433
31
0
210
0
220
0
230
1
40
0.858616
41
0
42
0.931725474063538
0
ELLIPSE
5
170
100
AcDbEntity
8
1
62
256
6
ByLayer
370
18
48
1
60
0
100
AcDbEllipse
10
430.210961
20
19.836842
30
0
11
-2.41759879480011
21
0.636565838999433
31
0
210
0
220
0
230
1
40
0.858616
41
-3.07655402126275
42
-2.88413149758207
0
POINT
5
70
100
AcDbEntity
8
2
62
256
6
ByLayer
370
18
48
1
60
0
100
AcDbPoint
10
433.275
20
-16
30
0
39
0
210
0
220
0
230
1
50
360
0
POINT
5
72
100
AcDbEntity
8
2
62
256
6
ByLayer
370
18
48
1
60
0
100
AcDbPoint
10
426
20
0
30
0
39
0
210
0
220
0
230
1
50
360
0
POINT
5
73
100
AcDbEntity
8
2
62
256
6
ByLayer
370
18
48
1
60
0
100
AcDbPoint
10
433.275
20
16
30
0
39
0
210
0
220
0
230
1
50
360
0
POINT
5
74
100
AcDbEntity
8
2
62
256
6
ByLayer
370
18
48
1
60
0
100
AcDbPoint
10
434.325
20
0
30
0
39
0
210
0
220
0
230
1
50
360
0
POINT
5
75
100
AcDbEntity
8
2
62
256
6
ByLayer
370
18
48
1
60
0
100
AcDbPoint
10
442.825
20
0
30
0
39
0
210
0
220
0
230
1
50
360
0
POINT
5
76
100
AcDbEntity
8
2
62
256
6
ByLayer
370
18
48
1
60
0
100
AcDbPoint
10
426
20
0
30
0
39
0
210
0
220
0
230
1
50
360
0
POINT
5
77
100
AcDbEntity
8
2
62
256
6
ByLayer
370
18
48
1
60
0
100
AcDbPoint
10
443.058476
20
-19.09503
30
0
39
0
210
0
220
0
230
1
50
360
0
POINT
5
78
100
AcDbEntity
8
2
62
256
6
ByLayer
370
70
48
1
60
0
100
AcDbPoint
10
445.068379
20
-20.904756
30
0
39
0
210
0
220
0
230
1
50
360
0
POINT
5
79
100
AcDbEntity
8
2
62
256
6
ByLayer
370
70
48
1
60
0
100
AcDbPoint
10
444.984641
20
21
30
0
39
0
210
0
220
0
230
1
50
360
0
POINT
5
7A
100
AcDbEntity
8
2
62
256
6
ByLayer
370
18
48
1
60
0
100
AcDbPoint
10
441.684641
20
0
30
0
39
0
210
0
220
0
230
1
50
360
0
POINT
5
7B
100
AcDbEntity
8
2
62
256
6
ByLayer
370
70
48
1
60
0
100
AcDbPoint
10
442.984641
20
0
30
0
39
0
210
0
220
0
230
1
50
360
0
POINT
5
7C
100
AcDbEntity
8
2
62
256
6
ByLayer
370
70
48
1
60
0
100
AcDbPoint
10
433.984641
20
0
30
0
39
0
210
0
220
0
230
1
50
360
0
POINT
5
7D
100
AcDbEntity
8
2
62
256
6
ByLayer
370
18
48
1
60
0
100
AcDbPoint
10
442.974738
20
19.190275
30
0
39
0
210
0
220
0
230
1
50
360
0
POINT
5
7E
100
AcDbEntity
8
2
62
256
6
ByLayer
370
18
48
1
60
0
100
AcDbPoint
10
372.55
20
0
30
0
39
0
210
0
220
0
230
1
50
360
0
POINT
5
7F
100
AcDbEntity
8
2
62
256
6
ByLayer
370
18
48
1
60
0
100
AcDbPoint
10
385.55
20
0
30
0
39
0
210
0
220
0
230
1
50
360
0
POINT
5
80
100
AcDbEntity
8
2
62
256
6
ByLayer
370
18
48
1
60
0
100
AcDbPoint
10
319.55
20
0
30
0
39
0
210
0
220
0
230
1
50
360
0
POINT
5
81
100
AcDbEntity
8
2
62
256
6
ByLayer
370
18
48
1
60
0
100
AcDbPoint
10
306.55
20
0
30
0
39
0
210
0
220
0
230
1
50
360
0
POINT
5
82
100
AcDbEntity
8
2
62
256
6
ByLayer
370
18
48
1
60
0
100
AcDbPoint
10
430.210961
20
19.836842
30
0
39
0
210
0
220
0
230
1
50
360
0
POINT
5
83
100
AcDbEntity
8
2
62
256
6
ByLayer
370
18
48
1
60
0
100
AcDbPoint
10
309.05
20
0
30
0
39
0
210
0
220
0
230
1
50
360
0
POINT
5
84
100
AcDbEntity
8
81
62
256
6
ByLayer
370
18
48
1
60
0
100
AcDbPoint
10
435
20
0
30
0
39
0
210
0
220
0
230
1
50
360
0
POINT
5
86
100
AcDbEntity
8
80
62
256
6
ByLayer
370
18
48
1
60
0
100
AcDbPoint
10
0
20
0
30
0
39
0
210
0
220
0
230
1
50
360
0
SPLINE
5
171
100
AcDbEntity
8
SK1
62
256
6
ByLayer
370
18
48
1
60
0
100
AcDbSpline
70
4
71
3
72
11
73
7
40
0
40
0
40
0
40
0
40
0.2388893496862
40
0.497421607755303
40
0.757386725613643
40
1
40
1
40
1
40
1
41
1
10
-0.394913799811391
20
-27.3654112548763
30
0
41
1
10
-0.369683308142882
20
-27.3663394559984
30
0
41
1
10
-0.321111944271308
20
-27.3763891500634
30
0
41
1
10
-0.255177176288598
20
-27.4196125572155
30
0
41
1
10
-0.211247851191516
20
-27.4855974197866
30
0
41
1
10
-0.200957398531429
20
-27.5346319643647
30
0
41
1
10
-0.200000000000102
20
-27.5602884583736
30
0
0
SPLINE
5
172
100
AcDbEntity
8
SK1
62
256
6
ByLayer
370
18
48
1
60
0
100
AcDbSpline
70
4
71
3
72
11
73
7
40
0
40
0
40
0
40
0
40
0.242613274632052
40
0.502578392599584
40
0.761110650559863
40
1
40
1
40
1
40
1
41
1
10
-0.199999999999903
20
27.5602884593823
30
0
41
1
10
-0.200957398526057
20
27.5346319653141
30
0
41
1
10
-0.211247851186343
20
27.4855974206285
30
0
41
1
10
-0.25517717626208
20
27.4196125578967
30
0
41
1
10
-0.32111194424958
20
27.3763891506148
30
0
41
1
10
-0.36968330813734
20
27.3663394565247
30
0
41
1
10
-0.394913799811192
20
27.3654112553951
30
0
0
SPLINE
5
173
100
AcDbEntity
8
SK1
62
256
6
ByLayer
370
18
48
1
60
0
100
AcDbSpline
70
4
71
2
72
6
73
3
40
0
40
0
40
0
40
1
40
1
40
1
41
1
10
-46.4999999999999
20
26.4073080746202
30
0
41
1
10
-47.2500000380091
20
25.9743785821416
30
0
41
1
10
-47.9999999999999
20
25.541448947548
30
0
0
SPLINE
5
174
100
AcDbEntity
8
SK1
62
256
6
ByLayer
370
18
48
1
60
0
100
AcDbSpline
70
4
71
2
72
6
73
3
40
0
40
0
40
0
40
1
40
1
40
1
41
1
10
-48.0000000000001
20
-25.5414493215233
30
0
41
1
10
-47.2500000379547
20
-25.9743789770286
30
0
41
1
10
-46.5000000000001
20
-26.4073084920197
30
0
0
SPLINE
5
175
100
AcDbEntity
8
SK1
62
256
6
ByLayer
370
18
48
1
60
0
100
AcDbSpline
70
4
71
2
72
6
73
3
40
0
40
0
40
0
40
1
40
1
40
1
41
1
10
-0.394913799811192
20
27.3654109362823
30
0
41
1
10
-1.19497688887543
20
27.3453143410234
30
0
41
1
10
-1.9950399779392
20
27.3252177457659
30
0
0
SPLINE
5
176
100
AcDbEntity
8
SK1
62
256
6
ByLayer
370
18
48
1
60
0
100
AcDbSpline
70
4
71
2
72
6
73
3
40
0
40
0
40
0
40
1
40
1
40
1
41
1
10
-1.9950399779394
20
-27.3252177453533
30
0
41
1
10
-1.19497688887563
20
-27.3453143405603
30
0
41
1
10
-0.394913799811391
20
-27.3654109357686
30
0
0
SPLINE
5
177
100
AcDbEntity
8
SK1
62
256
6
ByLayer
370
18
48
1
60
0
100
AcDbSpline
70
4
71
3
72
13
73
9
40
0
40
0
40
0
40
0
40
0.239476651984635
40
0.368387280177935
40
0.500029253268045
40
0.631666356502875
40
0.760563560186411
40
1
40
1
40
1
40
1
41
1
10
-1.9950399779392
20
27.325218063952
30
0
41
1
10
-2.0211099020289
20
27.3248162470299
30
0
41
1
10
-2.05883986745019
20
27.3309874079684
30
0
41
1
10
-2.1062765532715
20
27.3540268959373
30
0
41
1
10
-2.13886325113751
20
27.37918954629
30
0
41
1
10
-2.16563551769416
20
27.4104653546574
30
0
41
1
10
-2.19103253553236
20
27.4566758426755
30
0
41
1
10
-2.19909167979034
20
27.4940420737146
30
0
41
1
10
-2.1999999999999
20
27.5200952679265
30
0
0
SPLINE
5
178
100
AcDbEntity
8
SK1
62
256
6
ByLayer
370
18
48
1
60
0
100
AcDbSpline
70
4
71
3
72
13
73
9
40
0
40
0
40
0
40
0
40
0.239436439566014
40
0.368333643169659
40
0.499970746376703
40
0.631612719497151
40
0.760523347771547
40
1
40
1
40
1
40
1
41
1
10
-2.2000000000001
20
-27.5200952670183
30
0
41
1
10
-2.19909167978666
20
-27.4940420728663
30
0
41
1
10
-2.19103253552868
20
-27.4566758419156
30
0
41
1
10
-2.16563551768938
20
-27.4104653540177
30
0
41
1
10
-2.13886325113109
20
-27.3791895457297
30
0
41
1
10
-2.10627655326452
20
-27.3540268954422
30
0
41
1
10
-2.05883986743983
20
-27.3309874075326
30
0
41
1
10
-2.02110990202361
20
-27.3248162466093
30
0
41
1
10
-1.9950399779394
20
-27.3252180635337
30
0
0
SPLINE
5
179
100
AcDbEntity
8
SK1
62
256
6
ByLayer
370
18
48
1
60
0
100
AcDbSpline
70
4
71
2
72
6
73
3
40
0
40
0
40
0
40
1
40
1
40
1
41
1
10
-2.1999999999999
20
27.5062670250574
30
0
41
1
10
-24.3500000023321
20
26.9501984522265
30
0
41
1
10
-46.4999999999999
20
26.3941258787021
30
0
0
SPLINE
5
17A
100
AcDbEntity
8
SK1
62
256
6
ByLayer
370
18
48
1
60
0
100
AcDbSpline
70
4
71
2
72
6
73
3
40
0
40
0
40
0
40
1
40
1
40
1
41
1
10
-46.5000000000001
20
-26.39412588177
30
0
41
1
10
-24.3500000023322
20
-26.950198452504
30
0
41
1
10
-2.2000000000001
20
-27.5062670222795
30
0
0
SPLINE
5
17B
100
AcDbEntity
8
1
62
256
6
ByLayer
370
18
48
1
60
0
100
AcDbSpline
70
4
71
3
72
26
73
22
40
0
40
0
40
0
40
0
40
0.0624999999999985
40
0.0624999999999985
40
0.093749999999997
40
0.093749999999997
40
0.124999999999996
40
0.124999999999996
40
0.249999999999996
40
0.249999999999996
40
0.374999999999996
40
0.374999999999996
40
0.437499999999995
40
0.437499999999995
40
0.499999999999994
40
0.499999999999994
40
0.624999999999994
40
0.624999999999994
40
0.749999999999994
40
0.749999999999994
40
1
40
1
40
1
40
1
41
1
10
13.4613248654053
20
38.1154578595254
30
0
41
1
10
13.4771575420864
20
38.1154578595254
30
0
41
1
10
13.4926967829161
20
38.1149630443687
30
0
41
1
10
13.5156051329865
20
38.1135446782954
30
0
41
1
10
13.5231743077463
20
38.112958862986
30
0
41
1
10
13.5381834149645
20
38.1115687100728
30
0
41
1
10
13.5456561777208
20
38.1107596566993
30
0
41
1
10
13.5820585103619
20
38.1062685963605
30
0
41
1
10
13.6085397975368
20
38.1012604668279
30
0
41
1
10
13.6577471021954
20
38.0892687952496
30
0
41
1
10
13.679582863524
20
38.0825033540053
30
0
41
1
10
13.7096051321546
20
38.0715750854946
30
0
41
1
10
13.7191444204646
20
38.0677988367431
30
0
41
1
10
13.7374189069212
20
38.0600136207932
30
0
41
1
10
13.7461680175131
20
38.0559959802045
30
0
41
1
10
13.7710680782538
20
38.0437782351316
30
0
41
1
10
13.7859982057654
20
38.035372109362
30
0
41
1
10
13.8133554924886
20
38.0181487945757
30
0
41
1
10
13.825773750339
20
38.0093303853474
30
0
41
1
10
13.8599678398713
20
37.9823481941391
30
0
41
1
10
13.8787504379152
20
37.9636126331775
30
0
41
1
10
13.8943375672975
20
37.944501011719
30
0
0
SPLINE
5
17C
100
AcDbEntity
8
1
62
256
6
ByLayer
370
18
48
1
60
0
100
AcDbSpline
70
4
71
3
72
32
73
28
40
0
40
0
40
0
40
0
40
0.249999999999984
40
0.249999999999984
40
0.374999999999978
40
0.374999999999978
40
0.437499999999973
40
0.437499999999973
40
0.499999999999968
40
0.499999999999968
40
0.624999999999964
40
0.624999999999964
40
0.68749999999997
40
0.68749999999997
40
0.749999999999977
40
0.749999999999977
40
0.812499999999983
40
0.812499999999983
40
0.843749999999986
40
0.843749999999986
40
0.874999999999989
40
0.874999999999989
40
0.937499999999995
40
0.937499999999995
40
0.968749999999998
40
0.968749999999998
40
1
40
1
40
1
40
1
41
1
10
13.8943375672974
20
12.6576002058705
30
0
41
1
10
13.8787561873888
20
12.6003292036664
30
0
41
1
10
13.8601238798743
20
12.5441499637057
30
0
41
1
10
13.8260027135196
20
12.4621216159941
30
0
41
1
10
13.8135898550187
20
12.4351561290449
30
0
41
1
10
13.7930183318667
20
12.3954218364665
30
0
41
1
10
13.785833939305
20
12.3822967529511
30
0
41
1
10
13.7707119348146
20
12.3563230389552
30
0
41
1
10
13.762764024215
20
12.3434618357382
30
0
41
1
10
13.7378358829827
20
12.3057192432198
30
0
41
1
10
13.7197379933358
20
12.2815531796604
30
0
41
1
10
13.6895137280946
20
12.2473838346622
30
0
41
1
10
13.6789130531145
20
12.2363474443953
30
0
41
1
10
13.6568189855007
20
12.2154741288525
30
0
41
1
10
13.6452904427559
20
12.2055929865225
30
0
41
1
10
13.6210819432586
20
12.1871605631488
30
0
41
1
10
13.6084039311046
20
12.1786070311296
30
0
41
1
10
13.5883100345542
20
12.1670216512239
30
0
41
1
10
13.5814016237712
20
12.1633555796796
30
0
41
1
10
13.567396336243
20
12.1566022540002
30
0
41
1
10
13.5602871584325
20
12.1535051719203
30
0
41
1
10
13.538618852768
20
12.1451084576005
30
0
41
1
10
13.5237210688637
20
12.1406978104913
30
0
41
1
10
13.5005803004528
20
12.1361671045752
30
0
41
1
10
13.492756294697
20
12.1350139079815
30
0
41
1
10
13.4770952538462
20
12.1334785049665
30
0
41
1
10
13.4692285817718
20
12.1330899674708
30
0
41
1
10
13.4613248654053
20
12.1330899674708
30
0
0
SPLINE
5
17D
100
AcDbEntity
8
1
62
256
6
ByLayer
370
18
48
1
60
0
100
AcDbSpline
70
4
71
3
72
26
73
22
40
0
40
0
40
0
40
0
40
0.0625000000000075
40
0.0625000000000075
40
0.0937500000000105
40
0.0937500000000105
40
0.125000000000014
40
0.125000000000014
40
0.25000000000001
40
0.25000000000001
40
0.375000000000006
40
0.375000000000006
40
0.437500000000001
40
0.437500000000001
40
0.499999999999996
40
0.499999999999996
40
0.624999999999995
40
0.624999999999995
40
0.749999999999994
40
0.749999999999994
40
1
40
1
40
1
40
1
41
1
10
10.5386751345949
20
12.1330899674709
30
0
41
1
10
10.5228424579138
20
12.1330899674709
30
0
41
1
10
10.5073032170842
20
12.1346446934813
30
0
41
1
10
10.4843948670137
20
12.1390985861073
30
0
41
1
10
10.476825692254
20
12.1409378530104
30
0
41
1
10
10.4618165850357
20
12.1453009719697
30
0
41
1
10
10.4543438222794
20
12.1478396076278
30
0
41
1
10
10.4179414896384
20
12.1619255694049
30
0
41
1
10
10.3914602024634
20
12.1776162497591
30
0
41
1
10
10.3422528978048
20
12.2150722196261
30
0
41
1
10
10.3204171364762
20
12.2361555816481
30
0
41
1
10
10.2903948678457
20
12.2700982796013
30
0
41
1
10
10.2808555795357
20
12.2818098068952
30
0
41
1
10
10.262581093079
20
12.3059141713457
30
0
41
1
10
10.2538319824872
20
12.3183336732123
30
0
41
1
10
10.2289319217464
20
12.3560364080033
30
0
41
1
10
10.2140017942349
20
12.3818915830843
30
0
41
1
10
10.1866445075116
20
12.4346746200447
30
0
41
1
10
10.1742262496612
20
12.4616063758704
30
0
41
1
10
10.1400321601289
20
12.543705389465
30
0
41
1
10
10.1212495620849
20
12.6003080708706
30
0
41
1
10
10.1056624327026
20
12.6576002058705
30
0
0
SPLINE
5
17E
100
AcDbEntity
8
1
62
256
6
ByLayer
370
18
48
1
60
0
100
AcDbSpline
70
4
71
3
72
32
73
28
40
0
40
0
40
0
40
0
40
0.249999999999982
40
0.249999999999982
40
0.374999999999978
40
0.374999999999978
40
0.437499999999979
40
0.437499999999979
40
0.49999999999998
40
0.49999999999998
40
0.624999999999981
40
0.624999999999981
40
0.687499999999981
40
0.687499999999981
40
0.74999999999998
40
0.74999999999998
40
0.812499999999979
40
0.812499999999979
40
0.843749999999982
40
0.843749999999982
40
0.874999999999984
40
0.874999999999984
40
0.937499999999993
40
0.937499999999993
40
0.968749999999996
40
0.968749999999996
40
1
40
1
40
1
40
1
41
1
10
10.1056624327028
20
37.944501011719
30
0
41
1
10
10.1212438126114
20
37.9636055836586
30
0
41
1
10
10.1398761201259
20
37.982201295386
30
0
41
1
10
10.1739972864806
20
38.0091614379607
30
0
41
1
10
10.1864101449815
20
38.0179913785432
30
0
41
1
10
10.2069816681335
20
38.0309572795535
30
0
41
1
10
10.2141660606952
20
38.0352325300314
30
0
41
1
10
10.2292880651856
20
38.0436784163767
30
0
41
1
10
10.2372359757852
20
38.0478530906641
30
0
41
1
10
10.2621641170175
20
38.0600837295901
30
0
41
1
10
10.2802620066644
20
38.0678870466103
30
0
41
1
10
10.3104862719056
20
38.0788882765901
30
0
41
1
10
10.3210869468857
20
38.0824358644267
30
0
41
1
10
10.3431810144995
20
38.0891364033823
30
0
41
1
10
10.3547095572443
20
38.0923035991791
30
0
41
1
10
10.3789180567417
20
38.0982048271662
30
0
41
1
10
10.3915960688956
20
38.1009395753101
30
0
41
1
10
10.411689965446
20
38.1046401449178
30
0
41
1
10
10.418598376229
20
38.1058104966307
30
0
41
1
10
10.4326036637572
20
38.1079654954301
30
0
41
1
10
10.4397128415677
20
38.1089532874668
30
0
41
1
10
10.4613811472322
20
38.1116304436585
30
0
41
1
10
10.4762789311365
20
38.1130353910943
30
0
41
1
10
10.4994196995475
20
38.114478227072
30
0
41
1
10
10.5072437053032
20
38.1148453768632
30
0
41
1
10
10.522904746154
20
38.1153341847951
30
0
41
1
10
10.5307714182284
20
38.1154578595254
30
0
41
1
10
10.538675134595
20
38.1154578595254
30
0
0
SPLINE
5
17F
100
AcDbEntity
8
1
62
256
6
ByLayer
370
18
48
1
60
0
100
AcDbSpline
70
4
71
3
72
26
73
22
40
0
40
0
40
0
40
0
40
0.0624999999999946
40
0.0624999999999946
40
0.0937499999999919
40
0.0937499999999919
40
0.124999999999989
40
0.124999999999989
40
0.249999999999983
40
0.249999999999983
40
0.374999999999977
40
0.374999999999977
40
0.437499999999979
40
0.437499999999979
40
0.499999999999982
40
0.499999999999982
40
0.624999999999987
40
0.624999999999987
40
0.749999999999993
40
0.749999999999993
40
1
40
1
40
1
40
1
41
1
10
10.5386751345947
20
-38.1154578595255
30
0
41
1
10
10.5228424579137
20
-38.1154578595255
30
0
41
1
10
10.507303217084
20
-38.1149630443688
30
0
41
1
10
10.4843948670135
20
-38.1135446782956
30
0
41
1
10
10.4768256922538
20
-38.1129588629861
30
0
41
1
10
10.4618165850355
20
-38.1115687100729
30
0
41
1
10
10.4543438222792
20
-38.1107596566994
30
0
41
1
10
10.4179414896382
20
-38.1062685963607
30
0
41
1
10
10.3914602024632
20
-38.101260466828
30
0
41
1
10
10.3422528978046
20
-38.0892687952498
30
0
41
1
10
10.320417136476
20
-38.0825033540055
30
0
41
1
10
10.2903948678455
20
-38.0715750854947
30
0
41
1
10
10.2808555795354
20
-38.0677988367432
30
0
41
1
10
10.2625810930788
20
-38.0600136207933
30
0
41
1
10
10.2538319824869
20
-38.0559959802046
30
0
41
1
10
10.2289319217462
20
-38.0437782351317
30
0
41
1
10
10.2140017942346
20
-38.0353721093621
30
0
41
1
10
10.1866445075114
20
-38.0181487945758
30
0
41
1
10
10.174226249661
20
-38.0093303853475
30
0
41
1
10
10.1400321601287
20
-37.9823481941392
30
0
41
1
10
10.1212495620847
20
-37.9636126331776
30
0
41
1
10
10.1056624327025
20
-37.9445010117191
30
0
0
SPLINE
5
180
100
AcDbEntity
8
1
62
256
6
ByLayer
370
18
48
1
60
0
100
AcDbSpline
70
4
71
3
72
32
73
28
40
0
40
0
40
0
40
0
40
0.250000000000003
40
0.250000000000003
40
0.375000000000001
40
0.375000000000001
40
0.437500000000001
40
0.437500000000001
40
0.5
40
0.5
40
0.625000000000005
40
0.625000000000005
40
0.687500000000002
40
0.687500000000002
40
0.749999999999999
40
0.749999999999999
40
0.812499999999997
40
0.812499999999997
40
0.843749999999995
40
0.843749999999995
40
0.874999999999994
40
0.874999999999994
40
0.937499999999999
40
0.937499999999999
40
0.96875
40
0.96875
40
1
40
1
40
1
40
1
41
1
10
10.1056624327026
20
-12.6576002058705
30
0
41
1
10
10.1212438126112
20
-12.6003292036665
30
0
41
1
10
10.1398761201257
20
-12.5441499637057
30
0
41
1
10
10.1739972864804
20
-12.4621216159941
30
0
41
1
10
10.1864101449813
20
-12.4351561290448
30
0
41
1
10
10.2069816681333
20
-12.3954218364665
30
0
41
1
10
10.214166060695
20
-12.3822967529511
30
0
41
1
10
10.2292880651854
20
-12.3563230389552
30
0
41
1
10
10.237235975785
20
-12.3434618357382
30
0
41
1
10
10.2621641170173
20
-12.3057192432198
30
0
41
1
10
10.2802620066642
20
-12.2815531796604
30
0
41
1
10
10.3104862719054
20
-12.2473838346622
30
0
41
1
10
10.3210869468855
20
-12.2363474443953
30
0
41
1
10
10.3431810144993
20
-12.2154741288524
30
0
41
1
10
10.3547095572442
20
-12.2055929865225
30
0
41
1
10
10.3789180567415
20
-12.1871605631488
30
0
41
1
10
10.3915960688954
20
-12.1786070311295
30
0
41
1
10
10.4116899654458
20
-12.1670216512239
30
0
41
1
10
10.4185983762288
20
-12.1633555796795
30
0
41
1
10
10.432603663757
20
-12.1566022540001
30
0
41
1
10
10.4397128415675
20
-12.1535051719203
30
0
41
1
10
10.461381147232
20
-12.1451084576005
30
0
41
1
10
10.4762789311363
20
-12.1406978104913
30
0
41
1
10
10.4994196995473
20
-12.1361671045752
30
0
41
1
10
10.507243705303
20
-12.1350139079815
30
0
41
1
10
10.5229047461539
20
-12.1334785049664
30
0
41
1
10
10.5307714182282
20
-12.1330899674708
30
0
41
1
10
10.5386751345948
20
-12.1330899674708
30
0
0
SPLINE
5
181
100
AcDbEntity
8
1
62
256
6
ByLayer
370
18
48
1
60
0
100
AcDbSpline
70
4
71
3
72
26
73
22
40
0
40
0
40
0
40
0
40
0.0625000000000102
40
0.0625000000000102
40
0.0937500000000113
40
0.0937500000000113
40
0.125000000000012
40
0.125000000000012
40
0.250000000000011
40
0.250000000000011
40
0.375000000000009
40
0.375000000000009
40
0.437500000000008
40
0.437500000000008
40
0.500000000000006
40
0.500000000000006
40
0.625000000000003
40
0.625000000000003
40
0.75
40
0.75
40
1
40
1
40
1
40
1
41
1
10
13.4613248654051
20
-12.133089967471
30
0
41
1
10
13.4771575420862
20
-12.133089967471
30
0
41
1
10
13.4926967829159
20
-12.1346446934814
30
0
41
1
10
13.5156051329863
20
-12.1390985861074
30
0
41
1
10
13.5231743077461
20
-12.1409378530106
30
0
41
1
10
13.5381834149643
20
-12.1453009719699
30
0
41
1
10
13.5456561777206
20
-12.147839607628
30
0
41
1
10
13.5820585103616
20
-12.161925569405
30
0
41
1
10
13.6085397975366
20
-12.1776162497593
30
0
41
1
10
13.6577471021952
20
-12.2150722196263
30
0
41
1
10
13.6795828635238
20
-12.2361555816482
30
0
41
1
10
13.7096051321543
20
-12.2700982796014
30
0
41
1
10
13.7191444204644
20
-12.2818098068954
30
0
41
1
10
13.737418906921
20
-12.3059141713458
30
0
41
1
10
13.7461680175129
20
-12.3183336732125
30
0
41
1
10
13.7710680782536
20
-12.3560364080034
30
0
41
1
10
13.7859982057652
20
-12.3818915830844
30
0
41
1
10
13.8133554924884
20
-12.4346746200448
30
0
41
1
10
13.8257737503388
20
-12.4616063758705
30
0
41
1
10
13.8599678398711
20
-12.5437053894651
30
0
41
1
10
13.8787504379151
20
-12.6003080708706
30
0
41
1
10
13.8943375672973
20
-12.6576002058705
30
0
0
SPLINE
5
182
100
AcDbEntity
8
1
62
256
6
ByLayer
370
18
48
1
60
0
100
AcDbSpline
70
4
71
3
72
32
73
28
40
0
40
0
40
0
40
0
40
0.249999999999994
40
0.249999999999994
40
0.374999999999994
40
0.374999999999994
40
0.437499999999993
40
0.437499999999993
40
0.499999999999993
40
0.499999999999993
40
0.624999999999995
40
0.624999999999995
40
0.687499999999993
40
0.687499999999993
40
0.749999999999991
40
0.749999999999991
40
0.812499999999989
40
0.812499999999989
40
0.843749999999993
40
0.843749999999993
40
0.874999999999997
40
0.874999999999997
40
0.937499999999998
40
0.937499999999998
40
0.968749999999999
40
0.968749999999999
40
1
40
1
40
1
40
1
41
1
10
13.8943375672972
20
-37.9445010117191
30
0
41
1
10
13.8787561873886
20
-37.9636055836586
30
0
41
1
10
13.8601238798741
20
-37.9822012953861
30
0
41
1
10
13.8260027135194
20
-38.0091614379608
30
0
41
1
10
13.8135898550184
20
-38.0179913785433
30
0
41
1
10
13.7930183318665
20
-38.0309572795536
30
0
41
1
10
13.7858339393048
20
-38.0352325300315
30
0
41
1
10
13.7707119348144
20
-38.0436784163768
30
0
41
1
10
13.7627640242148
20
-38.0478530906643
30
0
41
1
10
13.7378358829825
20
-38.0600837295902
30
0
41
1
10
13.7197379933356
20
-38.0678870466104
30
0
41
1
10
13.6895137280944
20
-38.0788882765902
30
0
41
1
10
13.6789130531143
20
-38.0824358644267
30
0
41
1
10
13.6568189855005
20
-38.0891364033824
30
0
41
1
10
13.6452904427557
20
-38.0923035991792
30
0
41
1
10
13.6210819432583
20
-38.0982048271663
30
0
41
1
10
13.6084039311044
20
-38.1009395753102
30
0
41
1
10
13.588310034554
20
-38.1046401449179
30
0
41
1
10
13.581401623771
20
-38.1058104966308
30
0
41
1
10
13.5673963362428
20
-38.1079654954302
30
0
41
1
10
13.5602871584324
20
-38.1089532874669
30
0
41
1
10
13.5386188527678
20
-38.1116304436586
30
0
41
1
10
13.5237210688635
20
-38.1130353910944
30
0
41
1
10
13.5005803004525
20
-38.1144782270721
30
0
41
1
10
13.4927562946968
20
-38.1148453768633
30
0
41
1
10
13.477095253846
20
-38.1153341847952
30
0
41
1
10
13.4692285817717
20
-38.1154578595255
30
0
41
1
10
13.4613248654051
20
-38.1154578595255
30
0
0
SPLINE
5
183
100
AcDbEntity
8
SK1
62
256
6
ByLayer
370
18
48
1
60
0
100
AcDbSpline
70
4
71
3
72
53
73
49
40
0
40
0
40
0
40
0
40
0.0274824016334729
40
0.0552770473464393
40
0.0830716930594058
40
0.0969690159158891
40
0.110866338772372
40
0.138660984485339
40
0.166455630198305
40
0.194250275911272
40
0.222044921624238
40
0.249839567337205
40
0.277634213050171
40
0.305428858763137
40
0.333223504476104
40
0.36101815018907
40
0.388812795902037
40
0.416607441615003
40
0.430504764471487
40
0.44440208732797
40
0.458299410184453
40
0.472196733040936
40
0.486094055897419
40
0.493042717325661
40
0.499991378753903
40
0.506940040182144
40
0.513888701610386
40
0.527786024466869
40
0.541683347323352
40
0.555580670179835
40
0.569477993036319
40
0.583375315892802
40
0.611169961605769
40
0.638964607318735
40
0.666759253031701
40
0.694553898744668
40
0.722348544457634
40
0.750143190170601
40
0.777937835883567
40
0.805732481596534
40
0.8335271273095
40
0.861321773022467
40
0.889116418735433
40
0.903013741591916
40
0.9169110644484
40
0.944705710161366
40
0.972500355874332
40
1
40
1
40
1
40
1
41
1
10
-48.0000000000001
20
-25.5414480514906
30
0
41
1
10
-48.0000000000001
20
-25.5425617390716
30
0
41
1
10
-48.0000000000001
20
-25.4640635357907
30
0
41
1
10
-48.0000000000001
20
-25.1322425192966
30
0
41
1
10
-48.0000000000001
20
-24.6943789872258
30
0
41
1
10
-48.0000000000001
20
-24.2527507958701
30
0
41
1
10
-48.0000000000001
20
-23.7534965427188
30
0
41
1
10
-48.0000000000001
20
-23.030309772166
30
0
41
1
10
-48.0000000000001
20
-22.0048954887129
30
0
41
1
10
-48.0000000000001
20
-20.8328487199719
30
0
41
1
10
-48.0000000000001
20
-19.5200996220051
30
0
41
1
10
-48.0000000000001
20
-18.0723511216475
30
0
41
1
10
-48.0000000000001
20
-16.4949784354154
30
0
41
1
10
-48.0000000000001
20
-14.7914034442657
30
0
41
1
10
-48
20
-12.9663998685648
30
0
41
1
10
-48
20
-11.0239134221953
30
0
41
1
10
-48
20
-8.96950823728517
30
0
41
1
10
-48
20
-7.1768657739093
30
0
41
1
10
-48
20
-5.68399982568371
30
0
41
1
10
-48
20
-4.55359781560853
30
0
41
1
10
-48
20
-3.41075035191318
30
0
41
1
10
-48
20
-2.26472549180232
30
0
41
1
10
-48
20
-1.32161475247139
30
0
41
1
10
-48
20
-0.561042317499073
30
0
41
1
10
-48
20
5.827934615E-07
30
0
41
1
10
-48
20
0.561043122290187
30
0
41
1
10
-48
20
1.32161426869393
30
0
41
1
10
-48
20
2.26472380030242
30
0
41
1
10
-48
20
3.41075020779331
30
0
41
1
10
-48
20
4.55359888251658
30
0
41
1
10
-48
20
5.683999612619
30
0
41
1
10
-48
20
7.17686534047022
30
0
41
1
10
-48
20
8.96950825544081
30
0
41
1
10
-48
20
11.023913502029
30
0
41
1
10
-47.9999999999999
20
12.9663999896203
30
0
41
1
10
-47.9999999999999
20
14.7914038739655
30
0
41
1
10
-47.9999999999999
20
16.494978782605
30
0
41
1
10
-47.9999999999999
20
18.0723510721557
30
0
41
1
10
-47.9999999999999
20
19.5200990771866
30
0
41
1
10
-47.9999999999999
20
20.832848699864
30
0
41
1
10
-47.9999999999999
20
22.0048965474212
30
0
41
1
10
-47.9999999999999
20
23.0303087127376
30
0
41
1
10
-47.9999999999999
20
23.7534935831731
30
0
41
1
10
-47.9999999999999
20
24.2527492082179
30
0
41
1
10
-47.9999999999999
20
24.6943791914989
30
0
41
1
10
-47.9999999999999
20
25.1322422668057
30
0
41
1
10
-47.9999999999999
20
25.4641324811128
30
0
41
1
10
-47.9999999999999
20
25.5426108833465
30
0
41
1
10
-47.9999999999999
20
25.5414458953333
30
0
0
SPLINE
5
184
100
AcDbEntity
8
SK1
62
256
6
ByLayer
370
18
48
1
60
0
100
AcDbSpline
70
4
71
3
72
34
73
30
40
0
40
0
40
0
40
0
40
0.249999999999998
40
0.249999999999998
40
0.374999999999997
40
0.374999999999997
40
0.499999999999996
40
0.499999999999996
40
0.624999999999995
40
0.624999999999995
40
0.687499999999994
40
0.687499999999994
40
0.749999999999992
40
0.749999999999992
40
0.812499999999991
40
0.812499999999991
40
0.843749999999992
40
0.843749999999992
40
0.874999999999993
40
0.874999999999993
40
0.906249999999993
40
0.906249999999993
40
0.921874999999994
40
0.921874999999994
40
0.937499999999995
40
0.937499999999995
40
0.968749999999998
40
0.968749999999998
40
1
40
1
40
1
40
1
41
1
10
-0.200000000000031
20
-6.55227712232445
30
0
41
1
10
-0.200337167165472
20
-6.48813612986319
30
0
41
1
10
-0.202001510499898
20
-6.42391230321689
30
0
41
1
10
-0.207302963817327
20
-6.32744107363968
30
0
41
1
10
-0.209543235203554
20
-6.29526142118763
30
0
41
1
10
-0.215252325213129
20
-6.23085553749721
30
0
41
1
10
-0.218714447593285
20
-6.19862926640158
30
0
41
1
10
-0.22737768518401
20
-6.1341297290364
30
0
41
1
10
-0.23254764290661
20
-6.10194739347932
30
0
41
1
10
-0.242355179803198
20
-6.05395477419671
30
0
41
1
10
-0.245978726317787
20
-6.03797456128368
30
0
41
1
10
-0.254174420408063
20
-6.00627164279575
30
0
41
1
10
-0.258730367644105
20
-5.99057839566021
30
0
41
1
10
-0.269245267236272
20
-5.95968016956073
30
0
41
1
10
-0.275173744753204
20
-5.94446441589309
30
0
41
1
10
-0.285980482524764
20
-5.92231143869844
30
0
41
1
10
-0.28990597898165
20
-5.91504038952888
30
0
41
1
10
-0.298797923187976
20
-5.90086426726452
30
0
41
1
10
-0.303674067400849
20
-5.89408804025425
30
0
41
1
10
-0.314848838487862
20
-5.88165454576182
30
0
41
1
10
-0.321040616956594
20
-5.87610899057313
30
0
41
1
10
-0.331681166148442
20
-5.86978149468354
30
0
41
1
10
-0.335493722016992
20
-5.86801034282462
30
0
41
1
10
-0.343284951652933
20
-5.86552288649176
30
0
41
1
10
-0.347371812910424
20
-5.86477563679688
30
0
41
1
10
-0.359534957572194
20
-5.86423711805912
30
0
41
1
10
-0.367571007865095
20
-5.86616228333767
30
0
41
1
10
-0.38210175002942
20
-5.87272803663089
30
0
41
1
10
-0.38879099572209
20
-5.87734923192875
30
0
41
1
10
-0.39491379981132
20
-5.8825856729909
30
0
0
SPLINE
5
185
100
AcDbEntity
8
SK1
62
256
6
ByLayer
370
18
48
1
60
0
100
AcDbSpline
70
4
71
3
72
38
73
34
40
0
40
0
40
0
40
0
40
0.0156250000000004
40
0.0156250000000004
40
0.0312500000000008
40
0.0312500000000008
40
0.0468750000000012
40
0.0468750000000012
40
0.0625000000000016
40
0.0625000000000016
40
0.078125000000002
40
0.078125000000002
40
0.0937500000000024
40
0.0937500000000024
40
0.125000000000003
40
0.125000000000003
40
0.156250000000005
40
0.156250000000005
40
0.187500000000006
40
0.187500000000006
40
0.250000000000005
40
0.250000000000005
40
0.312500000000005
40
0.312500000000005
40
0.375000000000004
40
0.375000000000004
40
0.500000000000003
40
0.500000000000003
40
0.625000000000001
40
0.625000000000001
40
0.75
40
0.75
40
1
40
1
40
1
40
1
41
1
10
-0.394913799811263
20
5.88258733498483
30
0
41
1
10
-0.391855475614122
20
5.87997174517943
30
0
41
1
10
-0.388679953698329
20
5.87753166439154
30
0
41
1
10
-0.382023894922739
20
5.87310852950299
30
0
41
1
10
-0.378520660678461
20
5.87111352959076
30
0
41
1
10
-0.371204411524815
20
5.86780375001044
30
0
41
1
10
-0.367430305230243
20
5.86650268448452
30
0
41
1
10
-0.359586250878706
20
5.86480236632462
30
0
41
1
10
-0.355491062365772
20
5.86442041571942
30
0
41
1
10
-0.347419400494431
20
5.86477259204989
30
0
41
1
10
-0.343334353292761
20
5.86551178963006
30
0
41
1
10
-0.335509573653297
20
5.86800393240804
30
0
41
1
10
-0.331763154935786
20
5.86973798480321
30
0
41
1
10
-0.320994194999543
20
5.87613112177433
30
0
41
1
10
-0.314813212304699
20
5.88168816956647
30
0
41
1
10
-0.303617390374939
20
5.89416050242824
30
0
41
1
10
-0.298778631313553
20
5.90089959919388
30
0
41
1
10
-0.289962744453959
20
5.91494866899535
30
0
41
1
10
-0.285986366953224
20
5.92229535303804
30
0
41
1
10
-0.275047927333063
20
5.94473551098528
30
0
41
1
10
-0.269098119985145
20
5.96006824141071
30
0
41
1
10
-0.258566536361201
20
5.99110891560525
30
0
41
1
10
-0.254019815815326
20
6.00682672167969
30
0
41
1
10
-0.245851820113202
20
6.03851342290707
30
0
41
1
10
-0.242238444719121
20
6.05448453988899
30
0
41
1
10
-0.232418188950959
20
6.1026714064829
30
0
41
1
10
-0.227272492676306
20
6.13483454456443
30
0
41
1
10
-0.218659309075349
20
6.1991230906373
30
0
41
1
10
-0.215212061754883
20
6.23126348879413
30
0
41
1
10
-0.209524252435514
20
6.29552574618808
30
0
41
1
10
-0.207290131858258
20
6.3276477818182
30
0
41
1
10
-0.202001043985916
20
6.42397958323062
30
0
41
1
10
-0.200337078752142
20
6.48815453706823
30
0
41
1
10
-0.199999999999974
20
6.55227865789408
30
0
0
SPLINE
5
186
100
AcDbEntity
8
SK1
62
256
6
ByLayer
370
13
48
1
60
0
100
AcDbSpline
70
4
71
3
72
25
73
21
40
0
40
0
40
0
40
0
40
0.0145587295951389
40
0.046402985374453
40
0.110091496933081
40
0.173780008491709
40
0.237468520050337
40
0.301157031608965
40
0.364845543167593
40
0.428534054726222
40
0.49222256628485
40
0.555911077843478
40
0.619599589402106
40
0.683288100960734
40
0.746976612519362
40
0.778820868298676
40
0.81066512407799
40
0.874353635636618
40
0.938042147195246
40
1
40
1
40
1
40
1
41
1
10
-0.39491379981132
20
-5.88258567299192
30
0
41
1
10
-0.39491379981132
20
-6.07052405947675
30
0
41
1
10
-0.39491379981132
20
-6.66606717738506
30
0
41
1
10
-0.39491379981132
20
-8.05259623229938
30
0
41
1
10
-0.394913799811334
20
-9.97566753154939
30
0
41
1
10
-0.394913799811334
20
-12.1534974735354
30
0
41
1
10
-0.394913799811349
20
-14.2008618261791
30
0
41
1
10
-0.394913799811349
20
-16.1168447823444
30
0
41
1
10
-0.394913799811363
20
-17.9007381804523
30
0
41
1
10
-0.394913799811363
20
-19.549694005804
30
0
41
1
10
-0.394913799811377
20
-21.0615461829413
30
0
41
1
10
-0.394913799811377
20
-22.432052288855
30
0
41
1
10
-0.394913799811377
20
-23.6558233145232
30
0
41
1
10
-0.394913799811377
20
-24.7273078069339
30
0
41
1
10
-0.394913799811391
20
-25.4857549542384
30
0
41
1
10
-0.394913799811391
20
-26.0073865712911
30
0
41
1
10
-0.394913799811391
20
-26.4695479101472
30
0
41
1
10
-0.394913799811391
20
-26.9317121751432
30
0
41
1
10
-0.394913799811377
20
-27.2808223617553
30
0
41
1
10
-0.394913799811391
20
-27.3652313354067
30
0
41
1
10
-0.394913799811377
20
-27.365410672906
30
0
0
SPLINE
5
187
100
AcDbEntity
8
SK1
62
256
6
ByLayer
370
18
48
1
60
0
100
AcDbSpline
70
4
71
3
72
49
73
45
40
0
40
0
40
0
40
0
40
0.0312500000000038
40
0.0312500000000038
40
0.0468750000000048
40
0.0468750000000048
40
0.0625000000000058
40
0.0781250000000069
40
0.0781250000000069
40
0.0859375000000073
40
0.0859375000000073
40
0.0937500000000077
40
0.109375000000009
40
0.117187500000009
40
0.117187500000009
40
0.125000000000009
40
0.125000000000009
40
0.15625000000001
40
0.15625000000001
40
0.171875000000011
40
0.171875000000011
40
0.187500000000011
40
0.187500000000011
40
0.218750000000012
40
0.218750000000012
40
0.234375000000012
40
0.234375000000012
40
0.250000000000012
40
0.250000000000012
40
0.31250000000001
40
0.31250000000001
40
0.375000000000009
40
0.375000000000009
40
0.437500000000007
40
0.437500000000007
40
0.500000000000006
40
0.500000000000006
40
0.625000000000004
40
0.625000000000004
40
0.750000000000003
40
0.750000000000003
40
0.875000000000001
40
0.875000000000001
40
1
40
1
40
1
40
1
41
1
10
-0.39491379981132
20
-5.88258567299192
30
0
41
1
10
-0.411179767739867
20
-5.89649691057778
30
0
41
1
10
-0.428385528731525
20
-5.90924654958064
30
0
41
1
10
-0.456220231625195
20
-5.92587726264904
30
0
41
1
10
-0.465900558107379
20
-5.93102514312227
30
0
41
1
10
-0.485699188913244
20
-5.94009851027181
30
0
41
1
10
-0.50595990233073
20
-5.94797987906676
30
0
41
1
10
-0.52727632439516
20
-5.95314074745056
30
0
41
1
10
-0.543724271296682
20
-5.9558251558885
30
0
41
1
10
-0.549307626346618
20
-5.95652193855128
30
0
41
1
10
-0.56040225407024
20
-5.95747179112044
30
0
41
1
10
-0.577005048576765
20
-5.95824738974093
30
0
41
1
10
-0.598988113232082
20
-5.95672779936984
30
0
41
1
10
-0.615363151583253
20
-5.953726487664
30
0
41
1
10
-0.626255188472399
20
-5.95131675596099
30
0
41
1
10
-0.631686913413517
20
-5.94990548753631
30
0
41
1
10
-0.658283686674324
20
-5.94201343342041
30
0
41
1
10
-0.678213101083699
20
-5.93297784531563
30
0
41
1
10
-0.706655485452217
20
-5.91648780259627
30
0
41
1
10
-0.715834603579097
20
-5.91052268984234
30
0
41
1
10
-0.733450676613359
20
-5.89799413410989
30
0
41
1
10
-0.741931675642988
20
-5.89140462063131
30
0
41
1
10
-0.766568398283454
20
-5.87083261121123
30
0
41
1
10
-0.781926636665673
20
-5.85605532307281
30
0
41
1
10
-0.803808427400909
20
-5.8327319572052
30
0
41
1
10
-0.810909537595492
20
-5.82475689909123
30
0
41
1
10
-0.824642187820515
20
-5.80862406976092
30
0
41
1
10
-0.831293292074733
20
-5.8004459091575
30
0
41
1
10
-0.863632300216551
20
-5.75907701915665
30
0
41
1
10
-0.886653206455151
20
-5.72449384855278
30
0
41
1
10
-0.929268994496837
20
-5.65349793311387
30
0
41
1
10
-0.948821917963443
20
-5.61706391416035
30
0
41
1
10
-0.9854903268116
20
-5.54286169997806
30
0
41
1
10
-1.00262576586447
20
-5.50500475294339
30
0
41
1
10
-1.0348108500766
20
-5.42880990558518
30
0
41
1
10
-1.04987958840802
20
-5.39043436268409
30
0
41
1
10
-1.09271831790771
20
-5.27463055419162
30
0
41
1
10
-1.11815612697548
20
-5.1965332099478
30
0
41
1
10
-1.16484869971204
20
-5.03900155537229
30
0
41
1
10
-1.18607375956302
20
-4.95956033007349
30
0
41
1
10
-1.22537042104101
20
-4.79955772182797
30
0
41
1
10
-1.24343193354569
20
-4.71899405044132
30
0
41
1
10
-1.27704610356759
20
-4.55687629477117
30
0
41
1
10
-1.29259442759719
20
-4.47532122975804
30
0
41
1
10
-1.30710678118656
20
-4.39331221032487
30
0
0
SPLINE
5
188
100
AcDbEntity
8
SK1
62
256
6
ByLayer
370
18
48
1
60
0
100
AcDbSpline
70
4
71
3
72
50
73
46
40
0
40
0
40
0
40
0
40
0.124999999999998
40
0.124999999999998
40
0.249999999999996
40
0.249999999999996
40
0.312499999999996
40
0.312499999999996
40
0.374999999999996
40
0.374999999999996
40
0.499999999999996
40
0.499999999999996
40
0.562499999999996
40
0.562499999999996
40
0.624999999999997
40
0.624999999999997
40
0.687499999999997
40
0.687499999999997
40
0.718749999999997
40
0.718749999999997
40
0.749999999999997
40
0.749999999999997
40
0.781249999999998
40
0.781249999999998
40
0.812499999999998
40
0.812499999999998
40
0.843749999999998
40
0.843749999999998
40
0.859374999999998
40
0.859374999999998
40
0.874999999999998
40
0.890624999999998
40
0.890624999999998
40
0.898437499999998
40
0.898437499999998
40
0.906249999999998
40
0.921874999999998
40
0.921874999999998
40
0.937499999999999
40
0.937499999999999
40
0.968749999999999
40
0.968749999999999
40
0.984375
40
0.984375
40
1
40
1
40
1
40
1
41
1
10
-1.30710678118652
20
4.39330887788606
30
0
41
1
10
-1.29259057630256
20
4.47534003310412
30
0
41
1
10
-1.27702923965072
20
4.55696714625805
30
0
41
1
10
-1.24335659670558
20
4.71934352683385
30
0
41
1
10
-1.22524991683203
20
4.80009364705947
30
0
41
1
10
-1.19566654622427
20
4.92047732721875
30
0
41
1
10
-1.18539939501377
20
4.96048124175471
30
0
41
1
10
-1.16392950861754
20
5.04022016000795
30
0
41
1
10
-1.15271909218826
20
5.07998178339514
30
0
41
1
10
-1.11752093416872
20
5.19855796010594
30
0
41
1
10
-1.09200642706725
20
5.27670114460136
30
0
41
1
10
-1.0492407274256
20
5.39208696039736
30
0
41
1
10
-1.03422852656959
20
5.43024134229668
30
0
41
1
10
-1.00227006366245
20
5.50579467647674
30
0
41
1
10
-0.985329895267597
20
5.54319570602496
30
0
41
1
10
-0.948842305699031
20
5.61701592648748
30
0
41
1
10
-0.929311633153432
20
5.65344083322157
30
0
41
1
10
-0.897134039200722
20
5.70702849131604
30
0
41
1
10
-0.885889244318051
20
5.72475996992927
30
0
41
1
10
-0.862388317867428
20
5.75943238422735
30
0
41
1
10
-0.850124764431285
20
5.77639487115229
30
0
41
1
10
-0.824286187770213
20
5.80937247929978
30
0
41
1
10
-0.810714993566975
20
5.82539030326046
30
0
41
1
10
-0.781810520162324
20
5.85616212382189
30
0
41
1
10
-0.766480020681499
20
5.87092930527115
30
0
41
1
10
-0.733280688453021
20
5.89860840862804
30
0
41
1
10
-0.715743791280261
20
5.91124847506274
30
0
41
1
10
-0.68741628460927
20
5.92762938506613
30
0
41
1
10
-0.677572371948386
20
5.93267724259607
30
0
41
1
10
-0.657498098822899
20
5.94150365482599
30
0
41
1
10
-0.636988070186447
20
5.94910381427817
30
0
41
1
10
-0.615487385337133
20
5.9539180373385
30
0
41
1
10
-0.598932162610765
20
5.95632074310808
30
0
41
1
10
-0.593335497469852
20
5.95691733339831
30
0
41
1
10
-0.58224137494102
20
5.95766809286985
30
0
41
1
10
-0.565657821584423
20
5.95814654054257
30
0
41
1
10
-0.54924370449001
20
5.95672090529089
30
0
41
1
10
-0.527503554619585
20
5.95318620141708
30
0
41
1
10
-0.516622342716403
20
5.95056688400257
30
0
41
1
10
-0.485210602129968
20
5.94070326229377
30
0
41
1
10
-0.465634608434925
20
5.93149511928672
30
0
41
1
10
-0.437740327393655
20
5.91484188421759
30
0
41
1
10
-0.428752255076858
20
5.90884528223492
30
0
41
1
10
-0.411413024584249
20
5.89619973179913
30
0
41
1
10
-0.403039329106406
20
5.88953658242153
30
0
41
1
10
-0.394913799811263
20
5.88258733498481
30
0
0
SPLINE
5
189
100
AcDbEntity
8
SK1
62
256
6
ByLayer
370
13
48
1
60
0
100
AcDbSpline
70
4
71
3
72
25
73
21
40
0
40
0
40
0
40
0
40
0.062129966996052
40
0.125806795744985
40
0.189483624493919
40
0.221322038868385
40
0.253160453242852
40
0.316837281991786
40
0.380514110740719
40
0.444190939489652
40
0.507867768238586
40
0.571544596987519
40
0.635221425736452
40
0.698898254485386
40
0.762575083234319
40
0.826251911983253
40
0.889928740732186
40
0.95360556948112
40
0.985443983855586
40
1
40
1
40
1
40
1
41
1
10
-0.394913799811221
20
27.3654111756059
30
0
41
1
10
-0.394913799811206
20
27.3654777853122
30
0
41
1
10
-0.394913799811206
20
27.281160793583
30
0
41
1
10
-0.394913799811192
20
26.931711914563
30
0
41
1
10
-0.394913799811192
20
26.4695479228793
30
0
41
1
10
-0.394913799811192
20
26.0073845707252
30
0
41
1
10
-0.394913799811192
20
25.4857521565205
30
0
41
1
10
-0.394913799811192
20
24.7273073402748
30
0
41
1
10
-0.394913799811206
20
23.6558244102428
30
0
41
1
10
-0.394913799811206
20
22.4320519750209
30
0
41
1
10
-0.394913799811206
20
21.061545739767
30
0
41
1
10
-0.394913799811221
20
19.5496941631405
30
0
41
1
10
-0.394913799811221
20
17.9007385657829
30
0
41
1
10
-0.394913799811235
20
16.116845123771
30
0
41
1
10
-0.394913799811235
20
14.2008618153781
30
0
41
1
10
-0.394913799811249
20
12.153497457354
30
0
41
1
10
-0.394913799811249
20
9.97566741413243
30
0
41
1
10
-0.394913799811263
20
8.05259596592001
30
0
41
1
10
-0.394913799811263
20
6.66606769858655
30
0
41
1
10
-0.394913799811263
20
6.07052516538181
30
0
41
1
10
-0.394913799811263
20
5.88258733498483
30
0
0
SPLINE
5
18A
100
AcDbEntity
8
SK1
62
256
6
ByLayer
370
18
48
1
60
0
100
AcDbSpline
70
4
71
3
72
36
73
32
40
0
40
0
40
0
40
0
40
0.0625000000000002
40
0.0625000000000002
40
0.125
40
0.125
40
0.250000000000001
40
0.250000000000001
40
0.312500000000001
40
0.312500000000001
40
0.343750000000001
40
0.343750000000001
40
0.375000000000001
40
0.375000000000001
40
0.437500000000001
40
0.437500000000001
40
0.500000000000001
40
0.5625
40
0.5625
40
0.625
40
0.625
40
0.6875
40
0.71875
40
0.71875
40
0.75
40
0.75
40
0.875
40
0.875
40
0.9375
40
0.9375
40
1
40
1
40
1
40
1
41
1
10
-1.30710678118656
20
-4.39331221032489
30
0
41
1
10
-1.33832612741193
20
-4.21689231016722
30
0
41
1
10
-1.36851092390376
20
-4.03973122982887
30
0
41
1
10
-1.42649811963089
20
-3.68381684447201
30
0
41
1
10
-1.45429466041942
20
-3.50506155058414
30
0
41
1
10
-1.53342175503582
20
-2.96616199669305
30
0
41
1
10
-1.58051371000481
20
-2.60339474516388
30
0
41
1
10
-1.63969017396079
20
-2.05289759168917
30
0
41
1
10
-1.65749856469556
20
-1.86833789193395
30
0
41
1
10
-1.68090524760893
20
-1.58974420341144
30
0
41
1
10
-1.68815609252624
20
-1.4965870997257
30
0
41
1
10
-1.70147805604537
20
-1.30965819488989
30
0
41
1
10
-1.70755165689623
20
-1.21581541728392
30
0
41
1
10
-1.72381183076918
20
-0.934723518861318
30
0
41
1
10
-1.73206493494847
20
-0.747501097942717
30
0
41
1
10
-1.7429848038179
20
-0.373418392454084
30
0
41
1
10
-1.748391829433
20
0.0003055804815801
30
0
41
1
10
-1.74297993884852
20
0.373323280942145
30
0
41
1
10
-1.73211744010526
20
0.745986303504452
30
0
41
1
10
-1.72392517749429
20
0.932138827990201
30
0
41
1
10
-1.70248074969007
20
1.30410713450161
30
0
41
1
10
-1.68260948363638
20
1.58283112758753
30
0
41
1
10
-1.65757931062798
20
1.86120029185437
30
0
41
1
10
-1.63980474419279
20
2.04670347397035
30
0
41
1
10
-1.63039580544411
20
2.1391828740305
30
0
41
1
10
-1.58095222331164
20
2.60000741581413
30
0
41
1
10
-1.53372925180183
20
2.96395482764058
30
0
41
1
10
-1.45444775249804
20
3.50406852662027
30
0
41
1
10
-1.42660609580413
20
3.68313524459486
30
0
41
1
10
-1.36854874276651
20
4.03950797751688
30
0
41
1
10
-1.33833886963824
20
4.21681617087032
30
0
41
1
10
-1.30710678118653
20
4.39330887788606
30
0
0
SPLINE
5
18B
100
AcDbEntity
8
SK1
62
256
6
ByLayer
370
13
48
1
60
0
100
AcDbSpline
70
4
71
3
72
53
73
49
40
0
40
0
40
0
40
0
40
0.0270895333596614
40
0.0549065447493976
40
0.0827235561391339
40
0.096632061834002
40
0.11054056752887
40
0.138357578918606
40
0.166174590308343
40
0.193991601698079
40
0.221808613087815
40
0.249625624477551
40
0.277442635867288
40
0.305259647257024
40
0.33307665864676
40
0.360893670036496
40
0.388710681426233
40
0.416527692815969
40
0.430436198510837
40
0.444344704205705
40
0.458253209900573
40
0.472161715595441
40
0.486070221290309
40
0.493024474137743
40
0.499978726985177
40
0.506932979832612
40
0.513887232680046
40
0.527795738374914
40
0.541704244069782
40
0.55561274976465
40
0.569521255459518
40
0.583429761154386
40
0.611246772544122
40
0.639063783933859
40
0.666880795323595
40
0.694697806713331
40
0.722514818103068
40
0.750331829492804
40
0.77814884088254
40
0.805965852272276
40
0.833782863662012
40
0.861599875051749
40
0.889416886441485
40
0.903325392136353
40
0.917233897831221
40
0.945050909220957
40
0.972867920610694
40
1
40
1
40
1
40
1
41
1
10
-1.9950399779392
20
27.3252179101956
30
0
41
1
10
-1.9950399779392
20
27.3251256562869
30
0
41
1
10
-1.9950399779392
20
27.2408682946757
30
0
41
1
10
-1.9950399779392
20
26.8920579638066
30
0
41
1
10
-1.9950399779392
20
26.4304294784276
30
0
41
1
10
-1.9950399779392
20
25.9687186091476
30
0
41
1
10
-1.9950399779392
20
25.4475793002846
30
0
41
1
10
-1.9950399779392
20
24.6899114886171
30
0
41
1
10
-1.99503997793921
20
23.619443795401
30
0
41
1
10
-1.99503997793921
20
22.3968111872691
30
0
41
1
10
-1.99503997793921
20
21.0275777036138
30
0
41
1
10
-1.99503997793923
20
19.5171387431293
30
0
41
1
10
-1.99503997793923
20
17.8697605888624
30
0
41
1
10
-1.99503997793924
20
16.0876370834377
30
0
41
1
10
-1.99503997793924
20
14.1736586399813
30
0
41
1
10
-1.99503997793926
20
12.1286054195275
30
0
41
1
10
-1.99503997793926
20
9.95349522257501
30
0
41
1
10
-1.99503997793927
20
8.03329795823163
30
0
41
1
10
-1.99503997793927
20
6.43152354524267
30
0
41
1
10
-1.99503997793928
20
5.19920324116256
30
0
41
1
10
-1.99503997793928
20
3.93622738701507
30
0
41
1
10
-1.99503997793928
20
2.64495367748941
30
0
41
1
10
-1.99503997793928
20
1.54951551889729
30
0
41
1
10
-1.9950399779393
20
0.6647912077417
30
0
41
1
10
-1.9950399779393
20
-1.48582728E-08
30
0
41
1
10
-1.9950399779393
20
-0.664791253601607
30
0
41
1
10
-1.9950399779393
20
-1.549515656636
30
0
41
1
10
-1.99503997793931
20
-2.64495403942521
30
0
41
1
10
-1.99503997793931
20
-3.93622781621519
30
0
41
1
10
-1.99503997793931
20
-5.19920320851571
30
0
41
1
10
-1.99503997793933
20
-6.43152352997811
30
0
41
1
10
-1.99503997793933
20
-8.03329822829241
30
0
41
1
10
-1.99503997793933
20
-9.95349533700443
30
0
41
1
10
-1.99503997793934
20
-12.1286054335931
30
0
41
1
10
-1.99503997793936
20
-14.1736586478766
30
0
41
1
10
-1.99503997793936
20
-16.0876367400659
30
0
41
1
10
-1.99503997793937
20
-17.8697602043723
30
0
41
1
10
-1.99503997793937
20
-19.5171385903506
30
0
41
1
10
-1.99503997793937
20
-21.027578149028
30
0
41
1
10
-1.99503997793939
20
-22.3968114946305
30
0
41
1
10
-1.99503997793939
20
-23.6194427004969
30
0
41
1
10
-1.99503997793939
20
-24.6899119683388
30
0
41
1
10
-1.9950399779394
20
-25.4475821015686
30
0
41
1
10
-1.9950399779394
20
-25.9687206006143
30
0
41
1
10
-1.9950399779394
20
-26.4304294614745
30
0
41
1
10
-1.9950399779394
20
-26.8920582242086
30
0
41
1
10
-1.9950399779394
20
-27.2410476369487
30
0
41
1
10
-1.99503997793941
20
-27.3252559505308
30
0
41
1
10
-1.9950399779394
20
-27.3252180377561
30
0
0
SPLINE
5
18C
100
AcDbEntity
8
SK1
62
256
6
ByLayer
370
18
48
1
60
0
100
AcDbSpline
70
4
71
3
72
53
73
49
40
0
40
0
40
0
40
0
40
0.0183862535438683
40
0.0467164720071313
40
0.0750466904703944
40
0.0892117997020259
40
0.103376908933657
40
0.131707127396921
40
0.160037345860184
40
0.188367564323447
40
0.21669778278671
40
0.245028001249973
40
0.273358219713236
40
0.301688438176499
40
0.330018656639762
40
0.358348875103025
40
0.386679093566288
40
0.415009312029551
40
0.429174421261182
40
0.443339530492814
40
0.457504639724445
40
0.471669748956077
40
0.485834858187709
40
0.492917412803524
40
0.49999996741934
40
0.507082522035156
40
0.514165076650972
40
0.528330185882603
40
0.542495295114235
40
0.556660404345866
40
0.570825513577498
40
0.584990622809129
40
0.613320841272392
40
0.641651059735655
40
0.669981278198918
40
0.698311496662181
40
0.726641715125444
40
0.754971933588708
40
0.783302152051971
40
0.811632370515234
40
0.839962588978497
40
0.86829280744176
40
0.896623025905023
40
0.910788135136654
40
0.924953244368286
40
0.953283462831549
40
0.981613681294812
40
1
40
1
40
1
40
1
41
1
10
-2.1999999999999
20
27.5062744623818
30
0
41
1
10
-2.1999999999999
20
27.4880697304091
30
0
41
1
10
-2.19999999999992
20
27.3968430176135
30
0
41
1
10
-2.1999999999999
20
27.0843206529938
30
0
41
1
10
-2.1999999999999
20
26.6200957584238
30
0
41
1
10
-2.1999999999999
20
26.156191020121
30
0
41
1
10
-2.1999999999999
20
25.6326608836802
30
0
41
1
10
-2.1999999999999
20
24.8712257553423
30
0
41
1
10
-2.19999999999992
20
23.7958356733944
30
0
41
1
10
-2.19999999999992
20
22.5676765989873
30
0
41
1
10
-2.19999999999992
20
21.1922721628705
30
0
41
1
10
-2.19999999999993
20
19.6749841148914
30
0
41
1
10
-2.19999999999993
20
18.0199577075533
30
0
41
1
10
-2.19999999999995
20
16.229252641869
30
0
41
1
10
-2.19999999999995
20
14.3055535850363
30
0
41
1
10
-2.19999999999996
20
12.2492947844102
30
0
41
1
10
-2.19999999999996
20
10.0609973779136
30
0
41
1
10
-2.19999999999997
20
8.12686459619212
30
0
41
1
10
-2.19999999999997
20
6.51319173456665
30
0
41
1
10
-2.19999999999997
20
5.269736553461
30
0
41
1
10
-2.19999999999999
20
3.99363661217191
30
0
41
1
10
-2.19999999999999
20
2.68649440179473
30
0
41
1
10
-2.19999999999999
20
1.57441409623579
30
0
41
1
10
-2.2
20
0.676125852580327
30
0
41
1
10
-2.2
20
-8.01526596E-08
30
0
41
1
10
-2.2
20
-0.676125991375187
30
0
41
1
10
-2.2
20
-1.57441419616916
30
0
41
1
10
-2.20000000000002
20
-2.68649461847349
30
0
41
1
10
-2.20000000000002
20
-3.99363707251749
30
0
41
1
10
-2.20000000000002
20
-5.26973663380881
30
0
41
1
10
-2.20000000000003
20
-6.51319169435675
30
0
41
1
10
-2.20000000000003
20
-8.1268648484035
30
0
41
1
10
-2.20000000000003
20
-10.0609975068282
30
0
41
1
10
-2.20000000000005
20
-12.2492948087344
30
0
41
1
10
-2.20000000000006
20
-14.3055536070197
30
0
41
1
10
-2.20000000000006
20
-16.2292523079286
30
0
41
1
10
-2.20000000000007
20
-18.0199573189881
30
0
41
1
10
-2.20000000000007
20
-19.6749839400142
30
0
41
1
10
-2.20000000000007
20
-21.1922725974247
30
0
41
1
10
-2.20000000000009
20
-22.5676769377316
30
0
41
1
10
-2.20000000000009
20
-23.7958345745359
30
0
41
1
10
-2.20000000000009
20
-24.87122617173
30
0
41
1
10
-2.2000000000001
20
-25.6326636676739
30
0
41
1
10
-2.2000000000001
20
-26.156193055705
30
0
41
1
10
-2.2000000000001
20
-26.6200957619357
30
0
41
1
10
-2.2000000000001
20
-27.0843209142601
30
0
41
1
10
-2.20000000000012
20
-27.3968432688054
30
0
41
1
10
-2.2000000000001
20
-27.488069836443
30
0
41
1
10
-2.2000000000001
20
-27.5062745381214
30
0
0
SPLINE
5
18D
100
AcDbEntity
8
SK1
62
256
6
ByLayer
370
18
48
1
60
0
100
AcDbSpline
70
4
71
3
72
53
73
49
40
0
40
0
40
0
40
0
40
0.0184049974190101
40
0.0467338369294328
40
0.0750626764398555
40
0.0892270961950668
40
0.103391515950278
40
0.131720355460701
40
0.160049194971124
40
0.188378034481546
40
0.216706873991969
40
0.245035713502392
40
0.273364553012814
40
0.301693392523237
40
0.33002223203366
40
0.358351071544083
40
0.386679911054505
40
0.415008750564928
40
0.429173170320139
40
0.443337590075351
40
0.457502009830562
40
0.471666429585773
40
0.485830849340985
40
0.49291305921859
40
0.499995269096196
40
0.507077478973802
40
0.514159688851407
40
0.528324108606619
40
0.54248852836183
40
0.556652948117041
40
0.570817367872253
40
0.584981787627464
40
0.613310627137887
40
0.641639466648309
40
0.669968306158732
40
0.698297145669155
40
0.726625985179577
40
0.75495482469
40
0.783283664200423
40
0.811612503710845
40
0.839941343221268
40
0.868270182731691
40
0.896599022242114
40
0.910763441997325
40
0.924927861752536
40
0.953256701262959
40
0.981585540773382
40
1
40
1
40
1
40
1
41
1
10
-46.4999999999999
20
26.39409106515
30
0
41
1
10
-46.4999999999999
20
26.3765864114979
30
0
41
1
10
-46.4999999999999
20
26.2887289441046
30
0
41
1
10
-46.4999999999999
20
25.9864884679326
30
0
41
1
10
-46.4999999999999
20
25.5370892350004
30
0
41
1
10
-46.4999999999999
20
25.0857116283693
30
0
41
1
10
-46.4999999999999
20
24.5758332694778
30
0
41
1
10
-46.4999999999999
20
23.835909758967
30
0
41
1
10
-46.4999999999999
20
22.7886268297895
30
0
41
1
10
-46.4999999999999
20
21.5920242293513
30
0
41
1
10
-46.4999999999999
20
20.2518563243234
30
0
41
1
10
-46.4999999999999
20
18.7736770016082
30
0
41
1
10
-46.4999999999999
20
17.1623226058106
30
0
41
1
10
-46.4999999999999
20
15.420618795081
30
0
41
1
10
-46.5
20
13.5524250589534
30
0
41
1
10
-46.5
20
11.5601508338968
30
0
41
1
10
-46.5
20
9.44715323273326
30
0
41
1
10
-46.5
20
7.59259314167733
30
0
41
1
10
-46.5
20
6.04686117862479
30
0
41
1
10
-46.5
20
4.86698685362302
30
0
41
1
10
-46.5
20
3.66582628473373
30
0
41
1
10
-46.5
20
2.44929422361187
30
0
41
1
10
-46.5
20
1.43224163583824
30
0
41
1
10
-46.5
20
0.611404309556747
30
0
41
1
10
-46.5
20
2.926826426E-07
30
0
41
1
10
-46.5
20
-0.611403917686772
30
0
41
1
10
-46.5
20
-1.43224195164211
30
0
41
1
10
-46.5
20
-2.44929526971728
30
0
41
1
10
-46.5
20
-3.66582656723654
30
0
41
1
10
-46.5
20
-4.86698628876383
30
0
41
1
10
-46.5
20
-6.04686128085422
30
0
41
1
10
-46.5
20
-7.5925934958095
30
0
41
1
10
-46.5
20
-9.44715327893661
30
0
41
1
10
-46.5
20
-11.5601507996433
30
0
41
1
10
-46.5000000000001
20
-13.5524250004929
30
0
41
1
10
-46.5000000000001
20
-15.4206184072862
30
0
41
1
10
-46.5000000000001
20
-17.1623222405145
30
0
41
1
10
-46.5000000000001
20
-18.7736769529141
30
0
41
1
10
-46.5000000000001
20
-20.2518568208891
30
0
41
1
10
-46.5000000000001
20
-21.5920243888971
30
0
41
1
10
-46.5000000000001
20
-22.7886257535109
30
0
41
1
10
-46.5000000000001
20
-23.8359105369951
30
0
41
1
10
-46.5000000000001
20
-24.5758361522003
30
0
41
1
10
-46.5000000000001
20
-25.0857134120401
30
0
41
1
10
-46.5000000000001
20
-25.5370891216556
30
0
41
1
10
-46.5000000000001
20
-25.9864887242635
30
0
41
1
10
-46.5000000000001
20
-26.2887670134894
30
0
41
1
10
-46.5000000000001
20
-26.3766218366359
30
0
41
1
10
-46.5000000000001
20
-26.3941179344118
30
0
0
SPLINE
5
18E
100
AcDbEntity
8
1
62
256
6
ByLayer
370
18
48
1
60
0
100
AcDbSpline
70
4
71
3
72
30
73
26
40
0
40
0
40
0
40
0
40
0.125000000000002
40
0.125000000000002
40
0.187500000000009
40
0.187500000000009
40
0.250000000000017
40
0.312500000000024
40
0.312500000000024
40
0.375000000000032
40
0.375000000000032
40
0.437500000000039
40
0.437500000000039
40
0.500000000000047
40
0.500000000000047
40
0.625000000000044
40
0.625000000000044
40
0.687500000000035
40
0.687500000000035
40
0.750000000000025
40
0.812500000000016
40
0.812500000000016
40
0.875000000000006
40
0.875000000000006
40
1
40
1
40
1
40
1
41
1
10
434.656721420743
20
37.0090355525339
30
0
41
1
10
434.640602353637
20
37.0128519005884
30
0
41
1
10
434.626277616816
20
37.0174226933668
30
0
41
1
10
434.607245357999
20
37.0253035494974
30
0
41
1
10
434.601286994158
20
37.028123470144
30
0
41
1
10
434.590498161733
20
37.0339612331615
30
0
41
1
10
434.580766758371
20
37.0400176829892
30
0
41
1
10
434.573066008387
20
37.0464918607168
30
0
41
1
10
434.566391336294
20
37.0531761469551
30
0
41
1
10
434.563617417913
20
37.05657600279
30
0
41
1
10
434.559187541901
20
37.0634320733319
30
0
41
1
10
434.557523102602
20
37.0668969628451
30
0
41
1
10
434.555289028136
20
37.0738995990268
30
0
41
1
10
434.554720612949
20
37.0774593078817
30
0
41
1
10
434.554723038941
20
37.0880815626053
30
0
41
1
10
434.556941298356
20
37.0950351298324
30
0
41
1
10
434.563598982514
20
37.1052750920099
30
0
41
1
10
434.566406004184
20
37.1086774170925
30
0
41
1
10
434.573045973629
20
37.1152488519105
30
0
41
1
10
434.580713605119
20
37.1216141393897
30
0
41
1
10
434.590436047902
20
37.127569148191
30
0
41
1
10
434.601239077658
20
37.1333095680277
30
0
41
1
10
434.607206102714
20
37.1360769061757
30
0
41
1
10
434.626245190844
20
37.1437911674091
30
0
41
1
10
434.640581647455
20
37.1482519203017
30
0
41
1
10
434.656721420743
20
37.1519698464434
30
0
0
SPLINE
5
18F
100
AcDbEntity
8
1
62
256
6
ByLayer
370
18
48
1
60
0
100
AcDbSpline
70
4
71
3
72
30
73
26
40
0
40
0
40
0
40
0
40
0.125000000000015
40
0.125000000000015
40
0.187500000000012
40
0.187500000000012
40
0.250000000000009
40
0.312500000000007
40
0.312500000000007
40
0.375000000000005
40
0.375000000000005
40
0.437500000000002
40
0.437500000000002
40
0.499999999999999
40
0.499999999999999
40
0.625000000000021
40
0.625000000000021
40
0.68750000000002
40
0.68750000000002
40
0.750000000000019
40
0.812500000000019
40
0.812500000000019
40
0.875000000000018
40
0.875000000000018
40
1
40
1
40
1
40
1
41
1
10
434.656721420743
20
37.5892101549877
30
0
41
1
10
434.64071351971
20
37.5925728765235
30
0
41
1
10
434.626440539663
20
37.5966033085495
30
0
41
1
10
434.607435213491
20
37.6035669056884
30
0
41
1
10
434.601475936926
20
37.6060611136706
30
0
41
1
10
434.590673121451
20
37.6112299642549
30
0
41
1
10
434.580917659172
20
37.6165966052265
30
0
41
1
10
434.573182094384
20
37.6223424936297
30
0
41
1
10
434.566471586545
20
37.62827988118
30
0
41
1
10
434.563677715356
20
37.6313045315104
30
0
41
1
10
434.559217926544
20
37.6374025543651
30
0
41
1
10
434.557541577925
20
37.6404852449052
30
0
41
1
10
434.555291631357
20
37.6467172829111
30
0
41
1
10
434.554719362912
20
37.6498868873076
30
0
41
1
10
434.554725553267
20
37.6593411184796
30
0
41
1
10
434.556964597826
20
37.6655275720338
30
0
41
1
10
434.563679395236
20
37.6746343229937
30
0
41
1
10
434.566508456338
20
37.6776568080766
30
0
41
1
10
434.5731843213
20
37.6834837004046
30
0
41
1
10
434.580889503141
20
37.6891255308567
30
0
41
1
10
434.590650294528
20
37.6943996619846
30
0
41
1
10
434.601491835259
20
37.6994816366822
30
0
41
1
10
434.607449201922
20
37.701917979739
30
0
41
1
10
434.62642860182
20
37.7087066538056
30
0
41
1
10
434.64069577097
20
37.7126281327972
30
0
41
1
10
434.656721420743
20
37.715896594459
30
0
0
SPLINE
5
190
100
AcDbEntity
8
1
62
256
6
ByLayer
370
18
48
1
60
0
100
AcDbSpline
70
4
71
3
72
30
73
26
40
0
40
0
40
0
40
0
40
0.125000000000005
40
0.125000000000005
40
0.187500000000008
40
0.187500000000008
40
0.250000000000011
40
0.312500000000013
40
0.312500000000013
40
0.375000000000016
40
0.375000000000016
40
0.437500000000018
40
0.437500000000018
40
0.500000000000021
40
0.500000000000021
40
0.625000000000023
40
0.625000000000023
40
0.687500000000019
40
0.687500000000019
40
0.750000000000015
40
0.812500000000011
40
0.812500000000011
40
0.875000000000007
40
0.875000000000007
40
1
40
1
40
1
40
1
41
1
10
434.656721420743
20
38.1015580734299
30
0
41
1
10
434.640809561535
20
38.1044940059653
30
0
41
1
10
434.626582172788
20
38.1080149218662
30
0
41
1
10
434.607601117664
20
38.1141087161363
30
0
41
1
10
434.601641373801
20
38.1162932022518
30
0
41
1
10
434.590826716726
20
38.1208242511042
30
0
41
1
10
434.581050468577
20
38.1255317604503
30
0
41
1
10
434.5732844173
20
38.1305786858724
30
0
41
1
10
434.566542410328
20
38.1357975620955
30
0
41
1
10
434.563730859775
20
38.138459804469
30
0
41
1
10
434.55924459517
20
38.1438259276449
30
0
41
1
10
434.557557714575
20
38.1465392382777
30
0
41
1
10
434.555293783502
20
38.1520257745433
30
0
41
1
10
434.554718157371
20
38.1548173701473
30
0
41
1
10
434.554727989716
20
38.1631409280952
30
0
41
1
10
434.556985855833
20
38.168585115739
30
0
41
1
10
434.563752001645
20
38.1765958318291
30
0
41
1
10
434.566599933363
20
38.1792510851616
30
0
41
1
10
434.573308101776
20
38.1843631060373
30
0
41
1
10
434.581046682817
20
38.1893108479924
30
0
41
1
10
434.590842413094
20
38.1939324990263
30
0
41
1
10
434.601718594197
20
38.1983840273903
30
0
41
1
10
434.607659942825
20
38.2005049586346
30
0
41
1
10
434.62658749983
20
38.206420325623
30
0
41
1
10
434.640794503405
20
38.2098340185149
30
0
41
1
10
434.656721420743
20
38.2126791572746
30
0
0
SPLINE
5
191
100
AcDbEntity
8
1
62
256
6
ByLayer
370
18
48
1
60
0
100
AcDbSpline
70
4
71
3
72
30
73
26
40
0
40
0
40
0
40
0
40
0.124999999999995
40
0.124999999999995
40
0.187499999999996
40
0.187499999999996
40
0.249999999999998
40
0.312499999999999
40
0.312499999999999
40
0.375
40
0.375
40
0.437500000000001
40
0.437500000000001
40
0.500000000000002
40
0.500000000000002
40
0.625000000000004
40
0.625000000000004
40
0.687500000000003
40
0.687500000000003
40
0.750000000000002
40
0.812500000000002
40
0.812500000000002
40
0.875000000000001
40
0.875000000000001
40
1
40
1
40
1
40
1
41
1
10
434.656721420743
20
38.5487838351622
30
0
41
1
10
434.640891734473
20
38.5513150953316
30
0
41
1
10
434.626703981251
20
38.5543520128619
30
0
41
1
10
434.607744414815
20
38.5596154601382
30
0
41
1
10
434.601784506389
20
38.561503559191
30
0
41
1
10
434.590959890908
20
38.5654227477705
30
0
41
1
10
434.581165854098
20
38.5694967237563
30
0
41
1
10
434.573373410908
20
38.5738691635392
30
0
41
1
10
434.566604049417
20
38.5783932062643
30
0
41
1
10
434.563777046531
20
38.5807036683822
30
0
41
1
10
434.559267662225
20
38.5853595936044
30
0
41
1
10
434.557571595483
20
38.5877141560825
30
0
41
1
10
434.55529551779
20
38.5924759856053
30
0
41
1
10
434.554717012765
20
38.5948995928511
30
0
41
1
10
434.554730313471
20
38.602123296988
30
0
41
1
10
434.557004982676
20
38.6068457572132
30
0
41
1
10
434.563816644242
20
38.613791216493
30
0
41
1
10
434.56668063148
20
38.6160901591475
30
0
41
1
10
434.573417423833
20
38.6205118110114
30
0
41
1
10
434.581186006756
20
38.6247896318526
30
0
41
1
10
434.591012273654
20
38.6287824666812
30
0
41
1
10
434.601919101002
20
38.6326267897767
30
0
41
1
10
434.607841050941
20
38.6344468098411
30
0
41
1
10
434.626723937541
20
38.6395318883303
30
0
41
1
10
434.640879154118
20
38.6424637070037
30
0
41
1
10
434.656721420743
20
38.6449070490496
30
0
0
SPLINE
5
192
100
AcDbEntity
8
1
62
256
6
ByLayer
370
18
48
1
60
0
100
AcDbSpline
70
4
71
3
72
32
73
28
40
0
40
0
40
0
40
0
40
0.125000000000001
40
0.125000000000001
40
0.187500000000002
40
0.187500000000002
40
0.250000000000002
40
0.312500000000003
40
0.312500000000003
40
0.375000000000004
40
0.375000000000004
40
0.437500000000004
40
0.437500000000004
40
0.500000000000005
40
0.500000000000005
40
0.625000000000006
40
0.625000000000006
40
0.687500000000005
40
0.687500000000005
40
0.750000000000004
40
0.812500000000003
40
0.812500000000003
40
0.875000000000002
40
0.875000000000002
40
0.937500000000001
40
0.937500000000001
40
1
40
1
40
1
40
1
41
1
10
434.656721420743
20
38.9331316839164
30
0
41
1
10
434.640971952476
20
38.9352749249002
30
0
41
1
10
434.62682677741
20
38.9378467707208
30
0
41
1
10
434.607895698329
20
38.9423085322225
30
0
41
1
10
434.601938422902
20
38.9439098496167
30
0
41
1
10
434.591108742808
20
38.9472358134012
30
0
41
1
10
434.581301609264
20
38.9506944546685
30
0
41
1
10
434.57348585951
20
38.9544093369547
30
0
41
1
10
434.566690729566
20
38.9582546005103
30
0
41
1
10
434.563847732452
20
38.9602206945863
30
0
41
1
10
434.559312314852
20
38.9641812064164
30
0
41
1
10
434.557604568208
20
38.9661841988187
30
0
41
1
10
434.555308834964
20
38.9702352108223
30
0
41
1
10
434.554722308138
20
38.9722973061488
30
0
41
1
10
434.554719649006
20
38.9784428863943
30
0
41
1
10
434.556993800837
20
38.9824582144816
30
0
41
1
10
434.563816371115
20
38.9883605168442
30
0
41
1
10
434.566683910637
20
38.9903119228298
30
0
41
1
10
434.573425162144
20
38.9940626308274
30
0
41
1
10
434.581198008567
20
38.9976899212836
30
0
41
1
10
434.591026142961
20
39.0010731588603
30
0
41
1
10
434.601932514173
20
39.0043294949585
30
0
41
1
10
434.607830555937
20
39.0058649303718
30
0
41
1
10
434.620405895002
20
39.0087340404948
30
0
41
1
10
434.62709640638
20
39.010071656437
30
0
41
1
10
434.641296557258
20
39.0125509819898
30
0
41
1
10
434.648842390087
20
39.0136970867248
30
0
41
1
10
434.656721420743
20
39.0147258516905
30
0
0
SPLINE
5
193
100
AcDbEntity
8
1
62
256
6
ByLayer
370
18
48
1
60
0
100
AcDbSpline
70
4
71
3
72
31
73
27
40
0
40
0
40
0
40
0
40
0.124999999999996
40
0.124999999999996
40
0.187499999999996
40
0.187499999999996
40
0.249999999999997
40
0.312499999999997
40
0.312499999999997
40
0.374999999999997
40
0.374999999999997
40
0.437499999999997
40
0.437499999999997
40
0.499999999999997
40
0.499999999999997
40
0.624999999999998
40
0.624999999999998
40
0.687499999999995
40
0.687499999999995
40
0.749999999999993
40
0.749999999999993
40
0.874999999999995
40
0.874999999999995
40
0.937499999999998
40
0.937499999999998
40
1
40
1
40
1
40
1
41
1
10
434.656721420743
20
39.2564485182281
30
0
41
1
10
434.64103150191
20
39.2582199396329
30
0
41
1
10
434.626916424299
20
39.2603458580526
30
0
41
1
10
434.608003135698
20
39.2640364817091
30
0
41
1
10
434.602046547765
20
39.265361493197
30
0
41
1
10
434.591210783761
20
39.2681146646183
30
0
41
1
10
434.58139164377
20
39.270978355724
30
0
41
1
10
434.573556990445
20
39.2740556541579
30
0
41
1
10
434.566741851817
20
39.2772417481016
30
0
41
1
10
434.563887166616
20
39.2788719908792
30
0
41
1
10
434.559333827546
20
39.2821547980216
30
0
41
1
10
434.557618697147
20
39.2838149462371
30
0
41
1
10
434.555312381214
20
39.2871723211876
30
0
41
1
10
434.554722687134
20
39.2888813890415
30
0
41
1
10
434.554718894148
20
39.2939729508717
30
0
41
1
10
434.557002408548
20
39.2972971674745
30
0
41
1
10
434.563852522632
20
39.3021801889529
30
0
41
1
10
434.566729189178
20
39.3037924582505
30
0
41
1
10
434.573487230804
20
39.3068893215286
30
0
41
1
10
434.577382246936
20
39.3083861155373
30
0
41
1
10
434.590609184949
20
39.3127235783389
30
0
41
1
10
434.601646687485
20
39.3154368197029
30
0
41
1
10
434.620484873578
20
39.3189743224542
30
0
41
1
10
434.627165270124
20
39.3200736162902
30
0
41
1
10
434.641341376657
20
39.3221109955007
30
0
41
1
10
434.648873070465
20
39.3230525112665
30
0
41
1
10
434.656721420743
20
39.3238963702156
30
0
0
SPLINE
5
194
100
AcDbEntity
8
1
62
256
6
ByLayer
370
18
48
1
60
0
100
AcDbSpline
70
4
71
3
72
32
73
28
40
0
40
0
40
0
40
0
40
0.125000000000004
40
0.125000000000004
40
0.187500000000004
40
0.187500000000004
40
0.250000000000005
40
0.312500000000005
40
0.312500000000005
40
0.375000000000005
40
0.375000000000005
40
0.437500000000005
40
0.437500000000005
40
0.500000000000005
40
0.500000000000005
40
0.625000000000004
40
0.625000000000004
40
0.687500000000003
40
0.687500000000003
40
0.750000000000002
40
0.750000000000002
40
0.812500000000002
40
0.812500000000002
40
0.875000000000001
40
0.937500000000001
40
0.937500000000001
40
1
40
1
40
1
40
1
41
1
10
434.656721420743
20
39.5202322590772
30
0
41
1
10
434.6410792586
20
39.5216437269885
30
0
41
1
10
434.626988471535
20
39.5233375478951
30
0
41
1
10
434.608089602086
20
39.5262787175942
30
0
41
1
10
434.60213361747
20
39.527334811381
30
0
41
1
10
434.591292994527
20
39.5295295694813
30
0
41
1
10
434.581464163204
20
39.5318125413677
30
0
41
1
10
434.573614262792
20
39.5342659165564
30
0
41
1
10
434.566782943265
20
39.5368060651768
30
0
41
1
10
434.563918796352
20
39.5381063242299
30
0
41
1
10
434.559350967655
20
39.5407233974866
30
0
41
1
10
434.557629885325
20
39.5420465615342
30
0
41
1
10
434.555315093489
20
39.5447217486282
30
0
41
1
10
434.55472290232
20
39.5460833166506
30
0
41
1
10
434.554718466023
20
39.5501375517931
30
0
41
1
10
434.557009824645
20
39.5527818167573
30
0
41
1
10
434.563882686171
20
39.5566623220034
30
0
41
1
10
434.566766687546
20
39.5579418527539
30
0
41
1
10
434.573538530935
20
39.5603979906502
30
0
41
1
10
434.577440682516
20
39.5615844208161
30
0
41
1
10
434.586272882942
20
39.5638752899989
30
0
41
1
10
434.591211067504
20
39.5649813496133
30
0
41
1
10
434.602130379889
20
39.5671020458882
30
0
41
1
10
434.613877215372
20
39.5690903965717
30
0
41
1
10
434.627222066325
20
39.5708254755795
30
0
41
1
10
434.64137915318
20
39.572432997635
30
0
41
1
10
434.648897722644
20
39.5731753905864
30
0
41
1
10
434.656721420743
20
39.5738400738207
30
0
0
SPLINE
5
195
100
AcDbEntity
8
1
62
256
6
ByLayer
370
18
48
1
60
0
100
AcDbSpline
70
4
71
3
72
32
73
28
40
0
40
0
40
0
40
0
40
0.124999999999988
40
0.124999999999988
40
0.187499999999985
40
0.187499999999985
40
0.249999999999981
40
0.312499999999978
40
0.312499999999978
40
0.374999999999974
40
0.374999999999974
40
0.437499999999971
40
0.437499999999971
40
0.499999999999967
40
0.499999999999967
40
0.624999999999971
40
0.624999999999971
40
0.687499999999976
40
0.687499999999976
40
0.749999999999981
40
0.749999999999981
40
0.812499999999986
40
0.812499999999986
40
0.87499999999999
40
0.937499999999995
40
0.937499999999995
40
1
40
1
40
1
40
1
41
1
10
434.656721420743
20
39.7256688472142
30
0
41
1
10
434.641115750474
20
39.7267295341775
30
0
41
1
10
434.627043566459
20
39.7280019619817
30
0
41
1
10
434.608155712048
20
39.7302104944516
30
0
41
1
10
434.602200186277
20
39.7310034083723
30
0
41
1
10
434.591355813838
20
39.7326509200485
30
0
41
1
10
434.581519522906
20
39.7343642259342
30
0
41
1
10
434.573657872465
20
39.73620428753
30
0
41
1
10
434.566814104628
20
39.7381087553324
30
0
41
1
10
434.563942694826
20
39.7390835804327
30
0
41
1
10
434.559363772204
20
39.7410441865283
30
0
41
1
10
434.557638156617
20
39.7420349001059
30
0
41
1
10
434.55531697794
20
39.7440367511581
30
0
41
1
10
434.554722956737
20
39.7450550893649
30
0
41
1
10
434.554718357791
20
39.7480848772942
30
0
41
1
10
434.557016027087
20
39.7500578066161
30
0
41
1
10
434.56390683421
20
39.7529487442622
30
0
41
1
10
434.566796479187
20
39.7539005569262
30
0
41
1
10
434.573579113817
20
39.755726098346
30
0
41
1
10
434.577486830318
20
39.7566071822497
30
0
41
1
10
434.586330119041
20
39.7583071950514
30
0
41
1
10
434.591280544939
20
39.7591282720053
30
0
41
1
10
434.602194671056
20
39.7606973795776
30
0
41
1
10
434.613933926824
20
39.7621676376218
30
0
41
1
10
434.627266656539
20
39.7634492789215
30
0
41
1
10
434.64140926791
20
39.7646362213519
30
0
41
1
10
434.648916661507
20
39.7651838714911
30
0
41
1
10
434.656721420743
20
39.7656737732585
30
0
0
SPLINE
5
196
100
AcDbEntity
8
1
62
256
6
ByLayer
370
18
48
1
60
0
100
AcDbSpline
70
4
71
3
72
32
73
28
40
0
40
0
40
0
40
0
40
0.125000000000001
40
0.125000000000001
40
0.1875
40
0.1875
40
0.249999999999999
40
0.312499999999998
40
0.312499999999998
40
0.374999999999997
40
0.374999999999997
40
0.437499999999996
40
0.437499999999996
40
0.499999999999995
40
0.499999999999995
40
0.624999999999996
40
0.624999999999996
40
0.687499999999997
40
0.687499999999997
40
0.749999999999997
40
0.749999999999997
40
0.812499999999998
40
0.812499999999998
40
0.874999999999999
40
0.937499999999999
40
0.937499999999999
40
1
40
1
40
1
40
1
41
1
10
434.656721420743
20
39.8736601393155
30
0
41
1
10
434.641141370995
20
39.8743767678548
30
0
41
1
10
434.627082193419
20
39.8752356513396
30
0
41
1
10
434.608201925526
20
39.8767238867613
30
0
41
1
10
434.602246668732
20
39.8772578344382
30
0
41
1
10
434.591399568678
20
39.8783662991066
30
0
41
1
10
434.581557940061
20
39.8795180547763
30
0
41
1
10
434.573687962236
20
39.8807525839525
30
0
41
1
10
434.56683540672
20
39.8820288940625
30
0
41
1
10
434.563958912055
20
39.8826816194193
30
0
41
1
10
434.559372264999
20
39.8839925362222
30
0
41
1
10
434.557643525589
20
39.8846541129916
30
0
41
1
10
434.555318037367
20
39.8859890926411
30
0
41
1
10
434.554722851835
20
39.8866673156735
30
0
41
1
10
434.55471856639
20
39.8886820558265
30
0
41
1
10
434.557021003235
20
39.8899899366641
30
0
41
1
10
434.563924953682
20
39.891900752784
30
0
41
1
10
434.566818625078
20
39.8925285581341
30
0
41
1
10
434.573609026452
20
39.8937308943087
30
0
41
1
10
434.577520728759
20
39.8943102921281
30
0
41
1
10
434.586371935735
20
39.8954266795186
30
0
41
1
10
434.591330634655
20
39.8959654703248
30
0
41
1
10
434.602241024922
20
39.8969919891634
30
0
41
1
10
434.613974908168
20
39.8979525595093
30
0
41
1
10
434.627298936843
20
39.8987880636947
30
0
41
1
10
434.641431270369
20
39.8995611457214
30
0
41
1
10
434.648930121626
20
39.8999173278415
30
0
41
1
10
434.656721420743
20
39.9002356270499
30
0
0
SPLINE
5
197
100
AcDbEntity
8
1
62
256
6
ByLayer
370
18
48
1
60
0
100
AcDbSpline
70
4
71
3
72
32
73
28
40
0
40
0
40
0
40
0
40
0.125000000000003
40
0.125000000000003
40
0.187500000000004
40
0.187500000000004
40
0.250000000000005
40
0.312500000000005
40
0.312500000000005
40
0.375000000000006
40
0.375000000000006
40
0.437500000000007
40
0.437500000000007
40
0.500000000000008
40
0.500000000000008
40
0.625000000000009
40
0.625000000000009
40
0.687500000000008
40
0.687500000000008
40
0.750000000000006
40
0.750000000000006
40
0.812500000000005
40
0.812500000000005
40
0.875000000000003
40
0.937500000000002
40
0.937500000000002
40
1
40
1
40
1
40
1
41
1
10
434.656721420743
20
39.9648443066247
30
0
41
1
10
434.641156390664
20
39.9652213215934
30
0
41
1
10
434.627104684896
20
39.9656718452924
30
0
41
1
10
434.608228556068
20
39.9664479246724
30
0
41
1
10
434.602273346304
20
39.9667256851761
30
0
41
1
10
434.591424478695
20
39.9673005084359
30
0
41
1
10
434.581579622257
20
39.9678960578947
30
0
41
1
10
434.573704623012
20
39.9685301696295
30
0
41
1
10
434.566846890947
20
39.9691832582072
30
0
41
1
10
434.56396747569
20
39.9695160745151
30
0
41
1
10
434.559376457127
20
39.9701817430336
30
0
41
1
10
434.557645997884
20
39.9705163516401
30
0
41
1
10
434.555318271427
20
39.9711886856437
30
0
41
1
10
434.55472258757
20
39.9715288248971
30
0
41
1
10
434.554719092291
20
39.972534671308
30
0
41
1
10
434.557024749184
20
39.9731816136288
30
0
41
1
10
434.563937043987
20
39.9741184725505
30
0
41
1
10
434.566833176598
20
39.9744247222752
30
0
41
1
10
434.573628312202
20
39.9750086844394
30
0
41
1
10
434.577542416015
20
39.9752887850749
30
0
41
1
10
434.586398361139
20
39.9758262597725
30
0
41
1
10
434.59136187731
20
39.9760845987553
30
0
41
1
10
434.602269803662
20
39.9765743650955
30
0
41
1
10
434.614000126158
20
39.9770307132067
30
0
41
1
10
434.627318838097
20
39.9774247746825
30
0
41
1
10
434.64144485474
20
39.9777883329638
30
0
41
1
10
434.648938266171
20
39.9779552067572
30
0
41
1
10
434.656721420743
20
39.9781039513755
30
0
0
SPLINE
5
198
100
AcDbEntity
8
1
62
256
6
ByLayer
370
18
48
1
60
0
100
AcDbSpline
70
4
71
3
72
21
73
17
40
0
40
0
40
0
40
0
40
0.249356511382352
40
0.249356511382352
40
0.374034767073529
40
0.374034767073529
40
0.498713022764705
40
0.623391278455881
40
0.623391278455881
40
0.748069534147057
40
0.748069534147057
40
0.872747789838233
40
0.872747789838233
40
0.997426045529409
40
0.997426045529409
40
1
40
1
40
1
40
1
41
1
10
434.656721420743
20
39.9996098480956
30
0
41
1
10
434.641160964732
20
39.9996495276455
30
0
41
1
10
434.627111228963
20
39.99969433504
30
0
41
1
10
434.608235776258
20
39.9997623785769
30
0
41
1
10
434.602280371707
20
39.9997853540879
30
0
41
1
10
434.59143065899
20
39.9998292592638
30
0
41
1
10
434.581584474447
20
39.9998712896977
30
0
41
1
10
434.573707894504
20
39.9999075279236
30
0
41
1
10
434.566848569447
20
39.9999398428124
30
0
41
1
10
434.563968391395
20
39.9999538433574
30
0
41
1
10
434.559376347186
20
39.999976464826
30
0
41
1
10
434.557645570409
20
39.9999851767813
30
0
41
1
10
434.55531767672
20
39.9999969466026
30
0
41
1
10
434.554726051363
20
39.9999999763006
30
0
41
1
10
434.554719569445
20
40.000000009637
30
0
41
1
10
434.55472083072
20
40.0000000030939
30
0
41
1
10
434.554721830807
20
39.9999999978966
30
0
0
SPLINE
5
199
100
AcDbEntity
8
1
62
256
6
ByLayer
370
18
48
1
60
0
100
AcDbSpline
70
4
71
3
72
21
73
17
40
0
40
0
40
0
40
0
40
0.0014213510167865
40
0.0014213510167865
40
0.25106601326259
40
0.25106601326259
40
0.375888344385492
40
0.375888344385492
40
0.500710675508394
40
0.500710675508394
40
0.625533006631295
40
0.625533006631295
40
0.750355337754197
40
0.875177668877098
40
0.875177668877098
40
1
40
1
40
1
40
1
41
1
10
434.554721916832
20
-39.9999999975518
30
0
41
1
10
434.554720916745
20
-40.0000000026769
30
0
41
1
10
434.554719916658
20
-40.0000000078118
30
0
41
1
10
434.554709938514
20
-40.0000000590595
30
0
41
1
10
434.557027269406
20
-39.9999880409235
30
0
41
1
10
434.56394311579
20
-39.9999539658987
30
0
41
1
10
434.566840177519
20
-39.9999398857379
30
0
41
1
10
434.573637011289
20
-39.999907858516
30
0
41
1
10
434.577551929536
20
-39.9998898344888
30
0
41
1
10
434.586409426881
20
-39.9998506973454
30
0
41
1
10
434.591374605254
20
-39.9998294898696
30
0
41
1
10
434.60228123195
20
-39.9997853468573
30
0
41
1
10
434.614009941006
20
-39.9997400987142
30
0
41
1
10
434.627326324791
20
-39.9996949838797
30
0
41
1
10
434.641449843113
20
-39.9996510829168
30
0
41
1
10
434.648941192897
20
-39.9996296878734
30
0
41
1
10
434.656721420742
20
-39.9996098480989
30
0
0
SPLINE
5
19A
100
AcDbEntity
8
1
62
256
6
ByLayer
370
18
48
1
60
0
100
AcDbSpline
70
4
71
3
72
32
73
28
40
0
40
0
40
0
40
0
40
0.125000000000006
40
0.125000000000006
40
0.187500000000004
40
0.187500000000004
40
0.250000000000003
40
0.312500000000001
40
0.312500000000001
40
0.375
40
0.375
40
0.437499999999998
40
0.437499999999998
40
0.499999999999997
40
0.499999999999997
40
0.624999999999994
40
0.624999999999994
40
0.687499999999995
40
0.687499999999995
40
0.749999999999996
40
0.749999999999996
40
0.812499999999997
40
0.812499999999997
40
0.874999999999998
40
0.937499999999999
40
0.937499999999999
40
1
40
1
40
1
40
1
41
1
10
434.656721420742
20
-39.9781039513788
30
0
41
1
10
434.641155137494
20
-39.9778064626369
30
0
41
1
10
434.627101873318
20
-39.9774457175784
30
0
41
1
10
434.608223620457
20
-39.976805912878
30
0
41
1
10
434.602267770985
20
-39.976574157146
30
0
41
1
10
434.591418121289
20
-39.9760872402194
30
0
41
1
10
434.581572720605
20
-39.9755758210234
30
0
41
1
10
434.573697765202
20
-39.9750142224042
30
0
41
1
10
434.566840424842
20
-39.974425771095
30
0
41
1
10
434.563961642764
20
-39.9741209745548
30
0
41
1
10
434.559371921193
20
-39.9735005577513
30
0
41
1
10
434.557642231255
20
-39.973183370732
30
0
41
1
10
434.555316246768
20
-39.9725345594963
30
0
41
1
10
434.55472157365
20
-39.972200498665
30
0
41
1
10
434.554721115016
20
-39.9711947117056
30
0
41
1
10
434.557028576743
20
-39.9705238324579
30
0
41
1
10
434.563943190627
20
-39.9695187739087
30
0
41
1
10
434.566839665532
20
-39.9691843793766
30
0
41
1
10
434.573635161489
20
-39.9685363565196
30
0
41
1
10
434.577549306191
20
-39.9682201908275
30
0
41
1
10
434.586405166896
20
-39.9676043826145
30
0
41
1
10
434.591368965779
20
-39.967303572702
30
0
41
1
10
434.6022754131
20
-39.9667254533403
30
0
41
1
10
434.614004150545
20
-39.9661785167815
30
0
41
1
10
434.627321394233
20
-39.9656940764351
30
0
41
1
10
434.641446175646
20
-39.9652425609909
30
0
41
1
10
434.648938937653
20
-39.9650328133384
30
0
41
1
10
434.656721420742
20
-39.964844306628
30
0
0
SPLINE
5
19B
100
AcDbEntity
8
1
62
256
6
ByLayer
370
18
48
1
60
0
100
AcDbSpline
70
4
71
3
72
32
73
28
40
0
40
0
40
0
40
0
40
0.125
40
0.125
40
0.187499999999999
40
0.187499999999999
40
0.249999999999999
40
0.312499999999998
40
0.312499999999998
40
0.374999999999997
40
0.374999999999997
40
0.437499999999996
40
0.437499999999996
40
0.499999999999995
40
0.499999999999995
40
0.624999999999996
40
0.624999999999996
40
0.687499999999997
40
0.687499999999997
40
0.749999999999997
40
0.749999999999997
40
0.812499999999998
40
0.812499999999998
40
0.874999999999999
40
0.937499999999999
40
0.937499999999999
40
1
40
1
40
1
40
1
41
1
10
434.656721420742
20
-39.9002356270531
30
0
41
1
10
434.641138843403
20
-39.8995990294898
30
0
41
1
10
434.627076526047
20
-39.8988304189627
30
0
41
1
10
434.608191984906
20
-39.8974790233706
30
0
41
1
10
434.60223544336
20
-39.8969912423167
30
0
41
1
10
434.591386773461
20
-39.8959709728938
30
0
41
1
10
434.581544105968
20
-39.8949035744643
30
0
41
1
10
434.573674171626
20
-39.8937416501369
30
0
41
1
10
434.566822409516
20
-39.8925299994687
30
0
41
1
10
434.563947190751
20
-39.8919053506812
30
0
41
1
10
434.559363152165
20
-39.890639711932
30
0
41
1
10
434.55763595937
20
-39.8899955497107
30
0
41
1
10
434.555313971854
20
-39.8886840419457
30
0
41
1
10
434.554720816702
20
-39.8880118347274
30
0
41
1
10
434.554722630226
20
-39.8859972651201
30
0
41
1
10
434.557028692756
20
-39.8846654364642
30
0
41
1
10
434.563937301325
20
-39.8826862714901
30
0
41
1
10
434.566831673587
20
-39.8820303661424
30
0
41
1
10
434.573622799239
20
-39.8807639518371
30
0
41
1
10
434.577534583178
20
-39.8801484383021
30
0
41
1
10
434.586385617866
20
-39.8789535398266
30
0
41
1
10
434.591344930576
20
-39.8783721051271
30
0
41
1
10
434.602252335862
20
-39.8772570337625
30
0
41
1
10
434.613983015836
20
-39.8762055719631
30
0
41
1
10
434.627304076893
20
-39.8752792666052
30
0
41
1
10
434.641433907491
20
-39.8744177595757
30
0
41
1
10
434.648931475664
20
-39.8740184499181
30
0
41
1
10
434.656721420742
20
-39.8736601393188
30
0
0
SPLINE
5
19C
100
AcDbEntity
8
1
62
256
6
ByLayer
370
18
48
1
60
0
100
AcDbSpline
70
4
71
3
72
32
73
28
40
0
40
0
40
0
40
0
40
0.125000000000006
40
0.125000000000006
40
0.187500000000006
40
0.187500000000006
40
0.250000000000007
40
0.312500000000008
40
0.312500000000008
40
0.375000000000008
40
0.375000000000008
40
0.437500000000009
40
0.437500000000009
40
0.500000000000009
40
0.500000000000009
40
0.625000000000011
40
0.625000000000011
40
0.687500000000009
40
0.687500000000009
40
0.750000000000007
40
0.750000000000007
40
0.812500000000006
40
0.812500000000006
40
0.875000000000004
40
0.937500000000002
40
0.937500000000002
40
1
40
1
40
1
40
1
41
1
10
434.656721420742
20
-39.7656737732618
30
0
41
1
10
434.641111905046
20
-39.7646939699012
30
0
41
1
10
434.627034953123
20
-39.7635126482286
30
0
41
1
10
434.608140625136
20
-39.7614419053388
30
0
41
1
10
434.602183158787
20
-39.7606954298182
30
0
41
1
10
434.591336417325
20
-39.7591365981561
30
0
41
1
10
434.581498487329
20
-39.7575080340053
30
0
41
1
10
434.57363699677
20
-39.7557407257255
30
0
41
1
10
434.566794444393
20
-39.753900953307
30
0
41
1
10
434.563924972562
20
-39.7529543020445
30
0
41
1
10
434.559349999327
20
-39.7510390179184
30
0
41
1
10
434.557626723923
20
-39.7500657069253
30
0
41
1
10
434.555310838725
20
-39.7480872420758
30
0
41
1
10
434.554719885604
20
-39.7470748146409
30
0
41
1
10
434.554724500121
20
-39.7440453850218
30
0
41
1
10
434.557027648485
20
-39.7420484900456
30
0
41
1
10
434.563925493311
20
-39.739088953179
30
0
41
1
10
434.566816231179
20
-39.7381091091748
30
0
41
1
10
434.573599961274
20
-39.7362194650547
30
0
41
1
10
434.577507799844
20
-39.7353021822109
30
0
41
1
10
434.586350821375
20
-39.7335233628229
30
0
41
1
10
434.591302292767
20
-39.7326593362601
30
0
41
1
10
434.602211872921
20
-39.7310013488779
30
0
41
1
10
434.61394631017
20
-39.7294397176792
30
0
41
1
10
434.627274438318
20
-39.7280665442002
30
0
41
1
10
434.641413212508
20
-39.7267903899157
30
0
41
1
10
434.64891872067
20
-39.7261991815192
30
0
41
1
10
434.656721420742
20
-39.7256688472174
30
0
0
SPLINE
5
19D
100
AcDbEntity
8
1
62
256
6
ByLayer
370
18
48
1
60
0
100
AcDbSpline
70
4
71
3
72
32
73
28
40
0
40
0
40
0
40
0
40
0.12499999999999
40
0.12499999999999
40
0.18749999999999
40
0.18749999999999
40
0.24999999999999
40
0.312499999999989
40
0.312499999999989
40
0.374999999999989
40
0.374999999999989
40
0.437499999999989
40
0.437499999999989
40
0.499999999999989
40
0.499999999999989
40
0.624999999999989
40
0.624999999999989
40
0.687499999999991
40
0.687499999999991
40
0.749999999999993
40
0.749999999999993
40
0.812499999999995
40
0.812499999999995
40
0.874999999999996
40
0.937499999999998
40
0.937499999999998
40
1
40
1
40
1
40
1
41
1
10
434.656721420742
20
-39.5738400738239
30
0
41
1
10
434.64107402786
20
-39.572510707637
30
0
41
1
10
434.626976772487
20
-39.5709091792207
30
0
41
1
10
434.608069150564
20
-39.568107145413
30
0
41
1
10
434.602110553105
20
-39.567097874822
30
0
41
1
10
434.591266744628
20
-39.5649924823088
30
0
41
1
10
434.581435722331
20
-39.5627947872394
30
0
41
1
10
434.573586067665
20
-39.560414380158
30
0
41
1
10
434.566756417132
20
-39.5579389750544
30
0
41
1
10
434.563894899948
20
-39.5566670316086
30
0
41
1
10
434.559332406898
20
-39.5540953418395
30
0
41
1
10
434.55761448334
20
-39.5527895631303
30
0
41
1
10
434.555306830127
20
-39.5501376404081
30
0
41
1
10
434.55471877248
20
-39.5487818344897
30
0
41
1
10
434.55472674451
20
-39.5447282261875
30
0
41
1
10
434.557025485638
20
-39.5420599713119
30
0
41
1
10
434.563907826864
20
-39.5381105128193
30
0
41
1
10
434.566793365654
20
-39.5368030332685
30
0
41
1
10
434.573566686905
20
-39.5342827681905
30
0
41
1
10
434.577469000511
20
-39.5330600252798
30
0
41
1
10
434.586300827943
20
-39.5306899369775
30
0
41
1
10
434.591240650883
20
-39.5295404606113
30
0
41
1
10
434.602153770669
20
-39.527330438298
30
0
41
1
10
434.613893949686
20
-39.5252500241604
30
0
41
1
10
434.627232582556
20
-39.5234223981314
30
0
41
1
10
434.641384393947
20
-39.52172454761
30
0
41
1
10
434.648900521873
20
-39.5209379765951
30
0
41
1
10
434.656721420742
20
-39.5202322590805
30
0
0
SPLINE
5
19E
100
AcDbEntity
8
1
62
256
6
ByLayer
370
18
48
1
60
0
100
AcDbSpline
70
4
71
3
72
31
73
27
40
0
40
0
40
0
40
0
40
0.124999999999997
40
0.124999999999997
40
0.187499999999995
40
0.187499999999995
40
0.249999999999994
40
0.312499999999993
40
0.312499999999993
40
0.374999999999991
40
0.374999999999991
40
0.437499999999989
40
0.437499999999989
40
0.499999999999988
40
0.499999999999988
40
0.624999999999994
40
0.624999999999994
40
0.687499999999992
40
0.687499999999992
40
0.749999999999991
40
0.749999999999991
40
0.874999999999993
40
0.874999999999993
40
0.937499999999997
40
0.937499999999997
40
1
40
1
40
1
40
1
41
1
10
434.656721420742
20
-39.3238963702188
30
0
41
1
10
434.641024791275
20
-39.3222086599642
30
0
41
1
10
434.626901444448
20
-39.320176594377
30
0
41
1
10
434.607977016029
20
-39.3166268666554
30
0
41
1
10
434.602017120554
20
-39.3153491806217
30
0
41
1
10
434.591177331023
20
-39.3126862682457
30
0
41
1
10
434.581355431569
20
-39.3099085475412
30
0
41
1
10
434.573521151932
20
-39.3069044941182
30
0
41
1
10
434.566708179639
20
-39.3037832016817
30
0
41
1
10
434.563856856799
20
-39.3021814667099
30
0
41
1
10
434.559310302404
20
-39.2989441222061
30
0
41
1
10
434.557599183964
20
-39.2973013362775
30
0
41
1
10
434.555301924165
20
-39.2939670657484
30
0
41
1
10
434.554717467303
20
-39.2922635657146
30
0
41
1
10
434.554729388771
20
-39.2871729861392
30
0
41
1
10
434.557022258312
20
-39.2838247497821
30
0
41
1
10
434.563884380446
20
-39.2788723137671
30
0
41
1
10
434.566763103532
20
-39.2772321761175
30
0
41
1
10
434.573523020993
20
-39.2740711724042
30
0
41
1
10
434.577418238416
20
-39.2725379244218
30
0
41
1
10
434.590644435448
20
-39.2680808412294
30
0
41
1
10
434.601676556334
20
-39.2652737332461
30
0
41
1
10
434.620502283604
20
-39.2615961266249
30
0
41
1
10
434.627178656715
20
-39.2604498957235
30
0
41
1
10
434.641347902516
20
-39.2583207265188
30
0
41
1
10
434.648876658455
20
-39.2573342066775
30
0
41
1
10
434.656721420742
20
-39.2564485182313
30
0
0
SPLINE
5
19F
100
AcDbEntity
8
1
62
256
6
ByLayer
370
18
48
1
60
0
100
AcDbSpline
70
4
71
3
72
32
73
28
40
0
40
0
40
0
40
0
40
0.124999999999996
40
0.124999999999996
40
0.187499999999994
40
0.187499999999994
40
0.249999999999992
40
0.31249999999999
40
0.31249999999999
40
0.374999999999988
40
0.374999999999988
40
0.437499999999986
40
0.437499999999986
40
0.499999999999984
40
0.499999999999984
40
0.624999999999979
40
0.624999999999979
40
0.687499999999983
40
0.687499999999983
40
0.749999999999986
40
0.81249999999999
40
0.81249999999999
40
0.874999999999993
40
0.874999999999993
40
0.937499999999996
40
0.937499999999996
40
1
40
1
40
1
40
1
41
1
10
434.656721420742
20
-39.0147258516938
30
0
41
1
10
434.640963635801
20
-39.012668357848
30
0
41
1
10
434.626808257935
20
-39.0101923272495
30
0
41
1
10
434.60786350993
20
-39.0058736582777
30
0
41
1
10
434.601902203368
20
-39.0043202919715
30
0
41
1
10
434.591067627787
20
-39.0010856979455
30
0
41
1
10
434.581257188837
20
-38.9977138831624
30
0
41
1
10
434.573441953193
20
-38.9940725856094
30
0
41
1
10
434.566649544797
20
-38.9902921881783
30
0
41
1
10
434.56381069595
20
-38.9883548526624
30
0
41
1
10
434.559283594425
20
-38.9844399002784
30
0
41
1
10
434.557580758263
20
-38.9824542405915
30
0
41
1
10
434.555296093446
20
-38.9784261322547
30
0
41
1
10
434.554715957502
20
-38.9763693616724
30
0
41
1
10
434.55473246501
20
-38.9702252145535
30
0
41
1
10
434.5570180353
20
-38.966185832545
30
0
41
1
10
434.563855255273
20
-38.9602135423196
30
0
41
1
10
434.56672547174
20
-38.9582343218947
30
0
41
1
10
434.573469017625
20
-38.9544194877117
30
0
41
1
10
434.581242350437
20
-38.9507189678011
30
0
41
1
10
434.591068721134
20
-38.9472481798631
30
0
41
1
10
434.601973039914
20
-38.9438991430545
30
0
41
1
10
434.607862415502
20
-38.9423176307274
30
0
41
1
10
434.620427383568
20
-38.9393537664165
30
0
41
1
10
434.627112855511
20
-38.9379683895793
30
0
41
1
10
434.641304362347
20
-38.9353954480187
30
0
41
1
10
434.648846831255
20
-38.9342032847277
30
0
41
1
10
434.656721420742
20
-38.9331316839197
30
0
0
SPLINE
5
1A0
100
AcDbEntity
8
1
62
256
6
ByLayer
370
18
48
1
60
0
100
AcDbSpline
70
4
71
3
72
30
73
26
40
0
40
0
40
0
40
0
40
0.124999999999979
40
0.124999999999979
40
0.187499999999977
40
0.187499999999977
40
0.249999999999975
40
0.312499999999973
40
0.312499999999973
40
0.374999999999971
40
0.374999999999971
40
0.437499999999969
40
0.437499999999969
40
0.499999999999967
40
0.499999999999967
40
0.624999999999975
40
0.624999999999975
40
0.687499999999979
40
0.687499999999979
40
0.749999999999984
40
0.812499999999988
40
0.812499999999988
40
0.874999999999992
40
0.874999999999992
40
1
40
1
40
1
40
1
41
1
10
434.656721420742
20
-38.6449070490529
30
0
41
1
10
434.640881230373
20
-38.6424640272263
30
0
41
1
10
434.626680834731
20
-38.639525292858
30
0
41
1
10
434.607704513441
20
-38.6344075034996
30
0
41
1
10
434.601739721267
20
-38.6325680735319
30
0
41
1
10
434.59090918654
20
-38.6287415029298
30
0
41
1
10
434.581111214149
20
-38.6247552787668
30
0
41
1
10
434.573319535858
20
-38.620456670494
30
0
41
1
10
434.566553632853
20
-38.6159973894626
30
0
41
1
10
434.563731752876
20
-38.6137159354786
30
0
41
1
10
434.559232571081
20
-38.6091054987444
30
0
41
1
10
434.557542523183
20
-38.6067681305976
30
0
41
1
10
434.555280014165
20
-38.6020287377872
30
0
41
1
10
434.554709341174
20
-38.5996100536044
30
0
41
1
10
434.554746168776
20
-38.5923880170559
30
0
41
1
10
434.557035005698
20
-38.5876412322017
30
0
41
1
10
434.563865173513
20
-38.5806247228229
30
0
41
1
10
434.566732913635
20
-38.578297888894
30
0
41
1
10
434.573473189097
20
-38.5738119944486
30
0
41
1
10
434.581242908689
20
-38.5694603800399
30
0
41
1
10
434.591068138857
20
-38.5653787444862
30
0
41
1
10
434.601973425767
20
-38.5614401023108
30
0
41
1
10
434.607885435182
20
-38.5595737158732
30
0
41
1
10
434.626748250425
20
-38.5543449810458
30
0
41
1
10
434.640889270098
20
-38.551315489403
30
0
41
1
10
434.656721420742
20
-38.5487838351655
30
0
0
SPLINE
5
1A1
100
AcDbEntity
8
1
62
256
6
ByLayer
370
18
48
1
60
0
100
AcDbSpline
70
4
71
3
72
30
73
26
40
0
40
0
40
0
40
0
40
0.124999999999983
40
0.124999999999983
40
0.187499999999983
40
0.187499999999983
40
0.249999999999983
40
0.312499999999984
40
0.312499999999984
40
0.374999999999984
40
0.374999999999984
40
0.437499999999984
40
0.437499999999984
40
0.499999999999985
40
0.499999999999985
40
0.624999999999997
40
0.624999999999997
40
0.687499999999997
40
0.687499999999997
40
0.749999999999998
40
0.812499999999998
40
0.812499999999998
40
0.874999999999999
40
0.874999999999999
40
1
40
1
40
1
40
1
41
1
10
434.656721420742
20
-38.2126791572778
30
0
41
1
10
434.640797034538
20
-38.2098344706725
30
0
41
1
10
434.626554653379
20
-38.2064145776543
30
0
41
1
10
434.607553876815
20
-38.2004695295615
30
0
41
1
10
434.601588436083
20
-38.1983345833488
30
0
41
1
10
434.59076689757
20
-38.1938976891822
30
0
41
1
10
434.580986138351
20
-38.1892790997077
30
0
41
1
10
434.57322112625
20
-38.1843064149737
30
0
41
1
10
434.566483307426
20
-38.179152326148
30
0
41
1
10
434.56367782206
20
-38.1765194849984
30
0
41
1
10
434.559203545978
20
-38.1711989621804
30
0
41
1
10
434.557523723944
20
-38.1685027923984
30
0
41
1
10
434.555275673123
20
-38.163038388509
30
0
41
1
10
434.554709190736
20
-38.1602513505605
30
0
41
1
10
434.554746488816
20
-38.1519301562467
30
0
41
1
10
434.557020899923
20
-38.1464616265241
30
0
41
1
10
434.563808621759
20
-38.1383790834895
30
0
41
1
10
434.566661294005
20
-38.1356958201271
30
0
41
1
10
434.573373505793
20
-38.1305197463164
30
0
41
1
10
434.581113812096
20
-38.1254979460145
30
0
41
1
10
434.590907697936
20
-38.1207861562154
30
0
41
1
10
434.601781856617
20
-38.1162385954768
30
0
41
1
10
434.607712888758
20
-38.1140704457921
30
0
41
1
10
434.626616602937
20
-38.1080086907494
30
0
41
1
10
434.640806647861
20
-38.104494543577
30
0
41
1
10
434.656721420742
20
-38.1015580734331
30
0
0
SPLINE
5
1A2
100
AcDbEntity
8
1
62
256
6
ByLayer
370
18
48
1
60
0
100
AcDbSpline
70
4
71
3
72
30
73
26
40
0
40
0
40
0
40
0
40
0.12500000000001
40
0.12500000000001
40
0.187500000000016
40
0.187500000000016
40
0.250000000000021
40
0.312500000000026
40
0.312500000000026
40
0.375000000000032
40
0.375000000000032
40
0.437500000000037
40
0.437500000000037
40
0.500000000000042
40
0.500000000000042
40
0.625000000000026
40
0.625000000000026
40
0.68750000000002
40
0.68750000000002
40
0.750000000000015
40
0.812500000000009
40
0.812500000000009
40
0.875000000000004
40
0.875000000000004
40
1
40
1
40
1
40
1
41
1
10
434.656721420742
20
-37.7158965944622
30
0
41
1
10
434.640698712975
20
-37.712628732828
30
0
41
1
10
434.626408131503
20
-37.708702701392
30
0
41
1
10
434.607379853147
20
-37.7018914792668
30
0
41
1
10
434.601414016005
20
-37.6994478320787
30
0
41
1
10
434.590603307758
20
-37.6943749327129
30
0
41
1
10
434.580842758482
20
-37.689098569486
30
0
41
1
10
434.573108588267
20
-37.6834273863385
30
0
41
1
10
434.566403110765
20
-37.6775548038435
30
0
41
1
10
434.563616343522
20
-37.6745600484284
30
0
41
1
10
434.559170482827
20
-37.6685077592485
30
0
41
1
10
434.557502316146
20
-37.6654421482804
30
0
41
1
10
434.555270734402
20
-37.6592318896123
30
0
41
1
10
434.554709009931
20
-37.6560664005907
30
0
41
1
10
434.554746873761
20
-37.6466153841104
30
0
41
1
10
434.557005003214
20
-37.6404045843509
30
0
41
1
10
434.563744640999
20
-37.6312251109504
30
0
41
1
10
434.566579664902
20
-37.6281742856666
30
0
41
1
10
434.573260158807
20
-37.6222836740693
30
0
41
1
10
434.580966988196
20
-37.6165674618195
30
0
41
1
10
434.59072566852
20
-37.6112017764487
30
0
41
1
10
434.601564571001
20
-37.6060217901264
30
0
41
1
10
434.607511811317
20
-37.603536971283
30
0
41
1
10
434.626463154652
20
-37.5965987860605
30
0
41
1
10
434.640710239158
20
-37.5925735656604
30
0
41
1
10
434.656721420742
20
-37.589210154991
30
0
0
SPLINE
5
1A3
100
AcDbEntity
8
1
62
256
6
ByLayer
370
18
48
1
60
0
100
AcDbSpline
70
4
71
3
72
30
73
26
40
0
40
0
40
0
40
0
40
0.125000000000008
40
0.125000000000008
40
0.187500000000015
40
0.187500000000015
40
0.250000000000021
40
0.312500000000028
40
0.312500000000028
40
0.375000000000034
40
0.375000000000034
40
0.43750000000004
40
0.43750000000004
40
0.500000000000047
40
0.500000000000047
40
0.625000000000032
40
0.625000000000032
40
0.687500000000025
40
0.687500000000025
40
0.750000000000017
40
0.81250000000001
40
0.81250000000001
40
0.875000000000002
40
0.875000000000002
40
1
40
1
40
1
40
1
41
1
10
434.656721420742
20
-37.1519698464467
30
0
41
1
10
434.64058494135
20
-37.1482526790801
30
0
41
1
10
434.626239671936
20
-37.1437902770461
30
0
41
1
10
434.607180907834
20
-37.1360660233387
30
0
41
1
10
434.601215059832
20
-37.1332978500878
30
0
41
1
10
434.590417266613
20
-37.1275581197688
30
0
41
1
10
434.580680203823
20
-37.1215935110705
30
0
41
1
10
434.572981306432
20
-37.1151945595737
30
0
41
1
10
434.566312647058
20
-37.1085750836745
30
0
41
1
10
434.563546988945
20
-37.1052057410668
30
0
41
1
10
434.559133169834
20
-37.0983955633537
30
0
41
1
10
434.557478138611
20
-37.0949476846985
30
0
41
1
10
434.555265125642
20
-37.0879664236304
30
0
41
1
10
434.554708762562
20
-37.0844102921206
30
0
41
1
10
434.554747400167
20
-37.0737922927586
30
0
41
1
10
434.556987482943
20
-37.0668143987226
30
0
41
1
10
434.563673508191
20
-37.0565006960193
30
0
41
1
10
434.56648802325
20
-37.0530693552512
30
0
41
1
10
434.573133235186
20
-37.0464347517834
30
0
41
1
10
434.580802841224
20
-37.0399949156828
30
0
41
1
10
434.590522334194
20
-37.0339467056595
30
0
41
1
10
434.60132193575
20
-37.0281060193936
30
0
41
1
10
434.607279782426
20
-37.0252883597747
30
0
41
1
10
434.626286039974
20
-37.0174210818302
30
0
41
1
10
434.640598820691
20
-37.0128527370514
30
0
41
1
10
434.656721420742
20
-37.0090355525372
30
0
0
SPLINE
5
1A4
100
AcDbEntity
8
1
62
256
6
ByLayer
370
18
48
1
60
0
100
AcDbSpline
70
2053
71
3
72
151
73
147
40
0
40
0
40
0
40
0
40
0.0156250000000042
40
0.0312500000000085
40
0.0468750000000127
40
0.0468750000000127
40
0.0546875000000146
40
0.0546875000000146
40
0.0625000000000166
40
0.0625000000000166
40
0.0781250000000202
40
0.0937500000000239
40
0.0937500000000239
40
0.101562500000026
40
0.105468750000027
40
0.105468750000027
40
0.109375000000028
40
0.109375000000028
40
0.125000000000031
40
0.140625000000034
40
0.156250000000037
40
0.156250000000037
40
0.160156250000037
40
0.160156250000037
40
0.164062500000037
40
0.164062500000037
40
0.171875000000038
40
0.171875000000038
40
0.187500000000039
40
0.20312500000004
40
0.20312500000004
40
0.210937500000041
40
0.210937500000041
40
0.218750000000041
40
0.218750000000041
40
0.234375000000043
40
0.250000000000045
40
0.265625000000046
40
0.265625000000046
40
0.269531250000046
40
0.269531250000046
40
0.273437500000046
40
0.281250000000047
40
0.281250000000047
40
0.296875000000048
40
0.31250000000005
40
0.31250000000005
40
0.32031250000005
40
0.32031250000005
40
0.32421875000005
40
0.32421875000005
40
0.32812500000005
40
0.34375000000005
40
0.359375000000049
40
0.359375000000049
40
0.375000000000049
40
0.375000000000049
40
0.390625000000048
40
0.406250000000048
40
0.421875000000048
40
0.421875000000048
40
0.425781250000048
40
0.425781250000048
40
0.429687500000048
40
0.429687500000048
40
0.437500000000048
40
0.437500000000048
40
0.453125000000047
40
0.468750000000047
40
0.468750000000047
40
0.476562500000047
40
0.480468750000047
40
0.480468750000047
40
0.484375000000047
40
0.484375000000047
40
0.500000000000046
40
0.515625000000046
40
0.531250000000045
40
0.531250000000045
40
0.539062500000045
40
0.539062500000045
40
0.546875000000044
40
0.546875000000044
40
0.562500000000044
40
0.578125000000043
40
0.578125000000043
40
0.585937500000043
40
0.585937500000043
40
0.593750000000043
40
0.593750000000043
40
0.609375000000043
40
0.625000000000043
40
0.640625000000043
40
0.640625000000043
40
0.648437500000044
40
0.648437500000044
40
0.656250000000044
40
0.656250000000044
40
0.671875000000044
40
0.687500000000043
40
0.687500000000043
40
0.695312500000043
40
0.695312500000043
40
0.703125000000042
40
0.703125000000042
40
0.71875000000004
40
0.734375000000038
40
0.750000000000036
40
0.750000000000036
40
0.753906250000035
40
0.753906250000035
40
0.757812500000034
40
0.765625000000032
40
0.765625000000032
40
0.781250000000028
40
0.796875000000024
40
0.796875000000024
40
0.804687500000022
40
0.804687500000022
40
0.81250000000002
40
0.81250000000002
40
0.828125000000017
40
0.843750000000013
40
0.843750000000013
40
0.851562500000011
40
0.855468750000011
40
0.855468750000011
40
0.85937500000001
40
0.85937500000001
40
0.875000000000008
40
0.890625000000007
40
0.906250000000005
40
0.906250000000005
40
0.914062500000004
40
0.914062500000004
40
0.921875000000004
40
0.921875000000004
40
0.937500000000003
40
0.953125000000002
40
0.953125000000002
40
0.960937500000002
40
0.960937500000002
40
0.968750000000001
40
0.968750000000001
40
0.984375000000001
40
1
40
1
40
1
40
1
41
1
10
430.243626271044
20
-17.7958360870623
30
0
41
1
10
430.160678816369
20
-17.7958364052448
30
0
41
1
10
429.996159670968
20
-17.8030990894557
30
0
41
1
10
429.753378413501
20
-17.8350840304146
30
0
41
1
10
429.594178456251
20
-17.8703926417297
30
0
41
1
10
429.475798579313
20
-17.902237367952
30
0
41
1
10
429.436454428333
20
-17.9137651617011
30
0
41
1
10
429.358351355286
20
-17.9385755273623
30
0
41
1
10
429.319802666363
20
-17.9517884689843
30
0
41
1
10
429.205635712233
20
-17.9937991024326
30
0
41
1
10
429.05735013332
20
-18.0561264187861
30
0
41
1
10
428.91680132706
20
-18.1308092922278
30
0
41
1
10
428.814322392083
20
-18.1914828044835
30
0
41
1
10
428.76381725741
20
-18.2229867199054
30
0
41
1
10
428.714432060898
20
-18.2562661566704
30
0
41
1
10
428.681760247067
20
-18.2788508875569
30
0
41
1
10
428.66552804327
20
-18.2903589183316
30
0
41
1
10
428.585375295363
20
-18.3486340501317
30
0
41
1
10
428.463347498836
20
-18.4466819789346
30
0
41
1
10
428.298374186422
20
-18.607625834159
30
0
41
1
10
428.200398638924
20
-18.7240718789909
30
0
41
1
10
428.143013896293
20
-18.799763662497
30
0
41
1
10
428.131729896952
20
-18.8150480118034
30
0
41
1
10
428.109552113272
20
-18.8459114521234
30
0
41
1
10
428.098657415047
20
-18.8614934455394
30
0
41
1
10
428.066743253156
20
-18.9084170908902
30
0
41
1
10
428.046429467884
20
-18.9400232275524
30
0
41
1
10
427.988320228687
20
-19.0357885135888
30
0
41
1
10
427.918379998006
20
-19.1659956977997
30
0
41
1
10
427.863275983814
20
-19.301107990532
30
0
41
1
10
427.827584146185
20
-19.4042885815745
30
0
41
1
10
427.816627913612
20
-19.4389904328466
30
0
41
1
10
427.796630952225
20
-19.5090193760192
30
0
41
1
10
427.787576239773
20
-19.5444266588288
30
0
41
1
10
427.763587710675
20
-19.6504839309809
30
0
41
1
10
427.739858113855
20
-19.7920121974205
30
0
41
1
10
427.728339064301
20
-20.0046188471405
30
0
41
1
10
427.736724440931
20
-20.1465593571263
30
0
41
1
10
427.747140850063
20
-20.23533993572
30
0
41
1
10
427.749487424897
20
-20.2531244926798
30
0
41
1
10
427.754683556583
20
-20.2885554848565
30
0
41
1
10
427.763228926906
20
-20.3414868616501
30
0
41
1
10
427.77400025172
20
-20.3937814795793
30
0
41
1
10
427.798462275344
20
-20.4975380806579
30
0
41
1
10
427.83884947838
20
-20.6336634331172
30
0
41
1
10
427.894611492272
20
-20.7654392203383
30
0
41
1
10
427.942305510331
20
-20.8626283151397
30
0
41
1
10
427.959184032833
20
-20.8947504429605
30
0
41
1
10
427.986002876869
20
-20.942516580073
30
0
41
1
10
427.995193990275
20
-20.9583692581351
30
0
41
1
10
428.013972841627
20
-20.9897578343518
30
0
41
1
10
428.061978610649
20
-21.0675475764621
30
0
41
1
10
428.157763368956
20
-21.201543591161
30
0
41
1
10
428.255935234024
20
-21.3123453240191
30
0
41
1
10
428.360660990151
20
-21.4190070890053
30
0
41
1
10
428.416304323493
20
-21.4702717680879
30
0
41
1
10
428.534361994877
20
-21.5685398101153
30
0
41
1
10
428.657210381512
20
-21.6609050390261
30
0
41
1
10
428.855354571754
20
-21.7824807069339
30
0
41
1
10
428.996632247086
20
-21.852372881202
30
0
41
1
10
429.087862392272
20
-21.8925150199892
30
0
41
1
10
429.106255335316
20
-21.9003660140807
30
0
41
1
10
429.143337984635
20
-21.9157101113289
30
0
41
1
10
429.162054107238
20
-21.9232132318362
30
0
41
1
10
429.218410146841
20
-21.9450873333341
30
0
41
1
10
429.25626275934
20
-21.958829104869
30
0
41
1
10
429.370648814191
20
-21.9975894415841
30
0
41
1
10
429.525367899509
20
-22.042709860964
30
0
41
1
10
429.684408166798
20
-22.0750202794785
30
0
41
1
10
429.805322120869
20
-22.0944238503379
30
0
41
1
10
429.866188183986
20
-22.1029163358736
30
0
41
1
10
429.927677300027
20
-22.1095688736728
30
0
41
1
10
429.9688099455
20
-22.1135909168165
30
0
41
1
10
429.989450590542
20
-22.115395058738
30
0
41
1
10
430.092436031403
20
-22.1233337553895
30
0
41
1
10
430.256726510346
20
-22.1292291533579
30
0
41
1
10
430.501749824961
20
-22.1183107324464
30
0
41
1
10
430.66416091586
20
-22.0979023706942
30
0
41
1
10
430.785608795609
20
-22.0775406910484
30
0
41
1
10
430.82613310353
20
-22.0698853012815
30
0
41
1
10
430.906293607423
20
-22.0530151778881
30
0
41
1
10
430.945983587287
20
-22.0437961156296
30
0
41
1
10
431.06390408268
20
-22.0138259610432
30
0
41
1
10
431.218071650026
20
-21.9677090588335
30
0
41
1
10
431.366210206295
20
-21.9094108699862
30
0
41
1
10
431.475021608057
20
-21.8610321764153
30
0
41
1
10
431.510909310888
20
-21.8441286863974
30
0
41
1
10
431.581905315551
20
-21.8087346596957
30
0
41
1
10
431.617092086441
20
-21.7901967748977
30
0
41
1
10
431.720414706378
20
-21.7327339240738
30
0
41
1
10
431.85275234623
20
-21.6509681275802
30
0
41
1
10
432.035396140591
20
-21.5131560227932
30
0
41
1
10
432.146551385767
20
-21.4110645416271
30
0
41
1
10
432.225809161971
20
-21.3305086882825
30
0
41
1
10
432.25159576939
20
-21.3029249270218
30
0
41
1
10
432.301246298611
20
-21.2469838767896
30
0
41
1
10
432.325166506167
20
-21.218575583077
30
0
41
1
10
432.394254602813
20
-21.1320512371462
30
0
41
1
10
432.479257857051
20
-21.0132260231442
30
0
41
1
10
432.550170052045
20
-20.887482109816
30
0
41
1
10
432.59796711113
20
-20.7905067642489
30
0
41
1
10
432.613000008442
20
-20.7577363172256
30
0
41
1
10
432.641229155825
20
-20.6912827680314
30
0
41
1
10
432.654441237645
20
-20.6575396776091
30
0
41
1
10
432.690861974535
20
-20.5560555950856
30
0
41
1
10
432.731178713165
20
-20.4193999155313
30
0
41
1
10
432.767528834574
20
-20.2104327495442
30
0
41
1
10
432.775617943886
20
-20.0684340781297
30
0
41
1
10
432.775459442961
20
-19.9788147110545
30
0
41
1
10
432.775165239654
20
-19.9608240221435
30
0
41
1
10
432.774054995613
20
-19.924939783061
30
0
41
1
10
432.771608180419
20
-19.8712159368209
30
0
41
1
10
432.766845838669
20
-19.81779597335
30
0
41
1
10
432.754285040137
20
-19.7113555205496
30
0
41
1
10
432.729455198197
20
-19.5704979263968
30
0
41
1
10
432.688647952017
20
-19.4317626814446
30
0
41
1
10
432.651946636318
20
-19.3285339425474
30
0
41
1
10
432.638695070641
20
-19.2942617734676
30
0
41
1
10
432.610115777632
20
-19.2260005220659
30
0
41
1
10
432.594904637353
20
-19.1922907040479
30
0
41
1
10
432.546591693282
20
-19.0924477362518
30
0
41
1
10
432.475023873911
20
-18.962703897188
30
0
41
1
10
432.389501825351
20
-18.8396093617653
30
0
41
1
10
432.320104226546
20
-18.749815889899
30
0
41
1
10
432.284089275578
20
-18.7055520677332
30
0
41
1
10
432.246073118239
20
-18.6622552603285
30
0
41
1
10
432.220280012624
20
-18.633608222767
30
0
41
1
10
432.207145759321
20
-18.6193802790983
30
0
41
1
10
432.140692925682
20
-18.549158853264
30
0
41
1
10
432.028938883796
20
-18.4421468366089
30
0
41
1
10
431.845571350457
20
-18.297210697846
30
0
41
1
10
431.712894840869
20
-18.2109811942415
30
0
41
1
10
431.609382716747
20
-18.1503239157493
30
0
41
1
10
431.57412000388
20
-18.1307310934582
30
0
41
1
10
431.502922620008
20
-18.0932746669699
30
0
41
1
10
431.466940646745
20
-18.0753778145707
30
0
41
1
10
431.357865990651
20
-18.0241407732917
30
0
41
1
10
431.209428599534
20
-17.9623560691352
30
0
41
1
10
431.055071574153
20
-17.9134890383081
30
0
41
1
10
430.937053144943
20
-17.8817656313683
30
0
41
1
10
430.897337893917
20
-17.8720137253619
30
0
41
1
10
430.817142312863
20
-17.8541867987681
30
0
41
1
10
430.776593171686
20
-17.8461028050759
30
0
41
1
10
430.654820905074
20
-17.824599999018
30
0
41
1
10
430.491573295586
20
-17.8031008143111
30
0
41
1
10
430.326573725719
20
-17.7958357688798
30
0
41
1
10
430.243626271044
20
-17.7958360870623
30
0
0
SPLINE
5
1A5
100
AcDbEntity
8
1
62
256
6
ByLayer
370
18
48
1
60
0
100
AcDbSpline
70
2053
71
3
72
151
73
147
40
0
40
0
40
0
40
0
40
0.0156250000000017
40
0.0312500000000034
40
0.046875000000005
40
0.046875000000005
40
0.0546875000000059
40
0.0546875000000059
40
0.0625000000000069
40
0.0625000000000069
40
0.0781250000000088
40
0.0937500000000108
40
0.0937500000000108
40
0.101562500000012
40
0.101562500000012
40
0.109375000000013
40
0.109375000000013
40
0.125000000000015
40
0.140625000000016
40
0.156250000000018
40
0.156250000000018
40
0.164062500000019
40
0.164062500000019
40
0.17187500000002
40
0.17187500000002
40
0.187500000000022
40
0.203125000000024
40
0.203125000000024
40
0.210937500000025
40
0.214843750000026
40
0.214843750000026
40
0.218750000000026
40
0.218750000000026
40
0.234375000000027
40
0.250000000000027
40
0.265625000000028
40
0.265625000000028
40
0.273437500000028
40
0.273437500000028
40
0.281250000000029
40
0.281250000000029
40
0.296875000000029
40
0.312500000000029
40
0.312500000000029
40
0.32031250000003
40
0.32031250000003
40
0.324218750000029
40
0.324218750000029
40
0.328125000000029
40
0.343750000000029
40
0.359375000000029
40
0.375000000000029
40
0.375000000000029
40
0.382812500000029
40
0.382812500000029
40
0.390625000000029
40
0.390625000000029
40
0.406250000000029
40
0.421875000000028
40
0.421875000000028
40
0.429687500000028
40
0.429687500000028
40
0.437500000000029
40
0.437500000000029
40
0.453125000000029
40
0.468750000000029
40
0.468750000000029
40
0.476562500000029
40
0.476562500000029
40
0.484375000000028
40
0.484375000000028
40
0.500000000000028
40
0.515625000000028
40
0.531250000000028
40
0.531250000000028
40
0.539062500000028
40
0.539062500000028
40
0.546875000000027
40
0.546875000000027
40
0.562500000000027
40
0.578125000000027
40
0.578125000000027
40
0.585937500000027
40
0.589843750000027
40
0.589843750000027
40
0.593750000000027
40
0.593750000000027
40
0.609375000000027
40
0.625000000000027
40
0.640625000000028
40
0.640625000000028
40
0.644531250000027
40
0.644531250000027
40
0.648437500000027
40
0.648437500000027
40
0.656250000000027
40
0.656250000000027
40
0.671875000000026
40
0.687500000000026
40
0.687500000000026
40
0.695312500000026
40
0.695312500000026
40
0.703125000000026
40
0.703125000000026
40
0.718750000000026
40
0.734375000000026
40
0.750000000000025
40
0.750000000000025
40
0.757812500000025
40
0.757812500000025
40
0.765625000000024
40
0.765625000000024
40
0.781250000000022
40
0.79687500000002
40
0.79687500000002
40
0.80468750000002
40
0.80468750000002
40
0.808593750000019
40
0.808593750000019
40
0.812500000000019
40
0.828125000000018
40
0.843750000000017
40
0.859375000000016
40
0.859375000000016
40
0.875000000000015
40
0.875000000000015
40
0.890625000000014
40
0.906250000000013
40
0.906250000000013
40
0.910156250000012
40
0.910156250000012
40
0.914062500000012
40
0.914062500000012
40
0.92187500000001
40
0.92187500000001
40
0.937500000000008
40
0.953125000000006
40
0.953125000000006
40
0.960937500000005
40
0.964843750000005
40
0.964843750000005
40
0.968750000000004
40
0.968750000000004
40
0.984375000000002
40
0.984375000000002
40
1
40
1
40
1
40
1
41
1
10
430.243626138619
20
17.7958361435297
30
0
41
1
10
430.326575056951
20
17.7958365181829
30
0
41
1
10
430.491089998682
20
17.8030990710657
30
0
41
1
10
430.733863987078
20
17.8349794108948
30
0
41
1
10
430.893070700515
20
17.8700848875319
30
0
41
1
10
431.011464649248
20
17.9017023568518
30
0
41
1
10
431.050775573962
20
17.9131291910917
30
0
41
1
10
431.128991099605
20
17.9377644944242
30
0
41
1
10
431.167602323744
20
17.9508798043947
30
0
41
1
10
431.281977248376
20
17.9925650014763
30
0
41
1
10
431.430594649934
20
18.0543712619064
30
0
41
1
10
431.571598162254
20
18.1283376476987
30
0
41
1
10
431.674469403931
20
18.1883927352688
30
0
41
1
10
431.708278733017
20
18.2091758135674
30
0
41
1
10
431.774920173007
20
18.2522914189377
30
0
41
1
10
431.807776803165
20
18.2746414743624
30
0
41
1
10
431.904693408907
20
18.343954737282
30
0
41
1
10
432.027770084922
20
18.441127772966
30
0
41
1
10
432.194507706242
20
18.6006207366629
30
0
41
1
10
432.293775964427
20
18.7160171708832
30
0
41
1
10
432.363646312045
20
18.8060332962439
30
0
41
1
10
432.386195141627
20
18.8366518247335
30
0
41
1
10
432.4296246793
20
18.8989285013171
30
0
41
1
10
432.450370558689
20
18.9303894776163
30
0
41
1
10
432.50975633746
20
19.0257163317086
30
0
41
1
10
432.58134605754
20
19.1553310926085
30
0
41
1
10
432.637991769915
20
19.2898374689343
30
0
41
1
10
432.674798467435
20
19.392558780506
30
0
41
1
10
432.691780127618
20
19.4443806170302
30
0
41
1
10
432.706590687872
20
19.4969041236521
30
0
41
1
10
432.715976204067
20
19.5320773144305
30
0
41
1
10
432.720430729693
20
19.5497685218514
30
0
41
1
10
432.741376144219
20
19.638234453687
30
0
41
1
10
432.766456235154
20
19.7798442366042
30
0
41
1
10
432.779553701987
20
19.9924138787086
30
0
41
1
10
432.77198462629
20
20.1342222913493
30
0
41
1
10
432.760032551635
20
20.2406178514759
30
0
41
1
10
432.754980942499
20
20.2761892931803
30
0
41
1
10
432.742855413615
20
20.3466826023085
30
0
41
1
10
432.735785321477
20
20.3816325463502
30
0
41
1
10
432.711612415805
20
20.4856120728472
30
0
41
1
10
432.671496159801
20
20.6219347293766
30
0
41
1
10
432.615882750986
20
20.7537391851811
30
0
41
1
10
432.568295274607
20
20.8508968996755
30
0
41
1
10
432.55145147049
20
20.8829997424381
30
0
41
1
10
432.524689074307
20
20.9307249580869
30
0
41
1
10
432.51550530297
20
20.9465838222157
30
0
41
1
10
432.496711776356
20
20.9780284409106
30
0
41
1
10
432.448666338047
20
21.0559478596655
30
0
41
1
10
432.352808682473
20
21.1901015613375
30
0
41
1
10
432.205570589045
20
21.3564319084967
30
0
41
1
10
432.094469893705
20
21.4590373552637
30
0
41
1
10
432.006149303991
20
21.53282472881
30
0
41
1
10
431.976031913778
20
21.5567573159115
30
0
41
1
10
431.914715652962
20
21.6031293619647
30
0
41
1
10
431.883477980352
20
21.6256013504767
30
0
41
1
10
431.788054015732
20
21.6909165608952
30
0
41
1
10
431.656267077178
20
21.7724112306679
30
0
41
1
10
431.515461812779
20
21.8429078912105
30
0
41
1
10
431.406411114199
20
21.8916033954699
30
0
41
1
10
431.36945856318
20
21.9071483612944
30
0
41
1
10
431.294489826125
20
21.9367745526664
30
0
41
1
10
431.2567268587
20
21.9507571061954
30
0
41
1
10
431.142619466572
20
21.9902703335857
30
0
41
1
10
430.98829790523
20
22.036476137424
30
0
41
1
10
430.829704334033
20
22.070027103902
30
0
41
1
10
430.709142773994
20
22.0904165164932
30
0
41
1
10
430.668685715963
20
22.0964158985329
30
0
41
1
10
430.587223534758
20
22.1067976632507
30
0
41
1
10
430.546165242193
20
22.1111845518365
30
0
41
1
10
430.422493159769
20
22.1218364220767
30
0
41
1
10
430.258105703422
20
22.129226612233
30
0
41
1
10
430.01300344752
20
22.1205175218046
30
0
41
1
10
429.850584545513
20
22.1015533935046
30
0
41
1
10
429.729148269524
20
22.0822613051116
30
0
41
1
10
429.688671408559
20
22.0749716923706
30
0
41
1
10
429.608115068495
20
22.0587117706032
30
0
41
1
10
429.56824173915
20
22.0497858816264
30
0
41
1
10
429.449812799429
20
22.0206627911277
30
0
41
1
10
429.295077834595
20
21.9755891464915
30
0
41
1
10
429.146574985105
20
21.9181940208769
30
0
41
1
10
429.037560816696
20
21.87045273393
30
0
41
1
10
428.983645411406
20
21.8454064402118
30
0
41
1
10
428.930632477591
20
21.8185620155564
30
0
41
1
10
428.89549331642
20
21.8002610944102
30
0
41
1
10
428.878000626262
20
21.7908945803736
30
0
41
1
10
428.79141977285
20
21.74324086396
30
0
41
1
10
428.658501230766
20
21.6617772579303
30
0
41
1
10
428.475434789005
20
21.5243000115617
30
0
41
1
10
428.36422720862
20
21.4224175164243
30
0
41
1
10
428.298196694299
20
21.3554355576326
30
0
41
1
10
428.285164707135
20
21.3418735086636
30
0
41
1
10
428.259452832947
20
21.3144137838584
30
0
41
1
10
428.246764829511
20
21.3005059502017
30
0
41
1
10
428.209440750098
20
21.258508195919
30
0
41
1
10
428.185475671083
20
21.2300733176664
30
0
41
1
10
428.116280540698
20
21.1434777377116
30
0
41
1
10
428.031207520565
20
21.0245801604743
30
0
41
1
10
427.960272435716
20
20.8988538292415
30
0
41
1
10
427.912438994699
20
20.8019433725151
30
0
41
1
10
427.897390758762
20
20.7692031918074
30
0
41
1
10
427.869118011757
20
20.7028308169104
30
0
41
1
10
427.85586566678
20
20.6691115084356
30
0
41
1
10
427.819263803907
20
20.5676082563839
30
0
41
1
10
427.778637633393
20
20.4309515858524
30
0
41
1
10
427.741537653512
20
20.222067088728
30
0
41
1
10
427.73269644949
20
20.080188678348
30
0
41
1
10
427.732205020256
20
19.9727638011328
30
0
41
1
10
427.733074565231
20
19.9367552898025
30
0
41
1
10
427.736849622107
20
19.8652010140964
30
0
41
1
10
427.739752094495
20
19.8295561675807
30
0
41
1
10
427.751453243475
20
19.723012784667
30
0
41
1
10
427.77502435571
20
19.5819959615254
30
0
41
1
10
427.814350789378
20
19.4430575464622
30
0
41
1
10
427.8498594291
20
19.3396599704641
30
0
41
1
10
427.862699754911
20
19.3053287778683
30
0
41
1
10
427.883496929929
20
19.2540401715173
30
0
41
1
10
427.890691363058
20
19.2369671654365
30
0
41
1
10
427.905513699572
20
19.2030793541165
30
0
41
1
10
427.943702175406
20
19.1188959975662
30
0
41
1
10
428.022462897202
20
18.9721181715295
30
0
41
1
10
428.14836893203
20
18.7864023252043
30
0
41
1
10
428.246305609371
20
18.6693459859768
30
0
41
1
10
428.351489884134
20
18.5558211575044
30
0
41
1
10
428.40689148326
20
18.5017111996257
30
0
41
1
10
428.522905304626
20
18.3988635948015
30
0
41
1
10
428.64420148637
20
18.3013145925053
30
0
41
1
10
428.775984020998
20
18.2143508709674
30
0
41
1
10
428.861695839936
20
18.163398476874
30
0
41
1
10
428.879005972911
20
18.1533783807252
30
0
41
1
10
428.913965120676
20
18.1336828473777
30
0
41
1
10
428.931638008823
20
18.1239948320525
30
0
41
1
10
428.98498201826
20
18.0955545091787
30
0
41
1
10
429.020928084239
20
18.0774488429467
30
0
41
1
10
429.12989242537
20
18.0256472758375
30
0
41
1
10
429.27817545068
20
17.9632738804236
30
0
41
1
10
429.432332429127
20
17.914072277365
30
0
41
1
10
429.550170455057
20
17.8821656080513
30
0
41
1
10
429.6096454219
20
17.8674628341221
30
0
41
1
10
429.669967021821
20
17.8546668887854
30
0
41
1
10
429.710371513892
20
17.8465646302395
30
0
41
1
10
429.730679933835
20
17.8427262299001
30
0
41
1
10
429.832251034763
20
17.8246936597382
30
0
41
1
10
429.913935349798
20
17.8138978981478
30
0
41
1
10
430.078146177486
20
17.7994689608848
30
0
41
1
10
430.160677220287
20
17.7958357688765
30
0
41
1
10
430.243626138619
20
17.7958361435297
30
0
0
LINE
5
88
100
AcDbEntity
8
4
62
256
6
ByLayer
370
18
48
0.05
60
0
100
AcDbLine
10
0
20
0
30
0
11
435
21
0
31
0
39
0
210
0
220
0
230
1
0
LINE
5
8A
100
AcDbEntity
8
80
62
256
6
ByLayer
370
18
48
1
60
0
100
AcDbLine
10
0
20
0
30
0
11
-5
21
0
31
0
39
0
210
0
220
0
230
1
0
LINE
5
8B
100
AcDbEntity
8
SK4
62
256
6
ByLayer
370
18
48
0.05
60
0
100
AcDbLine
10
4
20
0
30
0
11
449
21
0
31
0
39
0
210
0
220
0
230
1
0
LINE
5
8D
100
AcDbEntity
8
81
62
256
6
ByLayer
370
18
48
1
60
0
100
AcDbLine
10
435
20
0
30
0
11
440
21
0
31
0
39
0
210
0
220
0
230
1
0
LINE
5
8E
100
AcDbEntity
8
1
62
256
6
ByLayer
370
18
48
1
60
0
100
AcDbLine
10
0
20
-39.7
30
0
11
0.3
21
-40
31
0
39
0
210
0
220
0
230
1
0
LINE
5
90
100
AcDbEntity
8
1
62
256
6
ByLayer
370
18
48
1
60
0
100
AcDbLine
10
0.3
20
40
30
0
11
0
21
39.7
31
0
39
0
210
0
220
0
230
1
0
LINE
5
91
100
AcDbEntity
8
1
62
256
6
ByLayer
370
18
48
1
60
0
100
AcDbLine
10
425.8
20
40
30
0
11
0.3
21
40
31
0
39
0
210
0
220
0
230
1
0
LINE
5
92
100
AcDbEntity
8
1
62
256
6
ByLayer
370
18
48
1
60
0
100
AcDbLine
10
0.3
20
-40
30
0
11
425.8
21
-40
31
0
39
0
210
0
220
0
230
1
0
LINE
5
93
100
AcDbEntity
8
1
62
256
6
ByLayer
370
18
48
1
60
0
100
AcDbLine
10
447.92739
20
26.631445
30
0
11
447.665201
21
26.654654
31
0
39
0
210
0
220
0
230
1
0
LINE
5
94
100
AcDbEntity
8
1
62
256
6
ByLayer
370
18
48
1
60
0
100
AcDbLine
10
450.888513
20
23.074803
30
0
11
450.892838
21
23.337982
31
0
39
0
210
0
220
0
230
1
0
LINE
5
95
100
AcDbEntity
8
1
62
256
6
ByLayer
370
18
48
1
60
0
100
AcDbLine
10
448.484398
20
20.787113
30
0
11
450.82084
21
22.890855
31
0
39
0
210
0
220
0
230
1
0
LINE
5
96
100
AcDbEntity
8
1
62
256
6
ByLayer
370
18
48
1
60
0
100
AcDbLine
10
447.475187
20
26.606579
30
0
11
444.690803
21
24.099508
31
0
39
0
210
0
220
0
230
1
0
LINE
5
97
100
AcDbEntity
8
1
62
256
6
ByLayer
370
18
48
1
60
0
100
AcDbLine
10
450.976576
20
-23.242738
30
0
11
450.972251
21
-22.979558
31
0
39
0
210
0
220
0
230
1
0
LINE
5
98
100
AcDbEntity
8
1
62
256
6
ByLayer
370
18
48
1
60
0
100
AcDbLine
10
447.748939
20
-26.55941
30
0
11
448.011128
21
-26.536201
31
0
39
0
210
0
220
0
230
1
0
LINE
5
99
100
AcDbEntity
8
1
62
256
6
ByLayer
370
18
48
1
60
0
100
AcDbLine
10
444.788111
20
-24.016483
30
0
11
447.558925
21
-26.511335
31
0
39
0
210
0
220
0
230
1
0
LINE
5
9A
100
AcDbEntity
8
1
62
256
6
ByLayer
370
18
48
1
60
0
100
AcDbLine
10
450.904578
20
-22.795611
30
0
11
448.563031
21
-20.687273
31
0
39
0
210
0
220
0
230
1
0
LINE
5
9B
100
AcDbEntity
8
1
62
256
6
ByLayer
370
18
48
1
60
0
100
AcDbLine
10
434.555809
20
40
30
0
11
426
21
40
31
0
39
0
210
0
220
0
230
1
0
LINE
5
9C
100
AcDbEntity
8
1
62
256
6
ByLayer
370
18
48
1
60
0
100
AcDbLine
10
426
20
-40
30
0
11
434.555809
21
-40
31
0
39
0
210
0
220
0
230
1
0
LINE
5
9D
100
AcDbEntity
8
1
62
256
6
ByLayer
370
13
48
1
60
0
100
AcDbLine
10
427.309843
20
20.600721
30
0
11
427.793363
21
20.473408
31
0
39
0
210
0
220
0
230
1
0
LINE
5
9E
100
AcDbEntity
8
1
62
256
6
ByLayer
370
13
48
1
60
0
100
AcDbLine
10
427.309843
20
-20.600721
30
0
11
427.793363
21
-20.473408
31
0
39
0
210
0
220
0
230
1
0
LINE
5
9F
100
AcDbEntity
8
1
62
256
6
ByLayer
370
13
48
1
60
0
100
AcDbLine
10
432.854638
20
-20.058893
30
0
11
433.11208
21
-19.072963
31
0
39
0
210
0
220
0
230
1
0
LINE
5
A0
100
AcDbEntity
8
1
62
256
6
ByLayer
370
13
48
1
60
0
100
AcDbLine
10
428.019441
20
-21.332025
30
0
11
427.309843
21
-20.600721
31
0
39
0
210
0
220
0
230
1
0
LINE
5
A1
100
AcDbEntity
8
1
62
256
6
ByLayer
370
13
48
1
60
0
100
AcDbLine
10
428.019441
20
21.332025
30
0
11
427.309843
21
20.600721
31
0
39
0
210
0
220
0
230
1
0
LINE
5
A2
100
AcDbEntity
8
1
62
256
6
ByLayer
370
13
48
1
60
0
100
AcDbLine
10
432.854638
20
20.058893
30
0
11
433.11208
21
19.072963
31
0
39
0
210
0
220
0
230
1
0
LINE
5
A3
100
AcDbEntity
8
1
62
256
6
ByLayer
370
13
48
1
60
0
100
AcDbLine
10
10.105662
20
37.944501
30
0
11
10.105662
21
12.6576
31
0
39
0
210
0
220
0
230
1
0
LINE
5
A4
100
AcDbEntity
8
1
62
256
6
ByLayer
370
13
48
1
60
0
100
AcDbLine
10
10.538675
20
38.115458
30
0
11
10.538675
21
12.13309
31
0
39
0
210
0
220
0
230
1
0
LINE
5
A5
100
AcDbEntity
8
1
62
256
6
ByLayer
370
13
48
1
60
0
100
AcDbLine
10
13.461325
20
-12.13309
30
0
11
13.461325
21
-38.115458
31
0
39
0
210
0
220
0
230
1
0
LINE
5
A6
100
AcDbEntity
8
1
62
256
6
ByLayer
370
13
48
1
60
0
100
AcDbLine
10
13.894338
20
-12.6576
30
0
11
13.894338
21
-37.944501
31
0
39
0
210
0
220
0
230
1
0
LINE
5
A7
100
AcDbEntity
8
1
62
256
6
ByLayer
370
13
48
1
60
0
100
AcDbLine
10
13.461325
20
38.115458
30
0
11
13.461325
21
12.13309
31
0
39
0
210
0
220
0
230
1
0
LINE
5
A8
100
AcDbEntity
8
1
62
256
6
ByLayer
370
13
48
1
60
0
100
AcDbLine
10
13.894338
20
37.944501
30
0
11
13.894338
21
12.6576
31
0
39
0
210
0
220
0
230
1
0
LINE
5
A9
100
AcDbEntity
8
1
62
256
6
ByLayer
370
13
48
1
60
0
100
AcDbLine
10
10.105662
20
-12.6576
30
0
11
10.105662
21
-37.944501
31
0
39
0
210
0
220
0
230
1
0
LINE
5
AA
100
AcDbEntity
8
1
62
256
6
ByLayer
370
13
48
1
60
0
100
AcDbLine
10
10.538675
20
-12.13309
30
0
11
10.538675
21
-38.115458
31
0
39
0
210
0
220
0
230
1
0
LINE
5
AB
100
AcDbEntity
8
1
62
256
6
ByLayer
370
18
48
1
60
0
100
AcDbLine
10
0
20
-39.7
30
0
11
0
21
39.7
31
0
39
0
210
0
220
0
230
1
0
LINE
5
AC
100
AcDbEntity
8
1
62
256
6
ByLayer
370
13
48
1
60
0
100
AcDbLine
10
425.8
20
40
30
0
11
425.8
21
-40
31
0
39
0
210
0
220
0
230
1
0
LINE
5
AD
100
AcDbEntity
8
1
62
256
6
ByLayer
370
18
48
1
60
0
100
AcDbLine
10
0.3
20
-40
30
0
11
0.3
21
40
31
0
39
0
210
0
220
0
230
1
0
LINE
5
AE
100
AcDbEntity
8
1
62
256
6
ByLayer
370
18
48
1
60
0
100
AcDbLine
10
13.461325
20
12.13309
30
0
11
10.538675
21
12.13309
31
0
39
0
210
0
220
0
230
1
0
LINE
5
AF
100
AcDbEntity
8
1
62
256
6
ByLayer
370
18
48
1
60
0
100
AcDbLine
10
10.538675
20
38.115458
30
0
11
13.461325
21
38.115458
31
0
39
0
210
0
220
0
230
1
0
LINE
5
B0
100
AcDbEntity
8
1
62
256
6
ByLayer
370
18
48
1
60
0
100
AcDbLine
10
10.538675
20
-12.13309
30
0
11
13.461325
21
-12.13309
31
0
39
0
210
0
220
0
230
1
0
LINE
5
B1
100
AcDbEntity
8
1
62
256
6
ByLayer
370
18
48
1
60
0
100
AcDbLine
10
13.461325
20
-38.115458
30
0
11
10.538675
21
-38.115458
31
0
39
0
210
0
220
0
230
1
0
LINE
5
B2
100
AcDbEntity
8
SK1
62
256
6
ByLayer
370
18
48
1
60
0
100
AcDbLine
10
-0.2
20
-6.552277
30
0
11
-0.2
21
-28.683485
31
0
39
0
210
0
220
0
230
1
0
LINE
5
B4
100
AcDbEntity
8
SK1
62
256
6
ByLayer
370
18
48
1
60
0
100
AcDbLine
10
-0.2
20
28.683485
30
0
11
-0.2
21
6.552279
31
0
39
0
210
0
220
0
230
1
0
LINE
5
B5
100
AcDbEntity
8
SK1
62
256
6
ByLayer
370
13
48
1
60
0
100
AcDbLine
10
-1.307107
20
4.393309
30
0
11
-1.307107
21
-4.393312
31
0
39
0
210
0
220
0
230
1
0
LINE
5
B6
100
AcDbEntity
8
1
62
256
6
ByLayer
370
18
48
1
60
0
100
AcDbLine
10
449.484641
20
19.513103
30
0
11
449.484641
21
-19.513103
31
0
39
0
210
0
220
0
230
1
0
LINE
5
B7
100
AcDbEntity
8
1
62
256
6
ByLayer
370
18
48
1
60
0
100
AcDbLine
10
448.484641
20
-20.786801
30
0
11
448.484641
21
20.786801
31
0
39
0
210
0
220
0
230
1
0
LINE
5
B8
100
AcDbEntity
8
1
62
256
6
ByLayer
370
18
48
1
60
0
100
AcDbLine
10
442.428703
20
26
30
0
11
433.984641
21
26
31
0
39
0
210
0
220
0
230
1
0
LINE
5
B9
100
AcDbEntity
8
1
62
256
6
ByLayer
370
18
48
1
60
0
100
AcDbLine
10
433.984641
20
26
30
0
11
433.984641
21
-26
31
0
39
0
210
0
220
0
230
1
0
LINE
5
BA
100
AcDbEntity
8
1
62
256
6
ByLayer
370
18
48
1
60
0
100
AcDbLine
10
442.428703
20
-26
30
0
11
433.984641
21
-26
31
0
39
0
210
0
220
0
230
1
0
LINE
5
BB
100
AcDbEntity
8
1
62
256
6
ByLayer
370
18
48
1
60
0
100
AcDbLine
10
430.37066
20
-19.185776
30
0
11
429.019378
21
-19.13801
31
0
39
0
210
0
220
0
230
1
0
LINE
5
BC
100
AcDbEntity
8
1
62
256
6
ByLayer
370
18
48
1
60
0
100
AcDbLine
10
430.880449
20
-18.552775
30
0
11
430.37066
21
-19.185776
31
0
39
0
210
0
220
0
230
1
0
LINE
5
BD
100
AcDbEntity
8
1
62
256
6
ByLayer
370
18
48
1
60
0
100
AcDbLine
10
430.37066
20
-19.185776
30
0
11
430.892765
21
-21.168666
31
0
39
0
210
0
220
0
230
1
0
LINE
5
BE
100
AcDbEntity
8
1
62
256
6
ByLayer
370
18
48
1
60
0
100
AcDbLine
10
428.754675
20
-19.46669
30
0
11
429.186937
21
-21.108367
31
0
39
0
210
0
220
0
230
1
0
LINE
5
BF
100
AcDbEntity
8
1
62
256
6
ByLayer
370
18
48
1
60
0
100
AcDbLine
10
428.505133
20
-19.776544
30
0
11
429.529158
21
-18.505019
31
0
39
0
210
0
220
0
230
1
0
LINE
5
C0
100
AcDbEntity
8
1
62
256
6
ByLayer
370
18
48
1
60
0
100
AcDbLine
10
429.529158
20
-18.505019
30
0
11
431.234986
21
-18.565317
31
0
39
0
210
0
220
0
230
1
0
LINE
5
C1
100
AcDbEntity
8
1
62
256
6
ByLayer
370
18
48
1
60
0
100
AcDbLine
10
431.234986
20
-18.565317
30
0
11
431.91679
21
-19.897141
31
0
39
0
210
0
220
0
230
1
0
LINE
5
C2
100
AcDbEntity
8
1
62
256
6
ByLayer
370
18
48
1
60
0
100
AcDbLine
10
431.91679
20
-19.897141
30
0
11
430.892765
21
-21.168666
31
0
39
0
210
0
220
0
230
1
0
LINE
5
C3
100
AcDbEntity
8
1
62
256
6
ByLayer
370
18
48
1
60
0
100
AcDbLine
10
430.892765
20
-21.168666
30
0
11
429.186937
21
-21.108367
31
0
39
0
210
0
220
0
230
1
0
LINE
5
C4
100
AcDbEntity
8
1
62
256
6
ByLayer
370
18
48
1
60
0
100
AcDbLine
10
429.186937
20
-21.108367
30
0
11
428.505133
21
-19.776544
31
0
39
0
210
0
220
0
230
1
0
LINE
5
C5
100
AcDbEntity
8
1
62
256
6
ByLayer
370
18
48
1
60
0
100
AcDbLine
10
435.325
20
-39.989012
30
0
11
435.325
21
-39.946663
31
0
39
0
210
0
220
0
230
1
0
LINE
5
C6
100
AcDbEntity
8
1
62
256
6
ByLayer
370
18
48
1
60
0
100
AcDbLine
10
435.325
20
39.946663
30
0
11
435.325
21
39.989012
31
0
39
0
210
0
220
0
230
1
0
LINE
5
C7
100
AcDbEntity
8
1
62
256
6
ByLayer
370
13
48
1
60
0
100
AcDbLine
10
434.656721
20
39.964828
30
0
11
434.656721
21
39.978104
31
0
39
0
210
0
220
0
230
1
0
LINE
5
C8
100
AcDbEntity
8
1
62
256
6
ByLayer
370
13
48
1
60
0
100
AcDbLine
10
434.656721
20
-39.978104
30
0
11
434.656721
21
-39.964828
31
0
39
0
210
0
220
0
230
1
0
LINE
5
C9
100
AcDbEntity
8
1
62
256
6
ByLayer
370
18
48
1
60
0
100
AcDbLine
10
435.325
20
-39.925663
30
0
11
435.325
21
-39.840847
31
0
39
0
210
0
220
0
230
1
0
LINE
5
CA
100
AcDbEntity
8
1
62
256
6
ByLayer
370
18
48
1
60
0
100
AcDbLine
10
435.325
20
39.840847
30
0
11
435.325
21
39.925663
31
0
39
0
210
0
220
0
230
1
0
LINE
5
CB
100
AcDbEntity
8
1
62
256
6
ByLayer
370
13
48
1
60
0
100
AcDbLine
10
434.656721
20
-39.900236
30
0
11
434.656721
21
-39.873518
31
0
39
0
210
0
220
0
230
1
0
LINE
5
CC
100
AcDbEntity
8
1
62
256
6
ByLayer
370
13
48
1
60
0
100
AcDbLine
10
434.656721
20
39.873518
30
0
11
434.656721
21
39.900236
31
0
39
0
210
0
220
0
230
1
0
LINE
5
CD
100
AcDbEntity
8
1
62
256
6
ByLayer
370
18
48
1
60
0
100
AcDbLine
10
435.325
20
-39.805729
30
0
11
435.325
21
-39.678216
31
0
39
0
210
0
220
0
230
1
0
LINE
5
CE
100
AcDbEntity
8
1
62
256
6
ByLayer
370
18
48
1
60
0
100
AcDbLine
10
435.325
20
39.678216
30
0
11
435.325
21
39.805729
31
0
39
0
210
0
220
0
230
1
0
LINE
5
CF
100
AcDbEntity
8
1
62
256
6
ByLayer
370
13
48
1
60
0
100
AcDbLine
10
434.656721
20
39.725639
30
0
11
434.656721
21
39.765674
31
0
39
0
210
0
220
0
230
1
0
LINE
5
D0
100
AcDbEntity
8
1
62
256
6
ByLayer
370
13
48
1
60
0
100
AcDbLine
10
434.656721
20
-39.765674
30
0
11
434.656721
21
-39.725639
31
0
39
0
210
0
220
0
230
1
0
LINE
5
D1
100
AcDbEntity
8
1
62
256
6
ByLayer
370
18
48
1
60
0
100
AcDbLine
10
435.325
20
-39.628697
30
0
11
435.325
21
-39.457851
31
0
39
0
210
0
220
0
230
1
0
LINE
5
D2
100
AcDbEntity
8
1
62
256
6
ByLayer
370
18
48
1
60
0
100
AcDbLine
10
435.325
20
39.457851
30
0
11
435.325
21
39.628697
31
0
39
0
210
0
220
0
230
1
0
LINE
5
D3
100
AcDbEntity
8
1
62
256
6
ByLayer
370
13
48
1
60
0
100
AcDbLine
10
434.656721
20
39.520085
30
0
11
434.656721
21
39.57384
31
0
39
0
210
0
220
0
230
1
0
LINE
5
D4
100
AcDbEntity
8
1
62
256
6
ByLayer
370
13
48
1
60
0
100
AcDbLine
10
434.656721
20
-39.57384
30
0
11
434.656721
21
-39.520085
31
0
39
0
210
0
220
0
230
1
0
LINE
5
D5
100
AcDbEntity
8
1
62
256
6
ByLayer
370
18
48
1
60
0
100
AcDbLine
10
435.325
20
39.178981
30
0
11
435.325
21
39.393795
31
0
39
0
210
0
220
0
230
1
0
LINE
5
D6
100
AcDbEntity
8
1
62
256
6
ByLayer
370
18
48
1
60
0
100
AcDbLine
10
435.325
20
-39.393795
30
0
11
435.325
21
-39.178981
31
0
39
0
210
0
220
0
230
1
0
LINE
5
D7
100
AcDbEntity
8
1
62
256
6
ByLayer
370
13
48
1
60
0
100
AcDbLine
10
434.656721
20
-39.323896
30
0
11
434.656721
21
-39.256308
31
0
39
0
210
0
220
0
230
1
0
LINE
5
D8
100
AcDbEntity
8
1
62
256
6
ByLayer
370
13
48
1
60
0
100
AcDbLine
10
434.656721
20
39.256308
30
0
11
434.656721
21
39.323896
31
0
39
0
210
0
220
0
230
1
0
LINE
5
D9
100
AcDbEntity
8
1
62
256
6
ByLayer
370
18
48
1
60
0
100
AcDbLine
10
435.325
20
-39.099982
30
0
11
435.325
21
-38.839723
31
0
39
0
210
0
220
0
230
1
0
LINE
5
DA
100
AcDbEntity
8
1
62
256
6
ByLayer
370
18
48
1
60
0
100
AcDbLine
10
435.325
20
38.839723
30
0
11
435.325
21
39.099982
31
0
39
0
210
0
220
0
230
1
0
LINE
5
DB
100
AcDbEntity
8
1
62
256
6
ByLayer
370
13
48
1
60
0
100
AcDbLine
10
434.656721
20
-39.014726
30
0
11
434.656721
21
-38.933039
31
0
39
0
210
0
220
0
230
1
0
LINE
5
DC
100
AcDbEntity
8
1
62
256
6
ByLayer
370
13
48
1
60
0
100
AcDbLine
10
434.656721
20
38.933039
30
0
11
434.656721
21
39.014726
31
0
39
0
210
0
220
0
230
1
0
LINE
5
DD
100
AcDbEntity
8
1
62
256
6
ByLayer
370
18
48
1
60
0
100
AcDbLine
10
435.325
20
-38.745917
30
0
11
435.325
21
-38.439582
31
0
39
0
210
0
220
0
230
1
0
LINE
5
DE
100
AcDbEntity
8
1
62
256
6
ByLayer
370
18
48
1
60
0
100
AcDbLine
10
435.325
20
38.439582
30
0
11
435.325
21
38.745917
31
0
39
0
210
0
220
0
230
1
0
LINE
5
DF
100
AcDbEntity
8
1
62
256
6
ByLayer
370
13
48
1
60
0
100
AcDbLine
10
434.656721
20
-38.644907
30
0
11
434.656721
21
-38.548295
31
0
39
0
210
0
220
0
230
1
0
LINE
5
E0
100
AcDbEntity
8
1
62
256
6
ByLayer
370
13
48
1
60
0
100
AcDbLine
10
434.656721
20
38.548295
30
0
11
434.656721
21
38.644907
31
0
39
0
210
0
220
0
230
1
0
LINE
5
E1
100
AcDbEntity
8
1
62
256
6
ByLayer
370
18
48
1
60
0
100
AcDbLine
10
435.325
20
-38.329931
30
0
11
435.325
21
-37.975379
31
0
39
0
210
0
220
0
230
1
0
LINE
5
E2
100
AcDbEntity
8
1
62
256
6
ByLayer
370
18
48
1
60
0
100
AcDbLine
10
435.325
20
37.975379
30
0
11
435.325
21
38.329931
31
0
39
0
210
0
220
0
230
1
0
LINE
5
E3
100
AcDbEntity
8
1
62
256
6
ByLayer
370
13
48
1
60
0
100
AcDbLine
10
434.656721
20
-38.212679
30
0
11
434.656721
21
-38.100429
31
0
39
0
210
0
220
0
230
1
0
LINE
5
E4
100
AcDbEntity
8
1
62
256
6
ByLayer
370
13
48
1
60
0
100
AcDbLine
10
434.656721
20
38.100429
30
0
11
434.656721
21
38.212679
31
0
39
0
210
0
220
0
230
1
0
LINE
5
E5
100
AcDbEntity
8
1
62
256
6
ByLayer
370
18
48
1
60
0
100
AcDbLine
10
435.325
20
-37.849981
30
0
11
435.325
21
-37.44546
31
0
39
0
210
0
220
0
230
1
0
LINE
5
E6
100
AcDbEntity
8
1
62
256
6
ByLayer
370
18
48
1
60
0
100
AcDbLine
10
435.325
20
37.44546
30
0
11
435.325
21
37.849981
31
0
39
0
210
0
220
0
230
1
0
LINE
5
E7
100
AcDbEntity
8
1
62
256
6
ByLayer
370
13
48
1
60
0
100
AcDbLine
10
434.656721
20
-37.715897
30
0
11
434.656721
21
-37.588605
31
0
39
0
210
0
220
0
230
1
0
LINE
5
E8
100
AcDbEntity
8
1
62
256
6
ByLayer
370
13
48
1
60
0
100
AcDbLine
10
434.656721
20
37.588605
30
0
11
434.656721
21
37.715897
31
0
39
0
210
0
220
0
230
1
0
LINE
5
E9
100
AcDbEntity
8
1
62
256
6
ByLayer
370
18
48
1
60
0
100
AcDbLine
10
435.325
20
-37.3036
30
0
11
435.325
21
-25.999444
31
0
39
0
210
0
220
0
230
1
0
LINE
5
EA
100
AcDbEntity
8
1
62
256
6
ByLayer
370
18
48
1
60
0
100
AcDbLine
10
435.325
20
25.999444
30
0
11
435.325
21
37.3036
31
0
39
0
210
0
220
0
230
1
0
LINE
5
EB
100
AcDbEntity
8
1
62
256
6
ByLayer
370
13
48
1
60
0
100
AcDbLine
10
434.656721
20
-37.15197
30
0
11
434.656721
21
-37.008006
31
0
39
0
210
0
220
0
230
1
0
LINE
5
EC
100
AcDbEntity
8
1
62
256
6
ByLayer
370
13
48
1
60
0
100
AcDbLine
10
434.656721
20
37.008006
30
0
11
434.656721
21
37.15197
31
0
39
0
210
0
220
0
230
1
0
LINE
5
ED
100
AcDbEntity
8
1
62
256
6
ByLayer
370
18
48
1
60
0
100
AcDbLine
10
434.968389
20
-36.934733
30
0
11
434.968389
21
-25.999744
31
0
39
0
210
0
220
0
230
1
0
LINE
5
EE
100
AcDbEntity
8
1
62
256
6
ByLayer
370
18
48
1
60
0
100
AcDbLine
10
434.968389
20
25.999744
30
0
11
434.968389
21
36.934733
31
0
39
0
210
0
220
0
230
1
0
LINE
5
EF
100
AcDbEntity
8
1
62
256
6
ByLayer
370
18
48
1
60
0
100
AcDbLine
10
435.325
20
37.446577
30
0
11
435.325
21
37.3036
31
0
39
0
210
0
220
0
230
1
0
LINE
5
F0
100
AcDbEntity
8
1
62
256
6
ByLayer
370
18
48
1
60
0
100
AcDbLine
10
435.325
20
37.976092
30
0
11
435.325
21
37.849981
31
0
39
0
210
0
220
0
230
1
0
LINE
5
F1
100
AcDbEntity
8
1
62
256
6
ByLayer
370
18
48
1
60
0
100
AcDbLine
10
435.325
20
38.439837
30
0
11
435.325
21
38.329931
31
0
39
0
210
0
220
0
230
1
0
LINE
5
F2
100
AcDbEntity
8
1
62
256
6
ByLayer
370
18
48
1
60
0
100
AcDbLine
10
435.325
20
38.840167
30
0
11
435.325
21
38.745917
31
0
39
0
210
0
220
0
230
1
0
LINE
5
F3
100
AcDbEntity
8
1
62
256
6
ByLayer
370
18
48
1
60
0
100
AcDbLine
10
435.325
20
39.179026
30
0
11
435.325
21
39.099982
31
0
39
0
210
0
220
0
230
1
0
LINE
5
F4
100
AcDbEntity
8
1
62
256
6
ByLayer
370
18
48
1
60
0
100
AcDbLine
10
435.325
20
39.457998
30
0
11
435.325
21
39.393795
31
0
39
0
210
0
220
0
230
1
0
LINE
5
F5
100
AcDbEntity
8
1
62
256
6
ByLayer
370
18
48
1
60
0
100
AcDbLine
10
435.325
20
39.678345
30
0
11
435.325
21
39.628697
31
0
39
0
210
0
220
0
230
1
0
LINE
5
F6
100
AcDbEntity
8
1
62
256
6
ByLayer
370
18
48
1
60
0
100
AcDbLine
10
435.325
20
39.841042
30
0
11
435.325
21
39.805729
31
0
39
0
210
0
220
0
230
1
0
LINE
5
F7
100
AcDbEntity
8
1
62
256
6
ByLayer
370
18
48
1
60
0
100
AcDbLine
10
435.325
20
39.946791
30
0
11
435.325
21
39.925663
31
0
39
0
210
0
220
0
230
1
0
LINE
5
F8
100
AcDbEntity
8
1
62
256
6
ByLayer
370
18
48
1
60
0
100
AcDbLine
10
435.325
20
39.996045
30
0
11
435.325
21
39.989012
31
0
39
0
210
0
220
0
230
1
0
LINE
5
F9
100
AcDbEntity
8
1
62
256
6
ByLayer
370
18
48
1
60
0
100
AcDbLine
10
435.325
20
-39.989012
30
0
11
435.325
21
-39.996045
31
0
39
0
210
0
220
0
230
1
0
LINE
5
FA
100
AcDbEntity
8
1
62
256
6
ByLayer
370
18
48
1
60
0
100
AcDbLine
10
435.325
20
-39.925663
30
0
11
435.325
21
-39.946791
31
0
39
0
210
0
220
0
230
1
0
LINE
5
FB
100
AcDbEntity
8
1
62
256
6
ByLayer
370
18
48
1
60
0
100
AcDbLine
10
435.325
20
-39.805729
30
0
11
435.325
21
-39.841042
31
0
39
0
210
0
220
0
230
1
0
LINE
5
FC
100
AcDbEntity
8
1
62
256
6
ByLayer
370
18
48
1
60
0
100
AcDbLine
10
435.325
20
-39.628697
30
0
11
435.325
21
-39.678345
31
0
39
0
210
0
220
0
230
1
0
LINE
5
FD
100
AcDbEntity
8
1
62
256
6
ByLayer
370
18
48
1
60
0
100
AcDbLine
10
435.325
20
-39.393795
30
0
11
435.325
21
-39.457998
31
0
39
0
210
0
220
0
230
1
0
LINE
5
FE
100
AcDbEntity
8
1
62
256
6
ByLayer
370
18
48
1
60
0
100
AcDbLine
10
435.325
20
-39.099982
30
0
11
435.325
21
-39.179026
31
0
39
0
210
0
220
0
230
1
0
LINE
5
FF
100
AcDbEntity
8
1
62
256
6
ByLayer
370
18
48
1
60
0
100
AcDbLine
10
435.325
20
-38.745917
30
0
11
435.325
21
-38.840167
31
0
39
0
210
0
220
0
230
1
0
LINE
5
100
100
AcDbEntity
8
1
62
256
6
ByLayer
370
18
48
1
60
0
100
AcDbLine
10
435.325
20
-38.329931
30
0
11
435.325
21
-38.439837
31
0
39
0
210
0
220
0
230
1
0
LINE
5
101
100
AcDbEntity
8
1
62
256
6
ByLayer
370
18
48
1
60
0
100
AcDbLine
10
435.325
20
-37.849981
30
0
11
435.325
21
-37.976092
31
0
39
0
210
0
220
0
230
1
0
LINE
5
102
100
AcDbEntity
8
1
62
256
6
ByLayer
370
18
48
1
60
0
100
AcDbLine
10
435.325
20
-37.3036
30
0
11
435.325
21
-37.446577
31
0
39
0
210
0
220
0
230
1
0
LINE
5
103
100
AcDbEntity
8
1
62
256
6
ByLayer
370
18
48
1
60
0
100
AcDbLine
10
426
20
-40
30
0
11
426
21
40
31
0
39
0
210
0
220
0
230
1
0
LINE
5
104
100
AcDbEntity
8
1
62
256
6
ByLayer
370
18
48
1
60
0
100
AcDbLine
10
428.985992
20
19.178488
30
0
11
430.494723
21
19.125478
31
0
39
0
210
0
220
0
230
1
0
LINE
5
105
100
AcDbEntity
8
1
62
256
6
ByLayer
370
18
48
1
60
0
100
AcDbLine
10
430.494723
20
19.125478
30
0
11
431.016828
21
21.108367
31
0
39
0
210
0
220
0
230
1
0
LINE
5
106
100
AcDbEntity
8
1
62
256
6
ByLayer
370
18
48
1
60
0
100
AcDbLine
10
430.494723
20
19.125478
30
0
11
430.913835
21
18.512298
31
0
39
0
210
0
220
0
230
1
0
LINE
5
107
100
AcDbEntity
8
1
62
256
6
ByLayer
370
18
48
1
60
0
100
AcDbLine
10
428.834855
20
19.399619
30
0
11
429.300654
21
21.168666
31
0
39
0
210
0
220
0
230
1
0
LINE
5
108
100
AcDbEntity
8
1
62
256
6
ByLayer
370
18
48
1
60
0
100
AcDbLine
10
428.494787
20
19.897141
30
0
11
429.300654
21
21.168666
31
0
39
0
210
0
220
0
230
1
0
LINE
5
109
100
AcDbEntity
8
1
62
256
6
ByLayer
370
18
48
1
60
0
100
AcDbLine
10
429.300654
20
21.168666
30
0
11
431.016828
21
21.108367
31
0
39
0
210
0
220
0
230
1
0
LINE
5
10A
100
AcDbEntity
8
1
62
256
6
ByLayer
370
18
48
1
60
0
100
AcDbLine
10
431.016828
20
21.108367
30
0
11
431.927135
21
19.776544
31
0
39
0
210
0
220
0
230
1
0
LINE
5
10B
100
AcDbEntity
8
1
62
256
6
ByLayer
370
18
48
1
60
0
100
AcDbLine
10
431.927135
20
19.776544
30
0
11
431.121268
21
18.505019
31
0
39
0
210
0
220
0
230
1
0
LINE
5
10C
100
AcDbEntity
8
1
62
256
6
ByLayer
370
18
48
1
60
0
100
AcDbLine
10
431.121268
20
18.505019
30
0
11
429.405095
21
18.565317
31
0
39
0
210
0
220
0
230
1
0
LINE
5
10D
100
AcDbEntity
8
1
62
256
6
ByLayer
370
18
48
1
60
0
100
AcDbLine
10
429.405095
20
18.565317
30
0
11
428.494787
21
19.897141
31
0
39
0
210
0
220
0
230
1
0
LINE
5
10E
100
AcDbEntity
8
1
62
256
6
ByLayer
370
13
48
0.05
60
0
100
AcDbLine
10
432.3
20
0
30
0
11
-6.5
21
0
31
0
39
0
210
0
220
0
230
1
0
LINE
5
10F
100
AcDbEntity
8
SK2
62
256
6
ByLayer
370
18
48
1
60
0
100
AcDbLine
10
-54.6
20
-40
30
0
11
-54.6
21
40
31
0
39
0
210
0
220
0
230
1
0
LINE
5
111
100
AcDbEntity
8
SK2
62
256
6
ByLayer
370
18
48
1
60
0
100
AcDbLine
10
-1.2875
20
40
30
0
11
-56.6
21
40
31
0
39
0
210
0
220
0
230
1
0
LINE
5
112
100
AcDbEntity
8
SK2
62
256
6
ByLayer
370
18
48
1
60
0
100
AcDbLine
10
-1.2875
20
-40
30
0
11
-56.6
21
-40
31
0
39
0
210
0
220
0
230
1
0
LINE
5
113
100
AcDbEntity
8
1
62
256
6
ByLayer
370
18
48
1
60
1
100
AcDbLine
10
-54.6
20
40
30
0
11
-54.139216
21
36.500002
31
0
39
0
210
0
220
0
230
1
0
LINE
5
114
100
AcDbEntity
8
1
62
256
6
ByLayer
370
18
48
1
60
1
100
AcDbLine
10
-54.139216
20
36.500002
30
0
11
-55.060784
21
36.499998
31
0
39
0
210
0
220
0
230
1
0
LINE
5
115
100
AcDbEntity
8
1
62
256
6
ByLayer
370
18
48
1
60
1
100
AcDbLine
10
-55.060784
20
36.499998
30
0
11
-54.6
21
40
31
0
39
0
210
0
220
0
230
1
0
LINE
5
116
100
AcDbEntity
8
1
62
256
6
ByLayer
370
18
48
1
60
1
100
AcDbLine
10
-54.6
20
-40
30
0
11
-55.060784
21
-36.500002
31
0
39
0
210
0
220
0
230
1
0
LINE
5
117
100
AcDbEntity
8
1
62
256
6
ByLayer
370
18
48
1
60
1
100
AcDbLine
10
-55.060784
20
-36.500002
30
0
11
-54.139216
21
-36.499998
31
0
39
0
210
0
220
0
230
1
0
LINE
5
118
100
AcDbEntity
8
1
62
256
6
ByLayer
370
18
48
1
60
1
100
AcDbLine
10
-54.139216
20
-36.499998
30
0
11
-54.6
21
-40
31
0
39
0
210
0
220
0
230
1
0
LINE
5
119
100
AcDbEntity
8
SK2
62
256
6
ByLayer
370
18
48
1
60
0
100
AcDbLine
10
462.727312
20
-40
30
0
11
462.727312
21
40
31
0
39
0
210
0
220
0
230
1
0
LINE
5
11A
100
AcDbEntity
8
SK2
62
256
6
ByLayer
370
18
48
1
60
0
100
AcDbLine
10
427.3875
20
40
30
0
11
464.727312
21
40
31
0
39
0
210
0
220
0
230
1
0
LINE
5
11B
100
AcDbEntity
8
SK2
62
256
6
ByLayer
370
18
48
1
60
0
100
AcDbLine
10
427.3875
20
-40
30
0
11
464.727312
21
-40
31
0
39
0
210
0
220
0
230
1
0
LINE
5
11C
100
AcDbEntity
8
1
62
256
6
ByLayer
370
18
48
1
60
1
100
AcDbLine
10
462.727312
20
40
30
0
11
463.188095
21
36.500002
31
0
39
0
210
0
220
0
230
1
0
LINE
5
11D
100
AcDbEntity
8
1
62
256
6
ByLayer
370
18
48
1
60
1
100
AcDbLine
10
463.188095
20
36.500002
30
0
11
462.266528
21
36.499998
31
0
39
0
210
0
220
0
230
1
0
LINE
5
11E
100
AcDbEntity
8
1
62
256
6
ByLayer
370
18
48
1
60
1
100
AcDbLine
10
462.266528
20
36.499998
30
0
11
462.727312
21
40
31
0
39
0
210
0
220
0
230
1
0
LINE
5
11F
100
AcDbEntity
8
1
62
256
6
ByLayer
370
18
48
1
60
1
100
AcDbLine
10
462.727312
20
-40
30
0
11
462.266528
21
-36.500002
31
0
39
0
210
0
220
0
230
1
0
LINE
5
120
100
AcDbEntity
8
1
62
256
6
ByLayer
370
18
48
1
60
1
100
AcDbLine
10
462.266528
20
-36.500002
30
0
11
463.188095
21
-36.499998
31
0
39
0
210
0
220
0
230
1
0
LINE
5
121
100
AcDbEntity
8
1
62
256
6
ByLayer
370
18
48
1
60
1
100
AcDbLine
10
463.188095
20
-36.499998
30
0
11
462.727312
21
-40
31
0
39
0
210
0
220
0
230
1
0
LINE
5
122
100
AcDbEntity
8
SK2
62
256
6
ByLayer
370
18
48
1
60
0
100
AcDbLine
10
0
20
45.6
30
0
11
435
21
45.6
31
0
39
0
210
0
220
0
230
1
0
LINE
5
123
100
AcDbEntity
8
SK2
62
256
6
ByLayer
370
18
48
1
60
0
100
AcDbLine
10
435
20
41.5875
30
0
11
435
21
47.6
31
0
39
0
210
0
220
0
230
1
0
LINE
5
124
100
AcDbEntity
8
SK2
62
256
6
ByLayer
370
18
48
1
60
0
100
AcDbLine
10
0
20
41.2875
30
0
11
0
21
47.6
31
0
39
0
210
0
220
0
230
1
0
LINE
5
125
100
AcDbEntity
8
1
62
256
6
ByLayer
370
18
48
1
60
1
100
AcDbLine
10
435
20
45.6
30
0
11
431.500002
21
45.139216
31
0
39
0
210
0
220
0
230
1
0
LINE
5
126
100
AcDbEntity
8
1
62
256
6
ByLayer
370
18
48
1
60
1
100
AcDbLine
10
431.500002
20
45.139216
30
0
11
431.499998
21
46.060784
31
0
39
0
210
0
220
0
230
1
0
LINE
5
127
100
AcDbEntity
8
1
62
256
6
ByLayer
370
18
48
1
60
1
100
AcDbLine
10
431.499998
20
46.060784
30
0
11
435
21
45.6
31
0
39
0
210
0
220
0
230
1
0
LINE
5
128
100
AcDbEntity
8
1
62
256
6
ByLayer
370
18
48
1
60
1
100
AcDbLine
10
0
20
45.6
30
0
11
3.499998
21
46.060784
31
0
39
0
210
0
220
0
230
1
0
LINE
5
129
100
AcDbEntity
8
1
62
256
6
ByLayer
370
18
48
1
60
1
100
AcDbLine
10
3.499998
20
46.060784
30
0
11
3.500002
21
45.139216
31
0
39
0
210
0
220
0
230
1
0
LINE
5
12A
100
AcDbEntity
8
1
62
256
6
ByLayer
370
18
48
1
60
1
100
AcDbLine
10
3.500002
20
45.139216
30
0
11
0
21
45.6
31
0
39
0
210
0
220
0
230
1
0
LINE
5
1AA
100
AcDbEntity
8
1
62
256
6
ByLayer
370
18
48
1
60
1
100
AcDbLine
10
-54.6
20
40
30
0
11
-54.139216
21
36.500002
31
0
39
0
210
0
220
0
230
1
0
LINE
5
1AB
100
AcDbEntity
8
1
62
256
6
ByLayer
370
18
48
1
60
1
100
AcDbLine
10
-54.139216
20
36.500002
30
0
11
-55.060784
21
36.499998
31
0
39
0
210
0
220
0
230
1
0
LINE
5
1AC
100
AcDbEntity
8
1
62
256
6
ByLayer
370
18
48
1
60
1
100
AcDbLine
10
-55.060784
20
36.499998
30
0
11
-54.6
21
40
31
0
39
0
210
0
220
0
230
1
0
LINE
5
1AE
100
AcDbEntity
8
1
62
256
6
ByLayer
370
18
48
1
60
1
100
AcDbLine
10
-54.6
20
-40
30
0
11
-55.060784
21
-36.500002
31
0
39
0
210
0
220
0
230
1
0
LINE
5
1AF
100
AcDbEntity
8
1
62
256
6
ByLayer
370
18
48
1
60
1
100
AcDbLine
10
-55.060784
20
-36.500002
30
0
11
-54.139216
21
-36.499998
31
0
39
0
210
0
220
0
230
1
0
LINE
5
1B0
100
AcDbEntity
8
1
62
256
6
ByLayer
370
18
48
1
60
1
100
AcDbLine
10
-54.139216
20
-36.499998
30
0
11
-54.6
21
-40
31
0
39
0
210
0
220
0
230
1
0
LINE
5
1B4
100
AcDbEntity
8
1
62
256
6
ByLayer
370
18
48
1
60
1
100
AcDbLine
10
462.727312
20
40
30
0
11
463.188095
21
36.500002
31
0
39
0
210
0
220
0
230
1
0
LINE
5
1B5
100
AcDbEntity
8
1
62
256
6
ByLayer
370
18
48
1
60
1
100
AcDbLine
10
463.188095
20
36.500002
30
0
11
462.266528
21
36.499998
31
0
39
0
210
0
220
0
230
1
0
LINE
5
1B6
100
AcDbEntity
8
1
62
256
6
ByLayer
370
18
48
1
60
1
100
AcDbLine
10
462.266528
20
36.499998
30
0
11
462.727312
21
40
31
0
39
0
210
0
220
0
230
1
0
LINE
5
1B8
100
AcDbEntity
8
1
62
256
6
ByLayer
370
18
48
1
60
1
100
AcDbLine
10
462.727312
20
-40
30
0
11
462.266528
21
-36.500002
31
0
39
0
210
0
220
0
230
1
0
LINE
5
1B9
100
AcDbEntity
8
1
62
256
6
ByLayer
370
18
48
1
60
1
100
AcDbLine
10
462.266528
20
-36.500002
30
0
11
463.188095
21
-36.499998
31
0
39
0
210
0
220
0
230
1
0
LINE
5
1BA
100
AcDbEntity
8
1
62
256
6
ByLayer
370
18
48
1
60
1
100
AcDbLine
10
463.188095
20
-36.499998
30
0
11
462.727312
21
-40
31
0
39
0
210
0
220
0
230
1
0
LINE
5
1BD
100
AcDbEntity
8
1
62
256
6
ByLayer
370
18
48
1
60
1
100
AcDbLine
10
435
20
45.6
30
0
11
431.500002
21
45.139216
31
0
39
0
210
0
220
0
230
1
0
LINE
5
1BE
100
AcDbEntity
8
1
62
256
6
ByLayer
370
18
48
1
60
1
100
AcDbLine
10
431.500002
20
45.139216
30
0
11
431.499998
21
46.060784
31
0
39
0
210
0
220
0
230
1
0
LINE
5
1BF
100
AcDbEntity
8
1
62
256
6
ByLayer
370
18
48
1
60
1
100
AcDbLine
10
431.499998
20
46.060784
30
0
11
435
21
45.6
31
0
39
0
210
0
220
0
230
1
0
LINE
5
1C1
100
AcDbEntity
8
1
62
256
6
ByLayer
370
18
48
1
60
1
100
AcDbLine
10
0
20
45.6
30
0
11
3.499998
21
46.060784
31
0
39
0
210
0
220
0
230
1
0
LINE
5
1C2
100
AcDbEntity
8
1
62
256
6
ByLayer
370
18
48
1
60
1
100
AcDbLine
10
3.499998
20
46.060784
30
0
11
3.500002
21
45.139216
31
0
39
0
210
0
220
0
230
1
0
LINE
5
1C3
100
AcDbEntity
8
1
62
256
6
ByLayer
370
18
48
1
60
1
100
AcDbLine
10
3.500002
20
45.139216
30
0
11
0
21
45.6
31
0
39
0
210
0
220
0
230
1
0
MTEXT
5
1A6
100
AcDbEntity
8
SK2
62
256
6
ByLayer
370
18
48
1
60
0
100
AcDbMText
10
-56.164634
20
-4.530622
30
0
210
0
220
0
230
1
1
%%c
40
3.5
41
0
44
1.084337
50
90
71
7
72
5
7
iso_b_vert
0
MTEXT
5
1A9
100
AcDbEntity
8
SK2
62
256
6
ByLayer
370
18
48
1
60
0
100
AcDbMText
10
-56.164634
20
2.442034
30
0
210
0
220
0
230
1
1
\W0.6740;80
40
3.5
41
0
44
1.084337
50
90
71
7
72
5
7
iso_b_vert
0
MTEXT
5
1B2
100
AcDbEntity
8
SK2
62
256
6
ByLayer
370
18
48
1
60
0
100
AcDbMText
10
461.162678
20
-4.530622
30
0
210
0
220
0
230
1
1
%%c
40
3.5
41
0
44
1.084337
50
90
71
7
72
5
7
iso_b_vert
0
MTEXT
5
1B3
100
AcDbEntity
8
SK2
62
256
6
ByLayer
370
18
48
1
60
0
100
AcDbMText
10
461.162678
20
2.442034
30
0
210
0
220
0
230
1
1
\W0.6740;80
40
3.5
41
0
44
1.084337
50
90
71
7
72
5
7
iso_b_vert
0
MTEXT
5
1BC
100
AcDbEntity
8
SK2
62
256
6
ByLayer
370
18
48
1
60
0
100
AcDbMText
10
214.103034
20
46.632634
30
0
210
0
220
0
230
1
1
\W0.7541;435
40
3.5
41
0
44
1.084337
50
0
71
7
72
5
7
iso_b_vert
0
MTEXT
5
1C5
100
AcDbEntity
8
SK6
62
256
6
ByLayer
370
18
48
1
60
0
100
AcDbMText
10
178.441726
20
-65.567366
30
0
210
0
220
0
230
1
1
\W0.7518;HT30D-C8 80 435-80
40
3.5
41
0
44
1.084337
50
0
71
7
72
5
7
iso_b_vert
0
HATCH
5
1AD
100
AcDbEntity
8
SK2
62
256
6
ByLayer
370
13
48
1
60
0
100
AcDbHatch
10
0
20
0
30
0
210
0
220
0
230
1
2
ANSI31
70
0
71
0
91
1
92
5
93
3
72
1
10
-54.6000000000001
20
39.9999999999984
11
-54.1392162584474
21
36.5000016925516
72
1
10
-54.1392162584474
20
36.5000016925516
11
-55.0607837415529
21
36.4999983074452
72
1
10
-55.0607837415529
20
36.4999983074452
11
-54.6000000000001
21
39.9999999999984
97
0
75
0
76
1
52
0
41
0.0062
77
0
78
1
53
45
43
0
44
0
45
-0.0139193969876572
46
0.0139193969876572
79
0
47
0
98
1
10
0
20
0
0
HATCH
5
1B1
100
AcDbEntity
8
SK2
62
256
6
ByLayer
370
13
48
1
60
0
100
AcDbHatch
10
0
20
0
30
0
210
0
220
0
230
1
2
ANSI31
70
0
71
0
91
1
92
5
93
3
72
1
10
-54.6000000000001
20
-40.0000000000016
11
-55.0607837415529
21
-36.5000016925548
72
1
10
-55.0607837415529
20
-36.5000016925548
11
-54.1392162584474
21
-36.4999983074484
72
1
10
-54.1392162584474
20
-36.4999983074484
11
-54.6000000000001
21
-40.0000000000016
97
0
75
0
76
1
52
0
41
0.0062
77
0
78
1
53
45
43
0
44
0
45
-0.0139193969876572
46
0.0139193969876572
79
0
47
0
98
1
10
0
20
0
0
HATCH
5
1B7
100
AcDbEntity
8
SK2
62
256
6
ByLayer
370
13
48
1
60
0
100
AcDbHatch
10
0
20
0
30
0
210
0
220
0
230
1
2
ANSI31
70
0
71
0
91
1
92
5
93
3
72
1
10
462.72731169257
20
39.9999999999984
11
463.188095434122
21
36.5000016925516
72
1
10
463.188095434122
20
36.5000016925516
11
462.266527951017
21
36.4999983074452
72
1
10
462.266527951017
20
36.4999983074452
11
462.72731169257
21
39.9999999999984
97
0
75
0
76
1
52
0
41
0.0062
77
0
78
1
53
45
43
0
44
0
45
-0.0139193969876572
46
0.0139193969876572
79
0
47
0
98
1
10
0
20
0
0
HATCH
5
1BB
100
AcDbEntity
8
SK2
62
256
6
ByLayer
370
13
48
1
60
0
100
AcDbHatch
10
0
20
0
30
0
210
0
220
0
230
1
2
ANSI31
70
0
71
0
91
1
92
5
93
3
72
1
10
462.72731169257
20
-40.0000000000016
11
462.266527951017
21
-36.5000016925548
72
1
10
462.266527951017
20
-36.5000016925548
11
463.188095434122
21
-36.4999983074484
72
1
10
463.188095434122
20
-36.4999983074484
11
462.72731169257
21
-40.0000000000016
97
0
75
0
76
1
52
0
41
0.0062
77
0
78
1
53
45
43
0
44
0
45
-0.0139193969876572
46
0.0139193969876572
79
0
47
0
98
1
10
0
20
0
0
HATCH
5
1C0
100
AcDbEntity
8
SK2
62
256
6
ByLayer
370
13
48
1
60
0
100
AcDbHatch
10
0
20
0
30
0
210
0
220
0
230
1
2
ANSI31
70
0
71
0
91
1
92
5
93
3
72
1
10
435
20
45.6000000075533
11
431.500001692553
21
45.1392162660006
72
1
10
431.500001692553
20
45.1392162660006
11
431.499998307447
21
46.0607837491061
72
1
10
431.499998307447
20
46.0607837491061
11
435
21
45.6000000075533
97
0
75
0
76
1
52
0
41
0.0062
77
0
78
1
53
45
43
0
44
0
45
-0.0139193969876572
46
0.0139193969876572
79
0
47
0
98
1
10
0
20
0
0
HATCH
5
1C4
100
AcDbEntity
8
SK2
62
256
6
ByLayer
370
13
48
1
60
0
100
AcDbHatch
10
0
20
0
30
0
210
0
220
0
230
1
2
ANSI31
70
0
71
0
91
1
92
5
93
3
72
1
10
0
20
45.6000000075533
11
3.4999983074468
21
46.0607837491061
72
1
10
3.4999983074468
20
46.0607837491061
11
3.5000016925532
21
45.1392162660006
72
1
10
3.5000016925532
20
45.1392162660006
11
0
21
45.6000000075533
97
0
75
0
76
1
52
0
41
0.0062
77
0
78
1
53
45
43
0
44
0
45
-0.0139193969876572
46
0.0139193969876572
79
0
47
0
98
1
10
0
20
0
0
ENDSEC
0
SECTION
2
OBJECTS
0
DICTIONARY
5
234
330
0
100
AcDbDictionary
280
0
281
1
3
ACAD_GROUP
350
235
3
ACAD_MLINESTYLE
350
236
0
DICTIONARY
5
235
330
0
100
AcDbDictionary
280
0
281
1
0
DICTIONARY
5
236
330
0
100
AcDbDictionary
280
0
281
1
3
Standard
350
18
0
MLINESTYLE
5
18
330
236
100
AcDbMlineStyle
2
Standard
70
0
3

62
256
51
90
52
90
71
2
49
-0.5
62
256
6
ByLayer
49
0.5
62
256
6
ByLayer
0
RASTERVARIABLES
5
222
330

100
AcDbRasterVariables
90
0
70
1
71
1
72
1
0
ENDSEC
0
EOF
