0
SECTION
2
HEADER
9
$ACADVER
1
AC1015
9
$DWGCODEPAGE
3
ANSI_1252
9
$HANDSEED
5
2cc
9
$ANGBASE
50
0
9
$ANGDIR
70
0
9
$ATTMODE
70
1
9
$AUNITS
70
0
9
$AUPREC
70
0
9
$CECOLOR
62
256
9
$CELTSCALE
40
1
9
$CELTYPE
6
ByLayer
9
$CELWEIGHT
370
18
9
$CLAYER
8
0
9
$CMLJUST
70
0
9
$CMLSCALE
40
1
9
$CMLSTYLE
2
Standard
9
$DIMSTYLE
2
Standard
9
$TEXTSIZE
40
0.2
9
$TEXTSTYLE
7
Standard
9
$LUNITS
70
2
9
$LUPREC
70
4
9
$EXTNAMES
290
1
9
$INSUNITS
70
4
9
$LTSCALE
40
1
9
$LWDISPLAY
290
1
9
$PDMODE
70
0
9
$PDSIZE
40
0
9
$PLINEGEN
70
0
0
ENDSEC
0
SECTION
2
CLASSES
0
CLASS
1
RASTERVARIABLES
2
AcDbRasterVariables
3
ISM
90
0
280
0
281
0
0
ENDSEC
0
SECTION
2
TABLES
0
TABLE
2
VPORT
5
2c2
100
AcDbSymbolTable
0
VPORT
5
1
100
AcDbSymbolTableRecord
100
AcDbViewportTableRecord
2
*Active
70
0
10
0
20
0
11
1
21
1
12
-1
22
1
13
0
23
0
14
0.5
24
0.5
15
10
25
10
16
0
26
0
36
1
17
0
27
0
37
0
0
ENDTAB
0
TABLE
2
LTYPE
5
2c3
100
AcDbSymbolTable
0
LTYPE
5
14
100
AcDbSymbolTableRecord
100
AcDbLinetypeTableRecord
70
0
2
ByBlock
3

72
65
73
0
40
0
0
LTYPE
5
15
100
AcDbSymbolTableRecord
100
AcDbLinetypeTableRecord
70
0
2
ByLayer
3

72
65
73
0
40
0
0
LTYPE
5
16
100
AcDbSymbolTableRecord
100
AcDbLinetypeTableRecord
70
0
2
Continuous
3
Solid line
72
65
73
0
40
0
0
LTYPE
5
6E
100
AcDbSymbolTableRecord
100
AcDbLinetypeTableRecord
70
0
2
CENTER
3
____ _ ____ _ ____ _ ____
72
65
73
4
40
47.5
49
22
74
0
49
-8.5
74
0
49
8.5
74
0
49
-8.5
74
0
0
LTYPE
5
6F
100
AcDbSymbolTableRecord
100
AcDbLinetypeTableRecord
70
0
2
DASHED
3
__ __ __ __ __ __ __ __ __
72
65
73
2
40
25.72
49
12.86
74
0
49
-12.86
74
0
0
ENDTAB
0
TABLE
2
LAYER
5
2c4
100
AcDbSymbolTable
0
LAYER
5
10
100
AcDbSymbolTableRecord
100
AcDbLayerTableRecord
2
0
70
0
62
7
6
Continuous
290
1
370
-3
390
0
0
LAYER
5
71
100
AcDbSymbolTableRecord
100
AcDbLayerTableRecord
2
2
70
0
62
7
6
Continuous
290
1
370
-3
390
0
0
LAYER
5
7D
100
AcDbSymbolTableRecord
100
AcDbLayerTableRecord
2
81
70
0
62
-3
6
Continuous
290
1
370
-3
390
0
0
LAYER
5
7F
100
AcDbSymbolTableRecord
100
AcDbLayerTableRecord
2
80
70
0
62
-6
6
Continuous
290
1
370
-3
390
0
0
LAYER
5
83
100
AcDbSymbolTableRecord
100
AcDbLayerTableRecord
2
1
70
0
62
4
6
Continuous
290
1
370
-3
390
0
0
LAYER
5
8F
100
AcDbSymbolTableRecord
100
AcDbLayerTableRecord
2
4
70
0
62
-2
6
CENTER
290
1
370
-3
390
0
0
LAYER
5
2ae
100
AcDbSymbolTableRecord
100
AcDbLayerTableRecord
2
SK4
70
0
62
2
6
CENTER
290
1
370
-3
390
0
0
LAYER
5
2af
100
AcDbSymbolTableRecord
100
AcDbLayerTableRecord
2
SK1
70
0
62
4
6
Continuous
290
1
370
-3
390
0
0
LAYER
5
2b0
100
AcDbSymbolTableRecord
100
AcDbLayerTableRecord
2
SK2
70
0
62
7
6
Continuous
290
1
370
-3
390
0
0
LAYER
5
2b1
100
AcDbSymbolTableRecord
100
AcDbLayerTableRecord
2
SK6
70
0
62
5
6
Continuous
290
1
370
-3
390
0
0
ENDTAB
0
TABLE
2
STYLE
5
2c5
100
AcDbSymbolTable
0
STYLE
5
11
100
AcDbSymbolTableRecord
100
AcDbTextStyleTableRecord
2
Standard
3
txt
70
0
71
0
40
0
41
1
42
0
50
0
0
STYLE
5
232
100
AcDbSymbolTableRecord
100
AcDbTextStyleTableRecord
2
iso_b_vert
3
simplex.shx
70
0
71
0
40
0
41
1
42
0
50
0
0
STYLE
5
233
100
AcDbSymbolTableRecord
100
AcDbTextStyleTableRecord
2
DWGDirectTextStyle
3
simplex
70
0
71
0
40
0
41
1
42
0
50
0
0
ENDTAB
0
TABLE
2
DIMSTYLE
5
2c6
100
AcDbSymbolTable
100
AcDbDimStyleTable
0
DIMSTYLE
105
27
100
AcDbSymbolTableRecord
100
AcDbDimStyleTableRecord
2
Standard
70
0
3
<>
41
0.18
42
0.0625
44
0.18
140
0.18
147
0.09
73
0
74
0
77
1
271
2
275
0
278
52
280
0
340
11
0
ENDTAB
0
TABLE
2
VIEW
5
2c7
100
AcDbSymbolTable
0
ENDTAB
0
TABLE
2
UCS
5
2c8
100
AcDbSymbolTable
0
ENDTAB
0
TABLE
2
APPID
5
2c9
100
AcDbSymbolTable
0
APPID
5
12
100
AcDbSymbolTableRecord
100
AcDbRegAppTableRecord
2
ACAD
70
0
0
APPID
5
2AA
100
AcDbSymbolTableRecord
100
AcDbRegAppTableRecord
2
ACAD_MLEADERVER
70
0
0
ENDTAB
0
TABLE
2
BLOCK_RECORD
5
2ca
100
AcDbSymbolTable
0
BLOCK_RECORD
5
1F
100
AcDbSymbolTableRecord
100
AcDbBlockTableRecord
2
*Model_Space
340
0
70
0
0
BLOCK_RECORD
5
1B
100
AcDbSymbolTableRecord
100
AcDbBlockTableRecord
2
*Paper_Space
340
0
70
0
0
BLOCK_RECORD
5
23
100
AcDbSymbolTableRecord
100
AcDbBlockTableRecord
2
*Paper_Space0
340
0
70
0
0
ENDTAB
0
ENDSEC
0
SECTION
2
BLOCKS
0
BLOCK
5
20
100
AcDbEntity
8
0
100
AcDbBlockBegin
2
*Model_Space
70
0
10
0
20
0
30
0
3
*Model_Space
0
ENDBLK
5
21
100
AcDbEntity
8
0
100
AcDbBlockEnd
0
BLOCK
5
1C
100
AcDbEntity
8
0
100
AcDbBlockBegin
2
*Paper_Space
70
0
10
0
20
0
30
0
3
*Paper_Space
0
ENDBLK
5
1D
100
AcDbEntity
8
0
100
AcDbBlockEnd
0
BLOCK
5
24
100
AcDbEntity
8
0
100
AcDbBlockBegin
2
*Paper_Space0
70
0
10
0
20
0
30
0
3
*Paper_Space0
0
ENDBLK
5
25
100
AcDbEntity
8
0
100
AcDbBlockEnd
0
ENDSEC
0
SECTION
2
ENTITIES
0
ARC
5
17E
100
AcDbEntity
8
SK1
62
256
6
ByLayer
370
18
48
1
60
0
100
AcDbCircle
39
0
10
-0.6
20
29.6
30
0
40
0.999999999999994
210
0
220
0
230
1
100
AcDbArc
50
293.578178
51
306.869898
0
ARC
5
17F
100
AcDbEntity
8
SK1
62
256
6
ByLayer
370
18
48
1
60
0
100
AcDbCircle
39
0
10
-0.6
20
-29.6
30
0
40
0.999999999999994
210
0
220
0
230
1
100
AcDbArc
50
53.130102
51
66.421822
0
ARC
5
180
100
AcDbEntity
8
1
62
256
6
ByLayer
370
18
48
1
60
0
100
AcDbCircle
39
0
10
761.8
20
-39.8
30
0
40
0.2
210
0
220
0
230
1
100
AcDbArc
50
270
51
360
0
ARC
5
181
100
AcDbEntity
8
1
62
256
6
ByLayer
370
18
48
1
60
0
100
AcDbCircle
39
0
10
761.8
20
39.8
30
0
40
0.2
210
0
220
0
230
1
100
AcDbArc
50
360
51
90
0
ARC
5
182
100
AcDbEntity
8
1
62
256
6
ByLayer
370
18
48
1
60
0
100
AcDbCircle
39
0
10
762.25
20
-39.75
30
0
40
0.25
210
0
220
0
230
1
100
AcDbArc
50
180
51
270
0
ARC
5
183
100
AcDbEntity
8
1
62
256
6
ByLayer
370
18
48
1
60
0
100
AcDbCircle
39
0
10
762.25
20
39.75
30
0
40
0.25
210
0
220
0
230
1
100
AcDbArc
50
90
51
180
0
ARC
5
184
100
AcDbEntity
8
1
62
256
6
ByLayer
370
18
48
1
60
0
100
AcDbCircle
39
0
10
774.8
20
6.900505
30
0
40
0.2
210
0
220
0
230
1
100
AcDbArc
50
0
51
90
0
ARC
5
185
100
AcDbEntity
8
1
62
256
6
ByLayer
370
18
48
1
60
0
100
AcDbCircle
39
0
10
774.8
20
13.300505
30
0
40
0.2
210
0
220
0
230
1
100
AcDbArc
50
270
51
0
0
ARC
5
186
100
AcDbEntity
8
1
62
256
6
ByLayer
370
18
48
1
60
0
100
AcDbCircle
39
0
10
780.4
20
5.700505
30
0
40
0.6
210
0
220
0
230
1
100
AcDbArc
50
270
51
360
0
ARC
5
187
100
AcDbEntity
8
1
62
256
6
ByLayer
370
18
48
1
60
0
100
AcDbCircle
39
0
10
780.4
20
14.500505
30
0
40
0.6
210
0
220
0
230
1
100
AcDbArc
50
360
51
90
0
ARC
5
188
100
AcDbEntity
8
1
62
256
6
ByLayer
370
18
48
1
60
0
100
AcDbCircle
39
0
10
774.8
20
-33.099495
30
0
40
0.2
210
0
220
0
230
1
100
AcDbArc
50
0
51
90
0
ARC
5
189
100
AcDbEntity
8
1
62
256
6
ByLayer
370
18
48
1
60
0
100
AcDbCircle
39
0
10
774.8
20
-26.699495
30
0
40
0.2
210
0
220
0
230
1
100
AcDbArc
50
270
51
0
0
ARC
5
18A
100
AcDbEntity
8
1
62
256
6
ByLayer
370
18
48
1
60
0
100
AcDbCircle
39
0
10
780.4
20
-34.299495
30
0
40
0.6
210
0
220
0
230
1
100
AcDbArc
50
270
51
360
0
ARC
5
18B
100
AcDbEntity
8
1
62
256
6
ByLayer
370
18
48
1
60
0
100
AcDbCircle
39
0
10
780.4
20
-25.499495
30
0
40
0.6
210
0
220
0
230
1
100
AcDbArc
50
360
51
90
0
ARC
5
18C
100
AcDbEntity
8
1
62
256
6
ByLayer
370
18
48
1
60
0
100
AcDbCircle
39
0
10
774.8
20
26.699495
30
0
40
0.2
210
0
220
0
230
1
100
AcDbArc
50
0
51
90
0
ARC
5
18D
100
AcDbEntity
8
1
62
256
6
ByLayer
370
18
48
1
60
0
100
AcDbCircle
39
0
10
774.8
20
33.099495
30
0
40
0.2
210
0
220
0
230
1
100
AcDbArc
50
270
51
0
0
ARC
5
18E
100
AcDbEntity
8
1
62
256
6
ByLayer
370
18
48
1
60
0
100
AcDbCircle
39
0
10
780.4
20
25.499495
30
0
40
0.6
210
0
220
0
230
1
100
AcDbArc
50
270
51
360
0
ARC
5
18F
100
AcDbEntity
8
1
62
256
6
ByLayer
370
18
48
1
60
0
100
AcDbCircle
39
0
10
780.4
20
34.299495
30
0
40
0.6
210
0
220
0
230
1
100
AcDbArc
50
360
51
90
0
ARC
5
190
100
AcDbEntity
8
1
62
256
6
ByLayer
370
18
48
1
60
0
100
AcDbCircle
39
0
10
774.8
20
-13.300505
30
0
40
0.2
210
0
220
0
230
1
100
AcDbArc
50
0
51
90
0
ARC
5
191
100
AcDbEntity
8
1
62
256
6
ByLayer
370
18
48
1
60
0
100
AcDbCircle
39
0
10
774.8
20
-6.900505
30
0
40
0.2
210
0
220
0
230
1
100
AcDbArc
50
270
51
0
0
ARC
5
192
100
AcDbEntity
8
1
62
256
6
ByLayer
370
18
48
1
60
0
100
AcDbCircle
39
0
10
780.4
20
-14.500505
30
0
40
0.6
210
0
220
0
230
1
100
AcDbArc
50
270
51
360
0
ARC
5
193
100
AcDbEntity
8
1
62
256
6
ByLayer
370
18
48
1
60
0
100
AcDbCircle
39
0
10
780.4
20
-5.700505
30
0
40
0.6
210
0
220
0
230
1
100
AcDbArc
50
360
51
90
0
ELLIPSE
5
194
100
AcDbEntity
8
1
62
256
6
ByLayer
370
18
48
1
60
0
100
AcDbEllipse
10
-6.763884
20
0
30
0
11
18.7348357595671
21
39.4834983055044
31
0
210
0
220
0
230
1
40
0.341999
41
-1.08794676716922
42
-0.161099005228942
0
ELLIPSE
5
195
100
AcDbEntity
8
1
62
256
6
ByLayer
370
18
48
1
60
0
100
AcDbEllipse
10
30.763884
20
0
30
0
11
18.7348357595633
21
-39.4834983054992
31
0
210
0
220
0
230
1
40
0.341999
41
-2.98049364836084
42
-2.05364588642048
0
ELLIPSE
5
196
100
AcDbEntity
8
1
62
256
6
ByLayer
370
18
48
1
60
0
100
AcDbEllipse
10
30.763884
20
0
30
0
11
18.7348357595637
21
39.4834983054997
31
0
210
0
220
0
230
1
40
0.341999
41
2.05364588642049
42
2.98049364836084
0
ELLIPSE
5
197
100
AcDbEntity
8
1
62
256
6
ByLayer
370
18
48
1
60
0
100
AcDbEllipse
10
-6.763884
20
0
30
0
11
18.7348357595631
21
-39.4834983054994
31
0
210
0
220
0
230
1
40
0.341999
41
0.161099005228955
42
1.08794676716932
0
ELLIPSE
5
198
100
AcDbEntity
8
1
62
256
6
ByLayer
370
13
48
1
60
0
100
AcDbEllipse
10
765.5
20
38.995313
30
0
11
0.5
21
0
31
0
210
0
220
0
230
1
40
0.926601
41
3.14159265358979
42
-1.5707963267949
0
ELLIPSE
5
199
100
AcDbEntity
8
1
62
256
6
ByLayer
370
13
48
1
60
0
100
AcDbEllipse
10
765.5
20
6.557377
30
0
11
0.5
21
0
31
0
210
0
220
0
230
1
40
0.655738
41
1.5707963267949
42
3.14159265358979
0
ELLIPSE
5
19A
100
AcDbEntity
8
1
62
256
6
ByLayer
370
13
48
1
60
0
100
AcDbEllipse
10
765.5
20
-6.557377
30
0
11
0.5
21
0
31
0
210
0
220
0
230
1
40
0.655738
41
3.14159265358979
42
-1.5707963267949
0
ELLIPSE
5
19B
100
AcDbEntity
8
1
62
256
6
ByLayer
370
13
48
1
60
0
100
AcDbEllipse
10
765.5
20
-38.995312
30
0
11
0.5
21
0
31
0
210
0
220
0
230
1
40
0.926601
41
1.5707963267949
42
3.14159265358979
0
POINT
5
70
100
AcDbEntity
8
2
62
256
6
ByLayer
370
18
48
1
60
0
100
AcDbPoint
10
762
20
0
30
0
39
0
210
0
220
0
230
1
50
360
0
POINT
5
72
100
AcDbEntity
8
2
62
256
6
ByLayer
370
18
48
1
60
0
100
AcDbPoint
10
771
20
-29.899495
30
0
39
0
210
0
220
0
230
1
50
360
0
POINT
5
73
100
AcDbEntity
8
2
62
256
6
ByLayer
370
18
48
1
60
0
100
AcDbPoint
10
476.05
20
0
30
0
39
0
210
0
220
0
230
1
50
360
0
POINT
5
74
100
AcDbEntity
8
2
62
256
6
ByLayer
370
18
48
1
60
0
100
AcDbPoint
10
771
20
-29.899495
30
0
39
0
210
0
220
0
230
1
50
360
0
POINT
5
75
100
AcDbEntity
8
2
62
256
6
ByLayer
370
18
48
1
60
0
100
AcDbPoint
10
771
20
-10.100505
30
0
39
0
210
0
220
0
230
1
50
360
0
POINT
5
76
100
AcDbEntity
8
2
62
256
6
ByLayer
370
18
48
1
60
0
100
AcDbPoint
10
775
20
29.899495
30
0
39
0
210
0
220
0
230
1
50
360
0
POINT
5
77
100
AcDbEntity
8
2
62
256
6
ByLayer
370
18
48
1
60
0
100
AcDbPoint
10
775
20
-10.100505
30
0
39
0
210
0
220
0
230
1
50
360
0
POINT
5
78
100
AcDbEntity
8
2
62
256
6
ByLayer
370
18
48
1
60
0
100
AcDbPoint
10
716.05
20
0
30
0
39
0
210
0
220
0
230
1
50
360
0
POINT
5
79
100
AcDbEntity
8
2
62
256
6
ByLayer
370
18
48
1
60
0
100
AcDbPoint
10
771
20
10.100505
30
0
39
0
210
0
220
0
230
1
50
360
0
POINT
5
7A
100
AcDbEntity
8
2
62
256
6
ByLayer
370
18
48
1
60
0
100
AcDbPoint
10
771
20
10.100505
30
0
39
0
210
0
220
0
230
1
50
360
0
POINT
5
7B
100
AcDbEntity
8
2
62
256
6
ByLayer
370
18
48
1
60
0
100
AcDbPoint
10
771
20
29.899495
30
0
39
0
210
0
220
0
230
1
50
360
0
POINT
5
7C
100
AcDbEntity
8
81
62
256
6
ByLayer
370
18
48
1
60
0
100
AcDbPoint
10
768
20
20
30
0
39
0
210
0
220
0
230
1
50
360
0
POINT
5
7E
100
AcDbEntity
8
80
62
256
6
ByLayer
370
18
48
1
60
0
100
AcDbPoint
10
0
20
0
30
0
39
0
210
0
220
0
230
1
50
360
0
POINT
5
80
100
AcDbEntity
8
2
62
256
6
ByLayer
370
18
48
1
60
0
100
AcDbPoint
10
762
20
0
30
0
39
0
210
0
220
0
230
1
50
360
0
POINT
5
81
100
AcDbEntity
8
2
62
256
6
ByLayer
370
18
48
1
60
0
100
AcDbPoint
10
762
20
0
30
0
39
0
210
0
220
0
230
1
50
360
0
POINT
5
82
100
AcDbEntity
8
1
62
256
6
ByLayer
370
18
48
1
60
0
100
AcDbPoint
10
603.202979
20
0
30
0
39
0
210
0
220
0
230
1
50
360
0
POINT
5
84
100
AcDbEntity
8
1
62
256
6
ByLayer
370
13
48
1
60
1
100
AcDbPoint
10
762.05
20
-29.899495
30
0
39
0
210
0
220
0
230
1
50
360
0
POINT
5
85
100
AcDbEntity
8
1
62
256
6
ByLayer
370
13
48
1
60
1
100
AcDbPoint
10
781.9
20
-29.899495
30
0
39
0
210
0
220
0
230
1
50
360
0
POINT
5
86
100
AcDbEntity
8
1
62
256
6
ByLayer
370
13
48
1
60
1
100
AcDbPoint
10
762.05
20
-10.100505
30
0
39
0
210
0
220
0
230
1
50
360
0
POINT
5
87
100
AcDbEntity
8
1
62
256
6
ByLayer
370
13
48
1
60
1
100
AcDbPoint
10
781.9
20
-10.100505
30
0
39
0
210
0
220
0
230
1
50
360
0
POINT
5
88
100
AcDbEntity
8
1
62
256
6
ByLayer
370
13
48
1
60
1
100
AcDbPoint
10
766.25
20
0
30
0
39
0
210
0
220
0
230
1
50
360
0
POINT
5
89
100
AcDbEntity
8
1
62
256
6
ByLayer
370
13
48
1
60
1
100
AcDbPoint
10
760.75
20
0
30
0
39
0
210
0
220
0
230
1
50
360
0
POINT
5
8A
100
AcDbEntity
8
1
62
256
6
ByLayer
370
13
48
1
60
1
100
AcDbPoint
10
762.05
20
10.100505
30
0
39
0
210
0
220
0
230
1
50
360
0
POINT
5
8B
100
AcDbEntity
8
1
62
256
6
ByLayer
370
13
48
1
60
1
100
AcDbPoint
10
781.9
20
10.100505
30
0
39
0
210
0
220
0
230
1
50
360
0
POINT
5
8C
100
AcDbEntity
8
1
62
256
6
ByLayer
370
13
48
1
60
1
100
AcDbPoint
10
762.05
20
29.899495
30
0
39
0
210
0
220
0
230
1
50
360
0
POINT
5
8D
100
AcDbEntity
8
1
62
256
6
ByLayer
370
13
48
1
60
1
100
AcDbPoint
10
781.9
20
29.899495
30
0
39
0
210
0
220
0
230
1
50
360
0
SPLINE
5
19C
100
AcDbEntity
8
SK1
62
256
6
ByLayer
370
18
48
1
60
0
100
AcDbSpline
70
4
71
3
72
53
73
49
40
0
40
0
40
0
40
0
40
0.0274584608006188
40
0.055254728545415
40
0.0830509962902113
40
0.0969491301626094
40
0.110847264035007
40
0.138643531779804
40
0.1664397995246
40
0.194236067269396
40
0.222032335014193
40
0.249828602758989
40
0.277624870503785
40
0.305421138248581
40
0.333217405993377
40
0.361013673738174
40
0.38880994148297
40
0.416606209227766
40
0.430504343100164
40
0.444402476972562
40
0.45830061084496
40
0.472198744717359
40
0.486096878589757
40
0.493045945525956
40
0.499995012462155
40
0.506944079398354
40
0.513893146334553
40
0.527791280206951
40
0.541689414079349
40
0.555587547951747
40
0.569485681824145
40
0.583383815696543
40
0.61118008344134
40
0.638976351186136
40
0.666772618930932
40
0.694568886675728
40
0.722365154420525
40
0.750161422165321
40
0.777957689910117
40
0.805753957654913
40
0.833550225399709
40
0.861346493144506
40
0.889142760889302
40
0.9030408947617
40
0.916939028634098
40
0.944735296378894
40
0.972531564123691
40
1
40
1
40
1
40
1
41
1
10
-48.0000000000001
20
-25.5414510527729
30
0
41
1
10
-48.0000000000001
20
-25.5424891617015
30
0
41
1
10
-48.0000000000001
20
-25.463961506394
30
0
41
1
10
-48.0000000000001
20
-25.1322425192966
30
0
41
1
10
-48.0000000000001
20
-24.6943789872258
30
0
41
1
10
-48.0000000000001
20
-24.2527507958701
30
0
41
1
10
-48.0000000000001
20
-23.7534965427188
30
0
41
1
10
-48.0000000000001
20
-23.030309772166
30
0
41
1
10
-48.0000000000001
20
-22.0048954887129
30
0
41
1
10
-48.0000000000001
20
-20.8328487199719
30
0
41
1
10
-48.0000000000001
20
-19.5200996220052
30
0
41
1
10
-48.0000000000001
20
-18.0723511216475
30
0
41
1
10
-48.0000000000001
20
-16.4949784354154
30
0
41
1
10
-48.0000000000001
20
-14.7914034442657
30
0
41
1
10
-48.0000000000001
20
-12.9663998685648
30
0
41
1
10
-48
20
-11.0239134221953
30
0
41
1
10
-48
20
-8.96950823728514
30
0
41
1
10
-48
20
-7.1768657739093
30
0
41
1
10
-48
20
-5.68399982568371
30
0
41
1
10
-48
20
-4.55359781560855
30
0
41
1
10
-48
20
-3.41075035191318
30
0
41
1
10
-48
20
-2.26472549180232
30
0
41
1
10
-48
20
-1.32161475247142
30
0
41
1
10
-48
20
-0.561042317499073
30
0
41
1
10
-48
20
5.827934615E-07
30
0
41
1
10
-48
20
0.561043122290187
30
0
41
1
10
-48
20
1.32161426869396
30
0
41
1
10
-48
20
2.26472380030242
30
0
41
1
10
-48
20
3.41075020779329
30
0
41
1
10
-48
20
4.55359888251661
30
0
41
1
10
-48
20
5.683999612619
30
0
41
1
10
-48
20
7.17686534047022
30
0
41
1
10
-47.9999999999999
20
8.96950825544081
30
0
41
1
10
-47.9999999999999
20
11.023913502029
30
0
41
1
10
-47.9999999999999
20
12.9663999896202
30
0
41
1
10
-47.9999999999999
20
14.7914038739655
30
0
41
1
10
-47.9999999999999
20
16.494978782605
30
0
41
1
10
-47.9999999999999
20
18.0723510721557
30
0
41
1
10
-47.9999999999999
20
19.5200990771866
30
0
41
1
10
-47.9999999999999
20
20.832848699864
30
0
41
1
10
-47.9999999999999
20
22.0048965474213
30
0
41
1
10
-47.9999999999999
20
23.0303087127376
30
0
41
1
10
-47.9999999999999
20
23.7534935831731
30
0
41
1
10
-47.9999999999999
20
24.2527492082179
30
0
41
1
10
-47.9999999999999
20
24.6943791914989
30
0
41
1
10
-47.9999999999999
20
25.1322422668057
30
0
41
1
10
-47.9999999999999
20
25.4640014203429
30
0
41
1
10
-47.9999999999999
20
25.5425176964065
30
0
41
1
10
-47.9999999999999
20
25.5414498936874
30
0
0
SPLINE
5
19D
100
AcDbEntity
8
SK1
62
256
6
ByLayer
370
18
48
1
60
0
100
AcDbSpline
70
4
71
3
72
34
73
30
40
0
40
0
40
0
40
0
40
0.249999999999998
40
0.249999999999998
40
0.374999999999997
40
0.374999999999997
40
0.499999999999996
40
0.499999999999996
40
0.624999999999995
40
0.624999999999995
40
0.687499999999994
40
0.687499999999994
40
0.749999999999992
40
0.749999999999992
40
0.812499999999991
40
0.812499999999991
40
0.843749999999992
40
0.843749999999992
40
0.874999999999993
40
0.874999999999993
40
0.906249999999993
40
0.906249999999993
40
0.921874999999994
40
0.921874999999994
40
0.937499999999995
40
0.937499999999995
40
0.968749999999998
40
0.968749999999998
40
1
40
1
40
1
40
1
41
1
10
-0.200000000000017
20
-6.55227712232443
30
0
41
1
10
-0.200337167165486
20
-6.48813612986316
30
0
41
1
10
-0.202001510499912
20
-6.42391230321692
30
0
41
1
10
-0.207302963817341
20
-6.3274410736397
30
0
41
1
10
-0.20954323520354
20
-6.29526142118766
30
0
41
1
10
-0.215252325213129
20
-6.23085553749718
30
0
41
1
10
-0.218714447593271
20
-6.19862926640161
30
0
41
1
10
-0.227377685184024
20
-6.13412972903643
30
0
41
1
10
-0.23254764290661
20
-6.10194739347935
30
0
41
1
10
-0.242355179803184
20
-6.05395477419671
30
0
41
1
10
-0.245978726317787
20
-6.0379745612837
30
0
41
1
10
-0.254174420408049
20
-6.00627164279575
30
0
41
1
10
-0.258730367644091
20
-5.99057839566024
30
0
41
1
10
-0.269245267236272
20
-5.95968016956073
30
0
41
1
10
-0.275173744753204
20
-5.94446441589309
30
0
41
1
10
-0.285980482524764
20
-5.92231143869844
30
0
41
1
10
-0.289905978981636
20
-5.91504038952888
30
0
41
1
10
-0.298797923187976
20
-5.90086426726452
30
0
41
1
10
-0.303674067400834
20
-5.89408804025425
30
0
41
1
10
-0.314848838487876
20
-5.88165454576182
30
0
41
1
10
-0.321040616956594
20
-5.87610899057313
30
0
41
1
10
-0.331681166148456
20
-5.86978149468354
30
0
41
1
10
-0.335493722016992
20
-5.86801034282462
30
0
41
1
10
-0.343284951652947
20
-5.86552288649176
30
0
41
1
10
-0.34737181291041
20
-5.86477563679688
30
0
41
1
10
-0.35953495757218
20
-5.86423711805912
30
0
41
1
10
-0.367571007865081
20
-5.8661622833377
30
0
41
1
10
-0.38210175002942
20
-5.87272803663086
30
0
41
1
10
-0.388790995722076
20
-5.87734923192875
30
0
41
1
10
-0.39491379981132
20
-5.8825856729909
30
0
0
SPLINE
5
19E
100
AcDbEntity
8
SK1
62
256
6
ByLayer
370
18
48
1
60
0
100
AcDbSpline
70
4
71
3
72
38
73
34
40
0
40
0
40
0
40
0
40
0.0156250000000004
40
0.0156250000000004
40
0.0312500000000008
40
0.0312500000000008
40
0.0468750000000012
40
0.0468750000000012
40
0.0625000000000016
40
0.0625000000000016
40
0.078125000000002
40
0.078125000000002
40
0.0937500000000024
40
0.0937500000000024
40
0.125000000000003
40
0.125000000000003
40
0.156250000000005
40
0.156250000000005
40
0.187500000000006
40
0.187500000000006
40
0.250000000000005
40
0.250000000000005
40
0.312500000000005
40
0.312500000000005
40
0.375000000000004
40
0.375000000000004
40
0.500000000000003
40
0.500000000000003
40
0.625000000000001
40
0.625000000000001
40
0.75
40
0.75
40
1
40
1
40
1
40
1
41
1
10
-0.394913799811263
20
5.88258733498481
30
0
41
1
10
-0.391855475614136
20
5.87997174517943
30
0
41
1
10
-0.388679953698329
20
5.87753166439154
30
0
41
1
10
-0.382023894922725
20
5.87310852950299
30
0
41
1
10
-0.378520660678476
20
5.87111352959079
30
0
41
1
10
-0.371204411524815
20
5.86780375001041
30
0
41
1
10
-0.367430305230243
20
5.86650268448449
30
0
41
1
10
-0.359586250878692
20
5.86480236632462
30
0
41
1
10
-0.355491062365786
20
5.86442041571939
30
0
41
1
10
-0.347419400494431
20
5.86477259204986
30
0
41
1
10
-0.343334353292761
20
5.86551178963003
30
0
41
1
10
-0.335509573653297
20
5.86800393240804
30
0
41
1
10
-0.3317631549358
20
5.86973798480318
30
0
41
1
10
-0.320994194999543
20
5.87613112177433
30
0
41
1
10
-0.314813212304699
20
5.88168816956647
30
0
41
1
10
-0.303617390374939
20
5.89416050242824
30
0
41
1
10
-0.298778631313553
20
5.90089959919385
30
0
41
1
10
-0.289962744453959
20
5.91494866899535
30
0
41
1
10
-0.285986366953239
20
5.92229535303801
30
0
41
1
10
-0.275047927333077
20
5.94473551098525
30
0
41
1
10
-0.269098119985159
20
5.96006824141068
30
0
41
1
10
-0.258566536361201
20
5.99110891560525
30
0
41
1
10
-0.254019815815326
20
6.00682672167966
30
0
41
1
10
-0.245851820113188
20
6.03851342290705
30
0
41
1
10
-0.242238444719135
20
6.05448453988896
30
0
41
1
10
-0.232418188950959
20
6.1026714064829
30
0
41
1
10
-0.227272492676292
20
6.1348345445644
30
0
41
1
10
-0.218659309075349
20
6.19912309063727
30
0
41
1
10
-0.215212061754869
20
6.23126348879413
30
0
41
1
10
-0.2095242524355
20
6.2955257461881
30
0
41
1
10
-0.207290131858258
20
6.3276477818182
30
0
41
1
10
-0.202001043985916
20
6.42397958323062
30
0
41
1
10
-0.200337078752142
20
6.48815453706823
30
0
41
1
10
-0.199999999999989
20
6.55227865789408
30
0
0
SPLINE
5
19F
100
AcDbEntity
8
SK1
62
256
6
ByLayer
370
13
48
1
60
0
100
AcDbSpline
70
4
71
3
72
25
73
21
40
0
40
0
40
0
40
0
40
0.0145587294201324
40
0.0464029848166554
40
0.110091495609701
40
0.173780006402747
40
0.237468517195793
40
0.301157027988839
40
0.364845538781885
40
0.428534049574931
40
0.492222560367977
40
0.555911071161023
40
0.619599581954069
40
0.683288092747115
40
0.746976603540161
40
0.778820858936684
40
0.810665114333207
40
0.874353625126253
40
0.938042135919299
40
1
40
1
40
1
40
1
41
1
10
-0.39491379981132
20
-5.88258567299192
30
0
41
1
10
-0.39491379981132
20
-6.07052405947672
30
0
41
1
10
-0.39491379981132
20
-6.66606717738506
30
0
41
1
10
-0.39491379981132
20
-8.05259623229938
30
0
41
1
10
-0.39491379981132
20
-9.97566753154939
30
0
41
1
10
-0.394913799811349
20
-12.1534974735354
30
0
41
1
10
-0.394913799811349
20
-14.2008618261791
30
0
41
1
10
-0.394913799811349
20
-16.1168447823444
30
0
41
1
10
-0.394913799811349
20
-17.9007381804523
30
0
41
1
10
-0.394913799811377
20
-19.549694005804
30
0
41
1
10
-0.394913799811377
20
-21.0615461829413
30
0
41
1
10
-0.394913799811377
20
-22.432052288855
30
0
41
1
10
-0.394913799811377
20
-23.6558233145232
30
0
41
1
10
-0.394913799811377
20
-24.7273078069339
30
0
41
1
10
-0.394913799811377
20
-25.4857549542384
30
0
41
1
10
-0.394913799811377
20
-26.007386571291
30
0
41
1
10
-0.394913799811377
20
-26.4695479101472
30
0
41
1
10
-0.394913799811405
20
-26.9317121751432
30
0
41
1
10
-0.394913799811405
20
-27.28082238392
30
0
41
1
10
-0.394913799811434
20
-27.3652313515577
30
0
41
1
10
-0.394913799811405
20
-27.3654106730103
30
0
0
SPLINE
5
1A0
100
AcDbEntity
8
SK1
62
256
6
ByLayer
370
18
48
1
60
0
100
AcDbSpline
70
4
71
3
72
49
73
45
40
0
40
0
40
0
40
0
40
0.0312500000000038
40
0.0312500000000038
40
0.0468750000000048
40
0.0468750000000048
40
0.0625000000000058
40
0.0781250000000069
40
0.0781250000000069
40
0.0859375000000073
40
0.0859375000000073
40
0.0937500000000077
40
0.109375000000009
40
0.117187500000009
40
0.117187500000009
40
0.125000000000009
40
0.125000000000009
40
0.15625000000001
40
0.15625000000001
40
0.171875000000011
40
0.171875000000011
40
0.187500000000011
40
0.187500000000011
40
0.218750000000012
40
0.218750000000012
40
0.234375000000012
40
0.234375000000012
40
0.250000000000012
40
0.250000000000012
40
0.31250000000001
40
0.31250000000001
40
0.375000000000009
40
0.375000000000009
40
0.437500000000007
40
0.437500000000007
40
0.500000000000006
40
0.500000000000006
40
0.625000000000004
40
0.625000000000004
40
0.750000000000003
40
0.750000000000003
40
0.875000000000001
40
0.875000000000001
40
1
40
1
40
1
40
1
41
1
10
-0.39491379981132
20
-5.88258567299192
30
0
41
1
10
-0.411179767739867
20
-5.89649691057775
30
0
41
1
10
-0.428385528731525
20
-5.90924654958064
30
0
41
1
10
-0.456220231625195
20
-5.92587726264901
30
0
41
1
10
-0.465900558107364
20
-5.93102514312227
30
0
41
1
10
-0.48569918891323
20
-5.94009851027181
30
0
41
1
10
-0.505959902330716
20
-5.94797987906679
30
0
41
1
10
-0.52727632439516
20
-5.95314074745056
30
0
41
1
10
-0.543724271296696
20
-5.95582515588853
30
0
41
1
10
-0.549307626346632
20
-5.9565219385513
30
0
41
1
10
-0.560402254070254
20
-5.95747179112044
30
0
41
1
10
-0.577005048576751
20
-5.95824738974091
30
0
41
1
10
-0.598988113232082
20
-5.95672779936984
30
0
41
1
10
-0.615363151583267
20
-5.95372648766397
30
0
41
1
10
-0.626255188472413
20
-5.95131675596099
30
0
41
1
10
-0.631686913413517
20
-5.94990548753628
30
0
41
1
10
-0.658283686674338
20
-5.94201343342041
30
0
41
1
10
-0.678213101083713
20
-5.93297784531563
30
0
41
1
10
-0.706655485452217
20
-5.91648780259629
30
0
41
1
10
-0.715834603579083
20
-5.91052268984237
30
0
41
1
10
-0.733450676613359
20
-5.89799413410987
30
0
41
1
10
-0.741931675642974
20
-5.89140462063131
30
0
41
1
10
-0.766568398283454
20
-5.87083261121126
30
0
41
1
10
-0.781926636665673
20
-5.85605532307278
30
0
41
1
10
-0.803808427400895
20
-5.83273195720517
30
0
41
1
10
-0.810909537595478
20
-5.82475689909125
30
0
41
1
10
-0.824642187820501
20
-5.80862406976092
30
0
41
1
10
-0.831293292074747
20
-5.80044590915747
30
0
41
1
10
-0.863632300216551
20
-5.75907701915668
30
0
41
1
10
-0.886653206455151
20
-5.72449384855275
30
0
41
1
10
-0.929268994496823
20
-5.6534979331139
30
0
41
1
10
-0.948821917963443
20
-5.61706391416038
30
0
41
1
10
-0.9854903268116
20
-5.54286169997806
30
0
41
1
10
-1.00262576586448
20
-5.50500475294342
30
0
41
1
10
-1.03481085007658
20
-5.42880990558518
30
0
41
1
10
-1.049879588408
20
-5.39043436268406
30
0
41
1
10
-1.0927183179077
20
-5.27463055419162
30
0
41
1
10
-1.11815612697546
20
-5.1965332099478
30
0
41
1
10
-1.16484869971205
20
-5.03900155537229
30
0
41
1
10
-1.18607375956302
20
-4.95956033007349
30
0
41
1
10
-1.22537042104099
20
-4.79955772182797
30
0
41
1
10
-1.24343193354571
20
-4.71899405044132
30
0
41
1
10
-1.27704610356759
20
-4.5568762947712
30
0
41
1
10
-1.29259442759721
20
-4.47532122975804
30
0
41
1
10
-1.30710678118655
20
-4.39331221032484
30
0
0
SPLINE
5
1A1
100
AcDbEntity
8
SK1
62
256
6
ByLayer
370
18
48
1
60
0
100
AcDbSpline
70
4
71
3
72
36
73
32
40
0
40
0
40
0
40
0
40
0.0625000000000002
40
0.0625000000000002
40
0.125
40
0.125
40
0.250000000000001
40
0.250000000000001
40
0.312500000000001
40
0.312500000000001
40
0.343750000000001
40
0.343750000000001
40
0.375000000000001
40
0.375000000000001
40
0.437500000000001
40
0.437500000000001
40
0.500000000000001
40
0.5625
40
0.5625
40
0.625
40
0.625
40
0.6875
40
0.71875
40
0.71875
40
0.75
40
0.75
40
0.875
40
0.875
40
0.9375
40
0.9375
40
1
40
1
40
1
40
1
41
1
10
-1.30710678118655
20
-4.39331221032489
30
0
41
1
10
-1.33832612741193
20
-4.21689231016722
30
0
41
1
10
-1.36851092390376
20
-4.03973122982887
30
0
41
1
10
-1.42649811963091
20
-3.68381684447201
30
0
41
1
10
-1.45429466041941
20
-3.50506155058417
30
0
41
1
10
-1.53342175503582
20
-2.96616199669307
30
0
41
1
10
-1.58051371000479
20
-2.60339474516388
30
0
41
1
10
-1.63969017396079
20
-2.0528975916892
30
0
41
1
10
-1.65749856469557
20
-1.86833789193395
30
0
41
1
10
-1.68090524760893
20
-1.58974420341144
30
0
41
1
10
-1.68815609252624
20
-1.49658709972573
30
0
41
1
10
-1.70147805604537
20
-1.30965819488989
30
0
41
1
10
-1.70755165689621
20
-1.21581541728392
30
0
41
1
10
-1.72381183076919
20
-0.93472351886129
30
0
41
1
10
-1.73206493494845
20
-0.747501097942745
30
0
41
1
10
-1.7429848038179
20
-0.373418392454084
30
0
41
1
10
-1.74839182943302
20
0.0003055804815517
30
0
41
1
10
-1.74297993884852
20
0.373323280942145
30
0
41
1
10
-1.73211744010527
20
0.745986303504424
30
0
41
1
10
-1.72392517749429
20
0.932138827990229
30
0
41
1
10
-1.70248074969007
20
1.30410713450158
30
0
41
1
10
-1.68260948363638
20
1.5828311275875
30
0
41
1
10
-1.65757931062797
20
1.86120029185435
30
0
41
1
10
-1.63980474419279
20
2.04670347397035
30
0
41
1
10
-1.63039580544412
20
2.1391828740305
30
0
41
1
10
-1.58095222331164
20
2.60000741581416
30
0
41
1
10
-1.53372925180182
20
2.96395482764058
30
0
41
1
10
-1.45444775249803
20
3.5040685266203
30
0
41
1
10
-1.42660609580415
20
3.68313524459489
30
0
41
1
10
-1.36854874276651
20
4.03950797751691
30
0
41
1
10
-1.33833886963825
20
4.21681617087029
30
0
41
1
10
-1.30710678118652
20
4.39330887788606
30
0
0
SPLINE
5
1A2
100
AcDbEntity
8
SK1
62
256
6
ByLayer
370
18
48
1
60
0
100
AcDbSpline
70
4
71
3
72
50
73
46
40
0
40
0
40
0
40
0
40
0.124999999999998
40
0.124999999999998
40
0.249999999999996
40
0.249999999999996
40
0.312499999999996
40
0.312499999999996
40
0.374999999999996
40
0.374999999999996
40
0.499999999999996
40
0.499999999999996
40
0.562499999999996
40
0.562499999999996
40
0.624999999999997
40
0.624999999999997
40
0.687499999999997
40
0.687499999999997
40
0.718749999999997
40
0.718749999999997
40
0.749999999999997
40
0.749999999999997
40
0.781249999999998
40
0.781249999999998
40
0.812499999999998
40
0.812499999999998
40
0.843749999999998
40
0.843749999999998
40
0.859374999999998
40
0.859374999999998
40
0.874999999999998
40
0.890624999999998
40
0.890624999999998
40
0.898437499999998
40
0.898437499999998
40
0.906249999999998
40
0.921874999999998
40
0.921874999999998
40
0.937499999999999
40
0.937499999999999
40
0.968749999999999
40
0.968749999999999
40
0.984375
40
0.984375
40
1
40
1
40
1
40
1
41
1
10
-1.30710678118652
20
4.39330887788606
30
0
41
1
10
-1.29259057630256
20
4.47534003310415
30
0
41
1
10
-1.27702923965072
20
4.55696714625805
30
0
41
1
10
-1.24335659670558
20
4.71934352683388
30
0
41
1
10
-1.22524991683201
20
4.8000936470595
30
0
41
1
10
-1.19566654622426
20
4.92047732721875
30
0
41
1
10
-1.18539939501377
20
4.96048124175468
30
0
41
1
10
-1.16392950861754
20
5.04022016000795
30
0
41
1
10
-1.15271909218828
20
5.07998178339517
30
0
41
1
10
-1.11752093416874
20
5.19855796010592
30
0
41
1
10
-1.09200642706725
20
5.27670114460136
30
0
41
1
10
-1.0492407274256
20
5.39208696039736
30
0
41
1
10
-1.03422852656959
20
5.43024134229671
30
0
41
1
10
-1.00227006366245
20
5.50579467647674
30
0
41
1
10
-0.985329895267597
20
5.54319570602496
30
0
41
1
10
-0.948842305699031
20
5.61701592648745
30
0
41
1
10
-0.929311633153418
20
5.65344083322157
30
0
41
1
10
-0.897134039200722
20
5.70702849131607
30
0
41
1
10
-0.885889244318037
20
5.72475996992927
30
0
41
1
10
-0.862388317867413
20
5.75943238422735
30
0
41
1
10
-0.850124764431285
20
5.77639487115226
30
0
41
1
10
-0.824286187770213
20
5.80937247929978
30
0
41
1
10
-0.81071499356699
20
5.82539030326046
30
0
41
1
10
-0.78181052016231
20
5.85616212382189
30
0
41
1
10
-0.766480020681485
20
5.87092930527115
30
0
41
1
10
-0.733280688453021
20
5.89860840862804
30
0
41
1
10
-0.715743791280261
20
5.91124847506274
30
0
41
1
10
-0.68741628460927
20
5.92762938506616
30
0
41
1
10
-0.677572371948372
20
5.93267724259607
30
0
41
1
10
-0.657498098822884
20
5.94150365482597
30
0
41
1
10
-0.636988070186447
20
5.94910381427815
30
0
41
1
10
-0.615487385337133
20
5.9539180373385
30
0
41
1
10
-0.598932162610765
20
5.95632074310805
30
0
41
1
10
-0.593335497469837
20
5.95691733339828
30
0
41
1
10
-0.58224137494102
20
5.95766809286988
30
0
41
1
10
-0.565657821584409
20
5.9581465405426
30
0
41
1
10
-0.54924370449001
20
5.95672090529092
30
0
41
1
10
-0.527503554619585
20
5.95318620141705
30
0
41
1
10
-0.516622342716403
20
5.95056688400257
30
0
41
1
10
-0.485210602129968
20
5.94070326229377
30
0
41
1
10
-0.465634608434925
20
5.93149511928675
30
0
41
1
10
-0.437740327393641
20
5.91484188421759
30
0
41
1
10
-0.428752255076858
20
5.90884528223489
30
0
41
1
10
-0.411413024584249
20
5.89619973179913
30
0
41
1
10
-0.403039329106406
20
5.88953658242156
30
0
41
1
10
-0.394913799811263
20
5.88258733498481
30
0
0
SPLINE
5
1A3
100
AcDbEntity
8
SK1
62
256
6
ByLayer
370
13
48
1
60
0
100
AcDbSpline
70
4
71
3
72
25
73
21
40
0
40
0
40
0
40
0
40
0.0621299838488278
40
0.125806811453539
40
0.189483639058251
40
0.221322052860607
40
0.253160466662962
40
0.316837294267674
40
0.380514121872386
40
0.444190949477097
40
0.507867777081809
40
0.571544604686521
40
0.635221432291232
40
0.698898259895944
40
0.762575087500656
40
0.826251915105367
40
0.889928742710079
40
0.95360557031479
40
0.985443984117146
40
1
40
1
40
1
40
1
41
1
10
-0.39491379981115
20
27.3654111755481
30
0
41
1
10
-0.394913799811178
20
27.3654778093984
30
0
41
1
10
-0.394913799811178
20
27.2811608267221
30
0
41
1
10
-0.394913799811178
20
26.931711914563
30
0
41
1
10
-0.394913799811206
20
26.4695479228793
30
0
41
1
10
-0.394913799811206
20
26.0073845707252
30
0
41
1
10
-0.394913799811206
20
25.4857521565205
30
0
41
1
10
-0.394913799811206
20
24.7273073402748
30
0
41
1
10
-0.394913799811206
20
23.6558244102428
30
0
41
1
10
-0.394913799811206
20
22.4320519750209
30
0
41
1
10
-0.394913799811206
20
21.0615457397669
30
0
41
1
10
-0.394913799811206
20
19.5496941631405
30
0
41
1
10
-0.394913799811235
20
17.9007385657829
30
0
41
1
10
-0.394913799811235
20
16.116845123771
30
0
41
1
10
-0.394913799811235
20
14.2008618153781
30
0
41
1
10
-0.394913799811235
20
12.153497457354
30
0
41
1
10
-0.394913799811263
20
9.97566741413243
30
0
41
1
10
-0.394913799811263
20
8.05259596592003
30
0
41
1
10
-0.394913799811263
20
6.66606769858657
30
0
41
1
10
-0.394913799811263
20
6.07052516538181
30
0
41
1
10
-0.394913799811263
20
5.88258733498486
30
0
0
SPLINE
5
1A4
100
AcDbEntity
8
SK1
62
256
6
ByLayer
370
13
48
1
60
0
100
AcDbSpline
70
4
71
3
72
53
73
49
40
0
40
0
40
0
40
0
40
0.0270895572427368
40
0.0549065682007974
40
0.0827235791588581
40
0.0966320846378884
40
0.110540590116919
40
0.138357601074979
40
0.16617461203304
40
0.193991622991101
40
0.221808633949161
40
0.249625644907222
40
0.277442655865283
40
0.305259666823343
40
0.333076677781404
40
0.360893688739465
40
0.388710699697525
40
0.416527710655586
40
0.430436216134617
40
0.444344721613647
40
0.458253227092677
40
0.472161732571708
40
0.486070238050738
40
0.493024490790253
40
0.499978743529768
40
0.506932996269283
40
0.513887249008798
40
0.527795754487829
40
0.541704259966859
40
0.555612765445889
40
0.56952127092492
40
0.58342977640395
40
0.611246787362011
40
0.639063798320072
40
0.666880809278132
40
0.694697820236193
40
0.722514831194254
40
0.750331842152314
40
0.778148853110375
40
0.805965864068436
40
0.833782875026496
40
0.861599885984557
40
0.889416896942618
40
0.903325402421648
40
0.917233907900678
40
0.945050918858739
40
0.9728679298168
40
1
40
1
40
1
40
1
41
1
10
-1.99503997793917
20
27.3252179104438
30
0
41
1
10
-1.99503997793917
20
27.3251257308771
30
0
41
1
10
-1.99503997793917
20
27.2408683971531
30
0
41
1
10
-1.9950399779392
20
26.8920579638066
30
0
41
1
10
-1.9950399779392
20
26.4304294784275
30
0
41
1
10
-1.9950399779392
20
25.9687186091476
30
0
41
1
10
-1.9950399779392
20
25.4475793002845
30
0
41
1
10
-1.9950399779392
20
24.6899114886171
30
0
41
1
10
-1.9950399779392
20
23.619443795401
30
0
41
1
10
-1.9950399779392
20
22.3968111872691
30
0
41
1
10
-1.99503997793923
20
21.0275777036138
30
0
41
1
10
-1.99503997793923
20
19.5171387431293
30
0
41
1
10
-1.99503997793923
20
17.8697605888624
30
0
41
1
10
-1.99503997793923
20
16.0876370834377
30
0
41
1
10
-1.99503997793926
20
14.1736586399812
30
0
41
1
10
-1.99503997793926
20
12.1286054195275
30
0
41
1
10
-1.99503997793926
20
9.95349522257504
30
0
41
1
10
-1.99503997793926
20
8.03329795823163
30
0
41
1
10
-1.99503997793928
20
6.43152354524267
30
0
41
1
10
-1.99503997793928
20
5.19920324116254
30
0
41
1
10
-1.99503997793928
20
3.93622738701504
30
0
41
1
10
-1.99503997793928
20
2.64495367748941
30
0
41
1
10
-1.99503997793928
20
1.54951551889729
30
0
41
1
10
-1.99503997793928
20
0.6647912077417
30
0
41
1
10
-1.99503997793928
20
-1.48582444E-08
30
0
41
1
10
-1.99503997793931
20
-0.664791253601607
30
0
41
1
10
-1.99503997793931
20
-1.549515656636
30
0
41
1
10
-1.99503997793931
20
-2.64495403942521
30
0
41
1
10
-1.99503997793931
20
-3.93622781621519
30
0
41
1
10
-1.99503997793931
20
-5.19920320851571
30
0
41
1
10
-1.99503997793931
20
-6.43152352997811
30
0
41
1
10
-1.99503997793931
20
-8.03329822829238
30
0
41
1
10
-1.99503997793934
20
-9.95349533700443
30
0
41
1
10
-1.99503997793934
20
-12.1286054335931
30
0
41
1
10
-1.99503997793934
20
-14.1736586478767
30
0
41
1
10
-1.99503997793937
20
-16.0876367400659
30
0
41
1
10
-1.99503997793937
20
-17.8697602043723
30
0
41
1
10
-1.99503997793937
20
-19.5171385903506
30
0
41
1
10
-1.99503997793937
20
-21.027578149028
30
0
41
1
10
-1.99503997793937
20
-22.3968114946305
30
0
41
1
10
-1.9950399779394
20
-23.6194427004969
30
0
41
1
10
-1.9950399779394
20
-24.6899119683388
30
0
41
1
10
-1.9950399779394
20
-25.4475821015686
30
0
41
1
10
-1.9950399779394
20
-25.9687206006143
30
0
41
1
10
-1.9950399779394
20
-26.4304294614745
30
0
41
1
10
-1.9950399779394
20
-26.8920582242086
30
0
41
1
10
-1.9950399779394
20
-27.2410475999058
30
0
41
1
10
-1.9950399779394
20
-27.325255923605
30
0
41
1
10
-1.99503997793937
20
-27.3252180377929
30
0
0
SPLINE
5
1A5
100
AcDbEntity
8
SK1
62
256
6
ByLayer
370
18
48
1
60
0
100
AcDbSpline
70
4
71
3
72
53
73
49
40
0
40
0
40
0
40
0
40
0.0183862532728454
40
0.0467164717415058
40
0.0750466902101663
40
0.0892117994444965
40
0.103376908678827
40
0.131707127147487
40
0.160037345616148
40
0.188367564084808
40
0.216697782553468
40
0.245028001022129
40
0.273358219490789
40
0.30168843795945
40
0.33001865642811
40
0.358348874896771
40
0.386679093365431
40
0.415009311834092
40
0.429174421068422
40
0.443339530302752
40
0.457504639537082
40
0.471669748771412
40
0.485834858005743
40
0.492917412622908
40
0.499999967240073
40
0.507082521857238
40
0.514165076474403
40
0.528330185708733
40
0.542495294943063
40
0.556660404177394
40
0.570825513411724
40
0.584990622646054
40
0.613320841114715
40
0.641651059583375
40
0.669981278052035
40
0.698311496520696
40
0.726641714989356
40
0.754971933458017
40
0.783302151926677
40
0.811632370395338
40
0.839962588863998
40
0.868292807332658
40
0.896623025801319
40
0.910788135035649
40
0.924953244269979
40
0.95328346273864
40
0.9816136812073
40
1
40
1
40
1
40
1
41
1
10
-2.19999999999993
20
27.5062744615665
30
0
41
1
10
-2.1999999999999
20
27.4880697293369
30
0
41
1
10
-2.1999999999999
20
27.3968430164703
30
0
41
1
10
-2.1999999999999
20
27.0843206529938
30
0
41
1
10
-2.1999999999999
20
26.6200957584238
30
0
41
1
10
-2.1999999999999
20
26.156191020121
30
0
41
1
10
-2.1999999999999
20
25.6326608836802
30
0
41
1
10
-2.1999999999999
20
24.8712257553423
30
0
41
1
10
-2.1999999999999
20
23.7958356733944
30
0
41
1
10
-2.1999999999999
20
22.5676765989874
30
0
41
1
10
-2.19999999999993
20
21.1922721628706
30
0
41
1
10
-2.19999999999993
20
19.6749841148914
30
0
41
1
10
-2.19999999999993
20
18.0199577075533
30
0
41
1
10
-2.19999999999993
20
16.2292526418689
30
0
41
1
10
-2.19999999999996
20
14.3055535850363
30
0
41
1
10
-2.19999999999996
20
12.2492947844102
30
0
41
1
10
-2.19999999999996
20
10.0609973779137
30
0
41
1
10
-2.19999999999996
20
8.12686459619209
30
0
41
1
10
-2.19999999999999
20
6.51319173456665
30
0
41
1
10
-2.19999999999999
20
5.26973655346097
30
0
41
1
10
-2.19999999999999
20
3.99363661217188
30
0
41
1
10
-2.19999999999999
20
2.68649440179473
30
0
41
1
10
-2.19999999999999
20
1.57441409623579
30
0
41
1
10
-2.19999999999999
20
0.676125852580356
30
0
41
1
10
-2.19999999999999
20
-8.01526312E-08
30
0
41
1
10
-2.19999999999999
20
-0.676125991375216
30
0
41
1
10
-2.20000000000002
20
-1.57441419616913
30
0
41
1
10
-2.20000000000002
20
-2.68649461847349
30
0
41
1
10
-2.20000000000002
20
-3.99363707251752
30
0
41
1
10
-2.20000000000002
20
-5.26973663380881
30
0
41
1
10
-2.20000000000002
20
-6.51319169435675
30
0
41
1
10
-2.20000000000002
20
-8.1268648484035
30
0
41
1
10
-2.20000000000005
20
-10.0609975068282
30
0
41
1
10
-2.20000000000005
20
-12.2492948087344
30
0
41
1
10
-2.20000000000005
20
-14.3055536070197
30
0
41
1
10
-2.20000000000007
20
-16.2292523079286
30
0
41
1
10
-2.20000000000007
20
-18.0199573189881
30
0
41
1
10
-2.20000000000007
20
-19.6749839400143
30
0
41
1
10
-2.20000000000007
20
-21.1922725974247
30
0
41
1
10
-2.20000000000007
20
-22.5676769377316
30
0
41
1
10
-2.2000000000001
20
-23.7958345745359
30
0
41
1
10
-2.2000000000001
20
-24.87122617173
30
0
41
1
10
-2.2000000000001
20
-25.6326636676739
30
0
41
1
10
-2.2000000000001
20
-26.156193055705
30
0
41
1
10
-2.2000000000001
20
-26.6200957619357
30
0
41
1
10
-2.2000000000001
20
-27.0843209142601
30
0
41
1
10
-2.2000000000001
20
-27.3968432691552
30
0
41
1
10
-2.2000000000001
20
-27.4880698367712
30
0
41
1
10
-2.2000000000001
20
-27.5062745383709
30
0
0
SPLINE
5
1A6
100
AcDbEntity
8
SK1
62
256
6
ByLayer
370
18
48
1
60
0
100
AcDbSpline
70
4
71
3
72
53
73
49
40
0
40
0
40
0
40
0
40
0.0184311803285235
40
0.0467592642033302
40
0.0750873480781369
40
0.0892513900155402
40
0.103415431952944
40
0.13174351582775
40
0.160071599702557
40
0.188399683577363
40
0.21672776745217
40
0.245055851326977
40
0.273383935201783
40
0.30171201907659
40
0.330040102951397
40
0.358368186826203
40
0.38669627070101
40
0.415024354575817
40
0.42918839651322
40
0.443352438450623
40
0.457516480388027
40
0.47168052232543
40
0.485844564262833
40
0.492926585231535
40
0.500008606200237
40
0.507090627168938
40
0.51417264813764
40
0.528336690075043
40
0.542500732012447
40
0.55666477394985
40
0.570828815887253
40
0.584992857824656
40
0.613320941699463
40
0.64164902557427
40
0.669977109449076
40
0.698305193323883
40
0.72663327719869
40
0.754961361073496
40
0.783289444948303
40
0.811617528823109
40
0.839945612697916
40
0.868273696572723
40
0.896601780447529
40
0.910765822384933
40
0.924929864322336
40
0.953257948197143
40
0.981586032071949
40
1
40
1
40
1
40
1
41
1
10
-46.4999999999999
20
26.3941670664357
30
0
41
1
10
-46.4999999999999
20
26.3766866726775
30
0
41
1
10
-46.4999999999999
20
26.2888363494001
30
0
41
1
10
-46.4999999999999
20
25.9864884679326
30
0
41
1
10
-46.4999999999999
20
25.5370892350003
30
0
41
1
10
-46.4999999999999
20
25.0857116283693
30
0
41
1
10
-46.4999999999999
20
24.5758332694778
30
0
41
1
10
-46.4999999999999
20
23.835909758967
30
0
41
1
10
-46.4999999999999
20
22.7886268297895
30
0
41
1
10
-46.4999999999999
20
21.5920242293513
30
0
41
1
10
-46.4999999999999
20
20.2518563243233
30
0
41
1
10
-46.4999999999999
20
18.7736770016082
30
0
41
1
10
-46.4999999999999
20
17.1623226058106
30
0
41
1
10
-46.4999999999999
20
15.420618795081
30
0
41
1
10
-46.4999999999999
20
13.5524250589534
30
0
41
1
10
-46.4999999999999
20
11.5601508338968
30
0
41
1
10
-46.5
20
9.44715323273323
30
0
41
1
10
-46.5
20
7.59259314167736
30
0
41
1
10
-46.5
20
6.04686117862479
30
0
41
1
10
-46.5
20
4.86698685362302
30
0
41
1
10
-46.5
20
3.66582628473373
30
0
41
1
10
-46.5
20
2.44929422361184
30
0
41
1
10
-46.5
20
1.43224163583824
30
0
41
1
10
-46.5
20
0.611404309556747
30
0
41
1
10
-46.5
20
2.926826141E-07
30
0
41
1
10
-46.5
20
-0.6114039176868
30
0
41
1
10
-46.5
20
-1.43224195164208
30
0
41
1
10
-46.5
20
-2.44929526971725
30
0
41
1
10
-46.5
20
-3.66582656723654
30
0
41
1
10
-46.5
20
-4.86698628876383
30
0
41
1
10
-46.5
20
-6.04686128085422
30
0
41
1
10
-46.5
20
-7.59259349580952
30
0
41
1
10
-46.5
20
-9.44715327893664
30
0
41
1
10
-46.5000000000001
20
-11.5601507996433
30
0
41
1
10
-46.5000000000001
20
-13.5524250004929
30
0
41
1
10
-46.5000000000001
20
-15.4206184072862
30
0
41
1
10
-46.5000000000001
20
-17.1623222405145
30
0
41
1
10
-46.5000000000001
20
-18.7736769529141
30
0
41
1
10
-46.5000000000001
20
-20.2518568208891
30
0
41
1
10
-46.5000000000001
20
-21.5920243888971
30
0
41
1
10
-46.5000000000001
20
-22.7886257535109
30
0
41
1
10
-46.5000000000001
20
-23.8359105369951
30
0
41
1
10
-46.5000000000001
20
-24.5758361522003
30
0
41
1
10
-46.5000000000001
20
-25.0857134120402
30
0
41
1
10
-46.5000000000001
20
-25.5370891216556
30
0
41
1
10
-46.5000000000001
20
-25.9864887242635
30
0
41
1
10
-46.5000000000001
20
-26.2887670130208
30
0
41
1
10
-46.5000000000001
20
-26.3766218361984
30
0
41
1
10
-46.5000000000001
20
-26.39411793408
30
0
0
SPLINE
5
1A7
100
AcDbEntity
8
1
62
256
6
ByLayer
370
18
48
1
60
0
100
AcDbSpline
70
4
71
3
72
26
73
22
40
0
40
0
40
0
40
0
40
0.0625000000000005
40
0.0625000000000005
40
0.0937499999999967
40
0.0937499999999967
40
0.124999999999993
40
0.124999999999993
40
0.249999999999994
40
0.249999999999994
40
0.374999999999994
40
0.374999999999994
40
0.437499999999992
40
0.437499999999992
40
0.499999999999989
40
0.499999999999989
40
0.62499999999999
40
0.62499999999999
40
0.749999999999991
40
0.749999999999991
40
1
40
1
40
1
40
1
41
1
10
13.4613248654053
20
38.1154578595254
30
0
41
1
10
13.4771575420864
20
38.1154578595254
30
0
41
1
10
13.4926967829161
20
38.1149630443687
30
0
41
1
10
13.5156051329865
20
38.1135446782954
30
0
41
1
10
13.5231743077463
20
38.112958862986
30
0
41
1
10
13.5381834149645
20
38.1115687100728
30
0
41
1
10
13.5456561777208
20
38.1107596566993
30
0
41
1
10
13.5820585103618
20
38.1062685963606
30
0
41
1
10
13.6085397975368
20
38.1012604668279
30
0
41
1
10
13.6577471021954
20
38.0892687952497
30
0
41
1
10
13.6795828635241
20
38.0825033540053
30
0
41
1
10
13.7096051321546
20
38.0715750854946
30
0
41
1
10
13.7191444204646
20
38.0677988367431
30
0
41
1
10
13.7374189069212
20
38.0600136207932
30
0
41
1
10
13.7461680175131
20
38.0559959802045
30
0
41
1
10
13.7710680782538
20
38.0437782351316
30
0
41
1
10
13.7859982057654
20
38.035372109362
30
0
41
1
10
13.8133554924887
20
38.0181487945757
30
0
41
1
10
13.8257737503391
20
38.0093303853474
30
0
41
1
10
13.8599678398713
20
37.9823481941391
30
0
41
1
10
13.8787504379153
20
37.9636126331775
30
0
41
1
10
13.8943375672975
20
37.944501011719
30
0
0
SPLINE
5
1A8
100
AcDbEntity
8
1
62
256
6
ByLayer
370
18
48
1
60
0
100
AcDbSpline
70
4
71
3
72
32
73
28
40
0
40
0
40
0
40
0
40
0.250000000000015
40
0.250000000000015
40
0.37500000000002
40
0.37500000000002
40
0.437500000000019
40
0.437500000000019
40
0.500000000000018
40
0.500000000000018
40
0.625000000000026
40
0.625000000000026
40
0.687500000000027
40
0.687500000000027
40
0.750000000000027
40
0.750000000000027
40
0.812500000000028
40
0.812500000000028
40
0.843750000000026
40
0.843750000000026
40
0.875000000000025
40
0.875000000000025
40
0.937500000000013
40
0.937500000000013
40
0.968750000000007
40
0.968750000000007
40
1
40
1
40
1
40
1
41
1
10
13.8943375672974
20
12.6576002058705
30
0
41
1
10
13.8787561873888
20
12.6003292036664
30
0
41
1
10
13.8601238798743
20
12.5441499637057
30
0
41
1
10
13.8260027135196
20
12.4621216159941
30
0
41
1
10
13.8135898550187
20
12.4351561290449
30
0
41
1
10
13.7930183318667
20
12.3954218364665
30
0
41
1
10
13.7858339393051
20
12.3822967529511
30
0
41
1
10
13.7707119348146
20
12.3563230389552
30
0
41
1
10
13.7627640242151
20
12.3434618357382
30
0
41
1
10
13.7378358829827
20
12.3057192432198
30
0
41
1
10
13.7197379933358
20
12.2815531796604
30
0
41
1
10
13.6895137280946
20
12.2473838346622
30
0
41
1
10
13.6789130531145
20
12.2363474443953
30
0
41
1
10
13.6568189855007
20
12.2154741288524
30
0
41
1
10
13.6452904427559
20
12.2055929865225
30
0
41
1
10
13.6210819432586
20
12.1871605631488
30
0
41
1
10
13.6084039311047
20
12.1786070311295
30
0
41
1
10
13.5883100345543
20
12.1670216512238
30
0
41
1
10
13.5814016237712
20
12.1633555796795
30
0
41
1
10
13.5673963362431
20
12.1566022540001
30
0
41
1
10
13.5602871584326
20
12.1535051719203
30
0
41
1
10
13.538618852768
20
12.1451084576005
30
0
41
1
10
13.5237210688637
20
12.1406978104913
30
0
41
1
10
13.5005803004528
20
12.1361671045752
30
0
41
1
10
13.492756294697
20
12.1350139079815
30
0
41
1
10
13.4770952538462
20
12.1334785049664
30
0
41
1
10
13.4692285817719
20
12.1330899674708
30
0
41
1
10
13.4613248654053
20
12.1330899674708
30
0
0
SPLINE
5
1A9
100
AcDbEntity
8
1
62
256
6
ByLayer
370
18
48
1
60
0
100
AcDbSpline
70
4
71
3
72
26
73
22
40
0
40
0
40
0
40
0
40
0.062499999999991
40
0.062499999999991
40
0.0937499999999872
40
0.0937499999999872
40
0.124999999999983
40
0.124999999999983
40
0.249999999999978
40
0.249999999999978
40
0.374999999999972
40
0.374999999999972
40
0.437499999999972
40
0.437499999999972
40
0.499999999999973
40
0.499999999999973
40
0.624999999999979
40
0.624999999999979
40
0.749999999999985
40
0.749999999999985
40
1
40
1
40
1
40
1
41
1
10
10.5386751345949
20
12.1330899674709
30
0
41
1
10
10.5228424579138
20
12.1330899674709
30
0
41
1
10
10.5073032170842
20
12.1346446934813
30
0
41
1
10
10.4843948670137
20
12.1390985861073
30
0
41
1
10
10.476825692254
20
12.1409378530105
30
0
41
1
10
10.4618165850357
20
12.1453009719698
30
0
41
1
10
10.4543438222794
20
12.1478396076278
30
0
41
1
10
10.4179414896384
20
12.1619255694049
30
0
41
1
10
10.3914602024634
20
12.1776162497591
30
0
41
1
10
10.3422528978048
20
12.2150722196262
30
0
41
1
10
10.3204171364762
20
12.2361555816481
30
0
41
1
10
10.2903948678457
20
12.2700982796013
30
0
41
1
10
10.2808555795357
20
12.2818098068953
30
0
41
1
10
10.262581093079
20
12.3059141713457
30
0
41
1
10
10.2538319824872
20
12.3183336732124
30
0
41
1
10
10.2289319217464
20
12.3560364080033
30
0
41
1
10
10.2140017942349
20
12.3818915830843
30
0
41
1
10
10.1866445075116
20
12.4346746200447
30
0
41
1
10
10.1742262496612
20
12.4616063758704
30
0
41
1
10
10.1400321601289
20
12.5437053894651
30
0
41
1
10
10.1212495620849
20
12.6003080708706
30
0
41
1
10
10.1056624327026
20
12.6576002058705
30
0
0
SPLINE
5
1AA
100
AcDbEntity
8
1
62
256
6
ByLayer
370
18
48
1
60
0
100
AcDbSpline
70
4
71
3
72
32
73
28
40
0
40
0
40
0
40
0
40
0.250000000000011
40
0.250000000000011
40
0.375000000000014
40
0.375000000000014
40
0.437500000000015
40
0.437500000000015
40
0.500000000000017
40
0.500000000000017
40
0.625000000000019
40
0.625000000000019
40
0.687500000000017
40
0.687500000000017
40
0.750000000000015
40
0.750000000000015
40
0.812500000000014
40
0.812500000000014
40
0.843750000000013
40
0.843750000000013
40
0.875000000000012
40
0.875000000000012
40
0.937500000000007
40
0.937500000000007
40
0.968750000000003
40
0.968750000000003
40
1
40
1
40
1
40
1
41
1
10
10.1056624327028
20
37.944501011719
30
0
41
1
10
10.1212438126114
20
37.9636055836586
30
0
41
1
10
10.1398761201259
20
37.982201295386
30
0
41
1
10
10.1739972864806
20
38.0091614379608
30
0
41
1
10
10.1864101449816
20
38.0179913785432
30
0
41
1
10
10.2069816681335
20
38.0309572795535
30
0
41
1
10
10.2141660606952
20
38.0352325300314
30
0
41
1
10
10.2292880651856
20
38.0436784163767
30
0
41
1
10
10.2372359757852
20
38.0478530906641
30
0
41
1
10
10.2621641170175
20
38.0600837295901
30
0
41
1
10
10.2802620066644
20
38.0678870466103
30
0
41
1
10
10.3104862719056
20
38.0788882765901
30
0
41
1
10
10.3210869468857
20
38.0824358644267
30
0
41
1
10
10.3431810144995
20
38.0891364033823
30
0
41
1
10
10.3547095572444
20
38.0923035991791
30
0
41
1
10
10.3789180567417
20
38.0982048271662
30
0
41
1
10
10.3915960688956
20
38.1009395753101
30
0
41
1
10
10.411689965446
20
38.1046401449178
30
0
41
1
10
10.418598376229
20
38.1058104966307
30
0
41
1
10
10.4326036637572
20
38.1079654954301
30
0
41
1
10
10.4397128415677
20
38.1089532874668
30
0
41
1
10
10.4613811472322
20
38.1116304436585
30
0
41
1
10
10.4762789311365
20
38.1130353910943
30
0
41
1
10
10.4994196995475
20
38.114478227072
30
0
41
1
10
10.5072437053032
20
38.1148453768632
30
0
41
1
10
10.522904746154
20
38.1153341847951
30
0
41
1
10
10.5307714182284
20
38.1154578595254
30
0
41
1
10
10.538675134595
20
38.1154578595254
30
0
0
SPLINE
5
1AB
100
AcDbEntity
8
1
62
256
6
ByLayer
370
18
48
1
60
0
100
AcDbSpline
70
4
71
3
72
26
73
22
40
0
40
0
40
0
40
0
40
0.0625000000000014
40
0.0625000000000014
40
0.0937499999999993
40
0.0937499999999993
40
0.124999999999997
40
0.124999999999997
40
0.249999999999988
40
0.249999999999988
40
0.374999999999979
40
0.374999999999979
40
0.437499999999981
40
0.437499999999981
40
0.499999999999982
40
0.499999999999982
40
0.624999999999986
40
0.624999999999986
40
0.749999999999991
40
0.749999999999991
40
1
40
1
40
1
40
1
41
1
10
10.5386751345947
20
-38.1154578595255
30
0
41
1
10
10.5228424579137
20
-38.1154578595255
30
0
41
1
10
10.507303217084
20
-38.1149630443688
30
0
41
1
10
10.4843948670136
20
-38.1135446782955
30
0
41
1
10
10.4768256922538
20
-38.1129588629861
30
0
41
1
10
10.4618165850355
20
-38.1115687100729
30
0
41
1
10
10.4543438222792
20
-38.1107596566994
30
0
41
1
10
10.4179414896382
20
-38.1062685963606
30
0
41
1
10
10.3914602024632
20
-38.101260466828
30
0
41
1
10
10.3422528978046
20
-38.0892687952497
30
0
41
1
10
10.320417136476
20
-38.0825033540054
30
0
41
1
10
10.2903948678455
20
-38.0715750854947
30
0
41
1
10
10.2808555795355
20
-38.0677988367432
30
0
41
1
10
10.2625810930788
20
-38.0600136207933
30
0
41
1
10
10.253831982487
20
-38.0559959802046
30
0
41
1
10
10.2289319217462
20
-38.0437782351317
30
0
41
1
10
10.2140017942347
20
-38.0353721093621
30
0
41
1
10
10.1866445075114
20
-38.0181487945758
30
0
41
1
10
10.174226249661
20
-38.0093303853475
30
0
41
1
10
10.1400321601287
20
-37.9823481941392
30
0
41
1
10
10.1212495620847
20
-37.9636126331776
30
0
41
1
10
10.1056624327025
20
-37.944501011719
30
0
0
SPLINE
5
1AC
100
AcDbEntity
8
1
62
256
6
ByLayer
370
18
48
1
60
0
100
AcDbSpline
70
4
71
3
72
32
73
28
40
0
40
0
40
0
40
0
40
0.249999999999975
40
0.249999999999975
40
0.374999999999961
40
0.374999999999961
40
0.437499999999954
40
0.437499999999954
40
0.499999999999946
40
0.499999999999946
40
0.624999999999945
40
0.624999999999945
40
0.687499999999952
40
0.687499999999952
40
0.74999999999996
40
0.74999999999996
40
0.812499999999967
40
0.812499999999967
40
0.843749999999971
40
0.843749999999971
40
0.874999999999974
40
0.874999999999974
40
0.937499999999991
40
0.937499999999991
40
0.968749999999996
40
0.968749999999996
40
1
40
1
40
1
40
1
41
1
10
10.1056624327026
20
-12.6576002058707
30
0
41
1
10
10.1212438126112
20
-12.6003292036666
30
0
41
1
10
10.1398761201257
20
-12.5441499637058
30
0
41
1
10
10.1739972864804
20
-12.4621216159941
30
0
41
1
10
10.1864101449813
20
-12.4351561290449
30
0
41
1
10
10.2069816681333
20
-12.3954218364665
30
0
41
1
10
10.214166060695
20
-12.3822967529512
30
0
41
1
10
10.2292880651854
20
-12.3563230389553
30
0
41
1
10
10.237235975785
20
-12.3434618357383
30
0
41
1
10
10.2621641170173
20
-12.3057192432199
30
0
41
1
10
10.2802620066642
20
-12.2815531796604
30
0
41
1
10
10.3104862719054
20
-12.2473838346623
30
0
41
1
10
10.3210869468855
20
-12.2363474443953
30
0
41
1
10
10.3431810144993
20
-12.2154741288525
30
0
41
1
10
10.3547095572442
20
-12.2055929865225
30
0
41
1
10
10.3789180567415
20
-12.1871605631488
30
0
41
1
10
10.3915960688954
20
-12.1786070311296
30
0
41
1
10
10.4116899654458
20
-12.1670216512239
30
0
41
1
10
10.4185983762288
20
-12.1633555796796
30
0
41
1
10
10.432603663757
20
-12.1566022540002
30
0
41
1
10
10.4397128415675
20
-12.1535051719203
30
0
41
1
10
10.461381147232
20
-12.1451084576005
30
0
41
1
10
10.4762789311363
20
-12.1406978104913
30
0
41
1
10
10.4994196995473
20
-12.1361671045752
30
0
41
1
10
10.507243705303
20
-12.1350139079815
30
0
41
1
10
10.5229047461539
20
-12.1334785049665
30
0
41
1
10
10.5307714182282
20
-12.1330899674708
30
0
41
1
10
10.5386751345948
20
-12.1330899674708
30
0
0
SPLINE
5
1AD
100
AcDbEntity
8
1
62
256
6
ByLayer
370
18
48
1
60
0
100
AcDbSpline
70
4
71
3
72
26
73
22
40
0
40
0
40
0
40
0
40
0.062499999999999
40
0.062499999999999
40
0.0937499999999992
40
0.0937499999999992
40
0.124999999999999
40
0.124999999999999
40
0.250000000000009
40
0.250000000000009
40
0.37500000000002
40
0.37500000000002
40
0.437500000000019
40
0.437500000000019
40
0.500000000000018
40
0.500000000000018
40
0.625000000000015
40
0.625000000000015
40
0.750000000000011
40
0.750000000000011
40
1
40
1
40
1
40
1
41
1
10
13.4613248654051
20
-12.133089967471
30
0
41
1
10
13.4771575420862
20
-12.133089967471
30
0
41
1
10
13.4926967829159
20
-12.1346446934814
30
0
41
1
10
13.5156051329863
20
-12.1390985861074
30
0
41
1
10
13.5231743077461
20
-12.1409378530105
30
0
41
1
10
13.5381834149643
20
-12.1453009719698
30
0
41
1
10
13.5456561777206
20
-12.1478396076279
30
0
41
1
10
13.5820585103617
20
-12.161925569405
30
0
41
1
10
13.6085397975366
20
-12.1776162497592
30
0
41
1
10
13.6577471021952
20
-12.2150722196262
30
0
41
1
10
13.6795828635238
20
-12.2361555816482
30
0
41
1
10
13.7096051321544
20
-12.2700982796014
30
0
41
1
10
13.7191444204644
20
-12.2818098068953
30
0
41
1
10
13.7374189069211
20
-12.3059141713458
30
0
41
1
10
13.7461680175129
20
-12.3183336732125
30
0
41
1
10
13.7710680782536
20
-12.3560364080034
30
0
41
1
10
13.7859982057652
20
-12.3818915830844
30
0
41
1
10
13.8133554924884
20
-12.4346746200448
30
0
41
1
10
13.8257737503389
20
-12.4616063758705
30
0
41
1
10
13.8599678398711
20
-12.5437053894651
30
0
41
1
10
13.8787504379151
20
-12.6003080708706
30
0
41
1
10
13.8943375672974
20
-12.6576002058705
30
0
0
SPLINE
5
1AE
100
AcDbEntity
8
1
62
256
6
ByLayer
370
18
48
1
60
0
100
AcDbSpline
70
4
71
3
72
32
73
28
40
0
40
0
40
0
40
0
40
0.250000000000009
40
0.250000000000009
40
0.375000000000012
40
0.375000000000012
40
0.437500000000013
40
0.437500000000013
40
0.500000000000014
40
0.500000000000014
40
0.625000000000011
40
0.625000000000011
40
0.687500000000008
40
0.687500000000008
40
0.750000000000006
40
0.750000000000006
40
0.812500000000003
40
0.812500000000003
40
0.843750000000002
40
0.843750000000002
40
0.875
40
0.875
40
0.937500000000001
40
0.937500000000001
40
0.96875
40
0.96875
40
1
40
1
40
1
40
1
41
1
10
13.8943375672972
20
-37.9445010117191
30
0
41
1
10
13.8787561873886
20
-37.9636055836586
30
0
41
1
10
13.8601238798741
20
-37.9822012953861
30
0
41
1
10
13.8260027135194
20
-38.0091614379608
30
0
41
1
10
13.8135898550185
20
-38.0179913785433
30
0
41
1
10
13.7930183318665
20
-38.0309572795536
30
0
41
1
10
13.7858339393048
20
-38.0352325300315
30
0
41
1
10
13.7707119348144
20
-38.0436784163768
30
0
41
1
10
13.7627640242148
20
-38.0478530906643
30
0
41
1
10
13.7378358829825
20
-38.0600837295902
30
0
41
1
10
13.7197379933356
20
-38.0678870466104
30
0
41
1
10
13.6895137280944
20
-38.0788882765902
30
0
41
1
10
13.6789130531143
20
-38.0824358644268
30
0
41
1
10
13.6568189855005
20
-38.0891364033824
30
0
41
1
10
13.6452904427557
20
-38.0923035991792
30
0
41
1
10
13.6210819432584
20
-38.0982048271663
30
0
41
1
10
13.6084039311044
20
-38.1009395753102
30
0
41
1
10
13.5883100345541
20
-38.1046401449179
30
0
41
1
10
13.581401623771
20
-38.1058104966308
30
0
41
1
10
13.5673963362429
20
-38.1079654954302
30
0
41
1
10
13.5602871584324
20
-38.1089532874669
30
0
41
1
10
13.5386188527678
20
-38.1116304436586
30
0
41
1
10
13.5237210688635
20
-38.1130353910944
30
0
41
1
10
13.5005803004525
20
-38.1144782270721
30
0
41
1
10
13.4927562946968
20
-38.1148453768633
30
0
41
1
10
13.477095253846
20
-38.1153341847952
30
0
41
1
10
13.4692285817717
20
-38.1154578595255
30
0
41
1
10
13.4613248654051
20
-38.1154578595255
30
0
0
SPLINE
5
1AF
100
AcDbEntity
8
1
62
256
6
ByLayer
370
18
48
1
60
0
100
AcDbSpline
70
4
71
3
72
8
73
4
40
0
40
0
40
0
40
0
40
1
40
1
40
1
40
1
41
1
10
768.325
20
7.64838937480232
30
0
41
1
10
768.151382100282
20
7.49848488745738
30
0
41
1
10
767.977644680543
20
7.34876540551022
30
0
41
1
10
767.80379947275
20
7.1992127690134
30
0
0
SPLINE
5
1B0
100
AcDbEntity
8
1
62
256
6
ByLayer
370
18
48
1
60
0
100
AcDbSpline
70
4
71
3
72
8
73
4
40
0
40
0
40
0
40
0
40
1
40
1
40
1
40
1
41
1
10
767.80379947275
20
-7.1992127690192
30
0
41
1
10
767.977644680543
20
-7.34876540551602
30
0
41
1
10
768.151382100282
20
-7.49848488746318
30
0
41
1
10
768.325
20
-7.64838937480806
30
0
0
SPLINE
5
1B1
100
AcDbEntity
8
1
62
256
6
ByLayer
370
18
48
1
60
0
100
AcDbSpline
70
4
71
3
72
8
73
4
40
0
40
0
40
0
40
0
40
1
40
1
40
1
40
1
41
1
10
767.65725
20
-7.07303023420195
30
0
41
1
10
767.706084164563
20
-7.11511538453351
30
0
41
1
10
767.7549342535
20
-7.1571758186509
30
0
41
1
10
767.80379947275
20
-7.1992127690192
30
0
0
SPLINE
5
1B2
100
AcDbEntity
8
1
62
256
6
ByLayer
370
18
48
1
60
0
100
AcDbSpline
70
4
71
3
72
8
73
4
40
0
40
0
40
0
40
0
40
1
40
1
40
1
40
1
41
1
10
768.325
20
-7.20327711016847
30
0
41
1
10
768.080255339592
20
-6.6366902543673
30
0
41
1
10
767.856117493986
20
-6.05952219002643
30
0
41
1
10
767.65725
20
-5.46937827944595
30
0
0
SPLINE
5
1B3
100
AcDbEntity
8
1
62
256
6
ByLayer
370
18
48
1
60
0
100
AcDbSpline
70
4
71
3
72
42
73
38
40
0
40
0
40
0
40
0
40
0.125
40
0.125
40
0.25
40
0.25
40
0.375
40
0.375
40
0.5
40
0.5
40
0.625
40
0.625
40
0.6875
40
0.6875
40
0.75
40
0.75
40
0.78125
40
0.78125
40
0.812500000000001
40
0.812500000000001
40
0.843750000000001
40
0.843750000000001
40
0.859375000000001
40
0.859375000000001
40
0.875000000000001
40
0.875000000000001
40
0.890625000000001
40
0.890625000000001
40
0.906250000000001
40
0.906250000000001
40
0.921875000000001
40
0.921875000000001
40
0.937500000000002
40
0.937500000000002
40
0.968750000000001
40
0.968750000000001
40
1
40
1
40
1
40
1
41
1
10
767.657249999999
20
-5.46937827944589
30
0
41
1
10
767.645842809892
20
-5.43552717767153
30
0
41
1
10
767.635376218753
20
-5.40168842627492
30
0
41
1
10
767.616159579328
20
-5.33401944632561
30
0
41
1
10
767.607410617599
20
-5.30018931105974
30
0
41
1
10
767.591630243533
20
-5.23253098209051
30
0
41
1
10
767.584597038584
20
-5.19870272955353
30
0
41
1
10
767.572416607621
20
-5.13105017448095
30
0
41
1
10
767.567257123168
20
-5.09714638781418
30
0
41
1
10
767.559350199227
20
-5.03008375541663
30
0
41
1
10
767.556563468565
20
-4.99685663760221
30
0
41
1
10
767.554934374754
20
-4.9477253906727
30
0
41
1
10
767.554825420221
20
-4.93146752873344
30
0
41
1
10
767.555768454577
20
-4.8996067520942
30
0
41
1
10
767.556807905361
20
-4.88396449991131
30
0
41
1
10
767.559669757845
20
-4.86118136084684
30
0
41
1
10
767.560848470002
20
-4.85368213416723
30
0
41
1
10
767.563768250598
20
-4.83914278707181
30
0
41
1
10
767.565506518077
20
-4.83209277964721
30
0
41
1
10
767.569762851032
20
-4.81861504057127
30
0
41
1
10
767.572290682967
20
-4.81217105824629
30
0
41
1
10
767.576847316763
20
-4.80347408704495
30
0
41
1
10
767.578497308551
20
-4.80072867399235
30
0
41
1
10
767.582126724826
20
-4.79562533189261
30
0
41
1
10
767.584120966475
20
-4.79325244299713
30
0
41
1
10
767.58846641644
20
-4.78908930635362
30
0
41
1
10
767.590800873116
20
-4.78730996752631
30
0
41
1
10
767.595857639166
20
-4.78447861086602
30
0
41
1
10
767.598615514316
20
-4.78342447608117
30
0
41
1
10
767.604356758172
20
-4.78225022356361
30
0
41
1
10
767.607348860968
20
-4.78211350771477
30
0
41
1
10
767.6135806722
20
-4.78276070817441
30
0
41
1
10
767.616835571824
20
-4.78356086776785
30
0
41
1
10
767.626509399883
20
-4.78714923422677
30
0
41
1
10
767.633049260233
20
-4.79118322540467
30
0
41
1
10
767.645463257178
20
-4.80093741125887
30
0
41
1
10
767.65147087267
20
-4.80672155313812
30
0
41
1
10
767.657250000009
20
-4.81300077610439
30
0
0
SPLINE
5
1B4
100
AcDbEntity
8
1
62
256
6
ByLayer
370
18
48
1
60
0
100
AcDbSpline
70
4
71
3
72
8
73
4
40
0
40
0
40
0
40
0
40
1
40
1
40
1
40
1
41
1
10
767.657250000009
20
-4.81300077610405
30
0
41
1
10
767.87689336472
20
-5.05165093536499
30
0
41
1
10
768.099787204791
20
-5.28619501268884
30
0
41
1
10
768.325
20
-5.51780972776612
30
0
0
SPLINE
5
1B5
100
AcDbEntity
8
1
62
256
6
ByLayer
370
18
48
1
60
0
100
AcDbSpline
70
4
71
3
72
22
73
18
40
0
40
0
40
0
40
0
40
0.25
40
0.25
40
0.375
40
0.375
40
0.5
40
0.5
40
0.5625
40
0.5625
40
0.578125
40
0.578125
40
0.59375
40
0.625
40
0.75
40
0.75
40
1
40
1
40
1
40
1
41
1
10
768.325
20
-4.76902621085497
30
0
41
1
10
768.113971460503
20
-3.99280922093851
30
0
41
1
10
767.949976506114
20
-3.20921952238547
30
0
41
1
10
767.783208603644
20
-2.02141620255134
30
0
41
1
10
767.74081351916
20
-1.62341351472526
30
0
41
1
10
767.683672378296
20
-0.823074039772962
30
0
41
1
10
767.668927961678
20
-0.420736995607399
30
0
41
1
10
767.668354981257
20
0.186145625856796
30
0
41
1
10
767.671752969564
20
0.389002420722193
30
0
41
1
10
767.680557089097
20
0.643287685518203
30
0
41
1
10
767.682546989574
20
0.694208114174728
30
0
41
1
10
767.686976564324
20
0.795957367612345
30
0
41
1
10
767.694294417818
20
0.948439632192446
30
0
41
1
10
767.728486671188
20
1.50599364976608
30
0
41
1
10
767.781591899427
20
2.00823048891823
30
0
41
1
10
767.948952865218
20
3.20520732746059
30
0
41
1
10
768.113751537206
20
3.99200028674744
30
0
41
1
10
768.325
20
4.76902621084923
30
0
0
SPLINE
5
1B6
100
AcDbEntity
8
1
62
256
6
ByLayer
370
18
48
1
60
0
100
AcDbSpline
70
4
71
3
72
8
73
4
40
0
40
0
40
0
40
0
40
1
40
1
40
1
40
1
41
1
10
768.325
20
5.51780972776038
30
0
41
1
10
768.099787204788
20
5.28619501267991
30
0
41
1
10
767.876893364714
20
5.05165093535288
30
0
41
1
10
767.65725
20
4.81300077608853
30
0
0
SPLINE
5
1B7
100
AcDbEntity
8
1
62
256
6
ByLayer
370
18
48
1
60
0
100
AcDbSpline
70
4
71
3
72
44
73
40
40
0
40
0
40
0
40
0
40
0.0312499999999937
40
0.0312499999999937
40
0.0468749999999902
40
0.0468749999999902
40
0.0624999999999867
40
0.0624999999999867
40
0.0781249999999833
40
0.0781249999999833
40
0.0937499999999798
40
0.0937499999999798
40
0.109374999999976
40
0.109374999999976
40
0.124999999999973
40
0.124999999999973
40
0.156249999999972
40
0.156249999999972
40
0.18749999999997
40
0.18749999999997
40
0.218749999999969
40
0.218749999999969
40
0.249999999999968
40
0.249999999999968
40
0.312499999999971
40
0.312499999999971
40
0.374999999999975
40
0.374999999999975
40
0.437499999999978
40
0.437499999999978
40
0.499999999999981
40
0.499999999999981
40
0.624999999999986
40
0.624999999999986
40
0.749999999999991
40
0.749999999999991
40
0.874999999999995
40
0.874999999999995
40
1
40
1
40
1
40
1
41
1
10
767.65725
20
4.81300077608853
30
0
41
1
10
767.651504019412
20
4.80675756822228
30
0
41
1
10
767.645562032547
20
4.80102052581776
30
0
41
1
10
767.636173868919
20
4.79363563790446
30
0
41
1
10
767.632934582796
20
4.7913661906527
30
0
41
1
10
767.626456423823
20
4.78751267870587
30
0
41
1
10
767.623206249598
20
4.78591444928281
30
0
41
1
10
767.616679007415
20
4.78351267102141
30
0
41
1
10
767.613410600665
20
4.78272604355254
30
0
41
1
10
767.607155609752
20
4.78211145607668
30
0
41
1
10
767.604130939752
20
4.78226690387658
30
0
41
1
10
767.598292350859
20
4.78352298597088
30
0
41
1
10
767.595566601946
20
4.78460575052424
30
0
41
1
10
767.590489278569
20
4.78752476103142
30
0
41
1
10
767.588112971955
20
4.78938265582843
30
0
41
1
10
767.581613884674
20
4.7957566661164
30
0
41
1
10
767.578062659975
20
4.80104449451312
30
0
41
1
10
767.571955848628
20
4.8129321558834
30
0
41
1
10
767.569468043213
20
4.81942538208892
30
0
41
1
10
767.565268240537
20
4.83298706326713
30
0
41
1
10
767.563550857928
20
4.84008594862604
30
0
41
1
10
767.560668544573
20
4.85473794324832
30
0
41
1
10
767.559504808488
20
4.86231333341613
30
0
41
1
10
767.556697322695
20
4.88525298841307
30
0
41
1
10
767.555698921822
20
4.90092232287515
30
0
41
1
10
767.554821291976
20
4.93272805589584
30
0
41
1
10
767.554953926447
20
4.94886985229874
30
0
41
1
10
767.556073942524
20
4.9815002690865
30
0
41
1
10
767.557064818986
20
4.9979904797159
30
0
41
1
10
767.559752365197
20
5.03125005406571
30
0
41
1
10
767.561454878509
20
5.04805085687082
30
0
41
1
10
767.567435104076
20
5.09841025140776
30
0
41
1
10
767.572578220577
20
5.13203020932241
30
0
41
1
10
767.58472571909
20
5.1993330468207
30
0
41
1
10
767.591737261913
20
5.2330164868585
30
0
41
1
10
767.607475405843
20
5.30044013411151
30
0
41
1
10
767.61620361901
20
5.33418044809946
30
0
41
1
10
767.635388443788
20
5.40172553622153
30
0
41
1
10
767.645843817015
20
5.43553016632893
30
0
41
1
10
767.657249999998
20
5.46937827944004
30
0
0
SPLINE
5
1B8
100
AcDbEntity
8
1
62
256
6
ByLayer
370
18
48
1
60
0
100
AcDbSpline
70
4
71
3
72
8
73
4
40
0
40
0
40
0
40
0
40
1
40
1
40
1
40
1
41
1
10
767.65725
20
5.46937827944021
30
0
41
1
10
767.856117493986
20
6.05952219002069
30
0
41
1
10
768.080255339592
20
6.63669025436155
30
0
41
1
10
768.325
20
7.20327711016273
30
0
0
SPLINE
5
1B9
100
AcDbEntity
8
1
62
256
6
ByLayer
370
18
48
1
60
0
100
AcDbSpline
70
4
71
3
72
8
73
4
40
0
40
0
40
0
40
0
40
1
40
1
40
1
40
1
41
1
10
767.80379947275
20
7.1992127690134
30
0
41
1
10
767.7549342535
20
7.1571758186451
30
0
41
1
10
767.706084164563
20
7.11511538452777
30
0
41
1
10
767.65725
20
7.07303023419621
30
0
0
SPLINE
5
1BA
100
AcDbEntity
8
1
62
256
6
ByLayer
370
18
48
1
60
0
100
AcDbSpline
70
4
71
3
72
20
73
16
40
0
40
0
40
0
40
0
40
0.125000000000008
40
0.125000000000008
40
0.250000000000016
40
0.250000000000016
40
0.500000000000026
40
0.500000000000026
40
0.62500000000002
40
0.62500000000002
40
0.750000000000013
40
0.750000000000013
40
0.875000000000007
40
0.875000000000007
40
1
40
1
40
1
40
1
41
1
10
767.65725
20
7.07303023419547
30
0
41
1
10
767.653503123974
20
7.06980118661716
30
0
41
1
10
767.649730570359
20
7.06673275440914
30
0
41
1
10
767.642124555343
20
7.06097576858207
30
0
41
1
10
767.638266964721
20
7.05827235095398
30
0
41
1
10
767.626793311327
20
7.05098689484703
30
0
41
1
10
767.619287945505
20
7.04721126474141
30
0
41
1
10
767.608312948674
20
7.04366362677189
30
0
41
1
10
767.604703178746
20
7.04284783169476
30
0
41
1
10
767.597883488655
20
7.04205613594206
30
0
41
1
10
767.59463556658
20
7.04206552388251
30
0
41
1
10
767.588467899626
20
7.04290266054363
30
0
41
1
10
767.585552526806
20
7.04373987183794
30
0
41
1
10
767.580237286306
20
7.0461300529318
30
0
41
1
10
767.57780711436
20
7.04768474554913
30
0
41
1
10
767.575581557728
20
7.0495616771961
30
0
0
SPLINE
5
1BB
100
AcDbEntity
8
1
62
256
6
ByLayer
370
18
48
1
60
0
100
AcDbSpline
70
4
71
3
72
16
73
12
40
0
40
0
40
0
40
0
40
0.125000000000004
40
0.125000000000004
40
0.250000000000008
40
0.250000000000008
40
0.500000000000006
40
0.500000000000006
40
0.750000000000003
40
0.750000000000003
40
1
40
1
40
1
40
1
41
1
10
767.575581557728
20
-7.04956167720178
30
0
41
1
10
767.577788864283
20
-7.04770013682645
30
0
41
1
10
767.580201347697
20
-7.04615211699172
30
0
41
1
10
767.585487407249
20
-7.04376336381523
30
0
41
1
10
767.588395235164
20
-7.04291957040709
30
0
41
1
10
767.597641280825
20
-7.04164371672937
30
0
41
1
10
767.604422860344
20
-7.04242852447322
30
0
41
1
10
767.61916877056
20
-7.04715090907035
30
0
41
1
10
767.626748455104
20
-7.05095701395356
30
0
41
1
10
767.642168070188
20
-7.06075084754104
30
0
41
1
10
767.649756918934
20
-7.0665727172979
30
0
41
1
10
767.65725
20
-7.07303023420064
30
0
0
SPLINE
5
1BC
100
AcDbEntity
8
1
62
256
6
ByLayer
370
13
48
1
60
0
100
AcDbSpline
70
4
71
3
72
26
73
22
40
0
40
0
40
0
40
0
40
0.0625000000000002
40
0.0625000000000002
40
0.125
40
0.125
40
0.25
40
0.25
40
0.375
40
0.375
40
0.500000000000001
40
0.500000000000001
40
0.625000000000001
40
0.625000000000001
40
0.750000000000001
40
0.750000000000001
40
0.812500000000001
40
0.812500000000001
40
0.875000000000001
40
0.875000000000001
40
1
40
1
40
1
40
1
41
1
10
764.75
20
39.9999999999972
30
0
41
1
10
764.772159482537
20
39.9999999999972
30
0
41
1
10
764.794310860581
20
39.9980605152055
30
0
41
1
10
764.838494204388
20
39.9903023252917
30
0
41
1
10
764.860484536774
20
39.9844904107212
30
0
41
1
10
764.925971759453
20
39.9613089611792
30
0
41
1
10
764.968989879582
20
39.9381972119747
30
0
41
1
10
765.052799644428
20
39.8768345145224
30
0
41
1
10
765.093593841874
20
39.8385835033917
30
0
41
1
10
765.171921382337
20
39.7469895203766
30
0
41
1
10
765.209458265976
20
39.6936467397767
30
0
41
1
10
765.280055843095
20
39.57178678437
30
0
41
1
10
765.3131222214
20
39.5032701348037
30
0
41
1
10
765.373249546134
20
39.3508399876984
30
0
41
1
10
765.400320933463
20
39.2669275573561
30
0
41
1
10
765.434869742119
20
39.1292222719899
30
0
41
1
10
765.445371596212
20
39.0813441833132
30
0
41
1
10
765.463996918254
20
38.9815813348752
30
0
41
1
10
765.472095585676
20
38.929831811931
30
0
41
1
10
765.492167463508
20
38.768974636565
30
0
41
1
10
765.5
20
38.6542634508771
30
0
41
1
10
765.5
20
38.5320121951195
30
0
0
SPLINE
5
1BD
100
AcDbEntity
8
1
62
256
6
ByLayer
370
18
48
1
60
0
100
AcDbSpline
70
4
71
3
72
10
73
6
40
0
40
0
40
0
40
0
40
0.5
40
0.5
40
1
40
1
40
1
40
1
41
1
10
768.325
20
18.4585929893887
30
0
41
1
10
768.254077218736
20
18.0874393421934
30
0
41
1
10
768.160083064707
20
17.7259489143724
30
0
41
1
10
767.934818787514
20
17.0185807346988
30
0
41
1
10
767.803545178726
20
16.6727044427661
30
0
41
1
10
767.657249999994
20
16.3331197888381
30
0
0
SPLINE
5
1BE
100
AcDbEntity
8
1
62
256
6
ByLayer
370
18
48
1
60
0
100
AcDbSpline
70
4
71
3
72
103
73
99
40
0
40
0
40
0
40
0
40
0.0039062500000028
40
0.0039062500000028
40
0.0058593750000042
40
0.0058593750000042
40
0.0078125000000056
40
0.0078125000000056
40
0.008789062500006
40
0.008789062500006
40
0.0097656250000063
40
0.0097656250000063
40
0.0107421875000067
40
0.0107421875000067
40
0.011718750000007
40
0.011718750000007
40
0.013671875000007
40
0.013671875000007
40
0.015625000000007
40
0.015625000000007
40
0.017578125000007
40
0.017578125000007
40
0.0195312500000069
40
0.0195312500000069
40
0.0234375000000069
40
0.0234375000000069
40
0.0273437500000069
40
0.0273437500000069
40
0.0312500000000068
40
0.0312500000000068
40
0.0390625000000064
40
0.0390625000000064
40
0.046875000000006
40
0.046875000000006
40
0.0625000000000065
40
0.0625000000000065
40
0.078125000000007
40
0.078125000000007
40
0.0937500000000075
40
0.0937500000000075
40
0.125000000000007
40
0.125000000000007
40
0.156250000000007
40
0.156250000000007
40
0.187500000000007
40
0.187500000000007
40
0.250000000000007
40
0.250000000000007
40
0.312500000000006
40
0.312500000000006
40
0.375000000000006
40
0.437500000000005
40
0.437500000000005
40
0.500000000000005
40
0.562500000000005
40
0.562500000000005
40
0.625000000000004
40
0.687500000000004
40
0.687500000000004
40
0.750000000000003
40
0.750000000000003
40
0.812500000000003
40
0.812500000000003
40
0.843750000000003
40
0.843750000000003
40
0.875000000000003
40
0.875000000000003
40
0.906250000000002
40
0.906250000000002
40
0.937500000000002
40
0.937500000000002
40
0.953125000000002
40
0.953125000000002
40
0.960937500000001
40
0.960937500000001
40
0.968750000000001
40
0.968750000000001
40
0.9765625
40
0.9765625
40
0.980468749999999
40
0.980468749999999
40
0.984374999999998
40
0.984374999999998
40
0.986328124999998
40
0.986328124999998
40
0.988281249999998
40
0.988281249999998
40
0.989257812499998
40
0.989257812499998
40
0.990234374999998
40
0.990234374999998
40
0.992187499999998
40
0.992187499999998
40
0.994140624999998
40
0.994140624999998
40
0.996093749999999
40
0.996093749999999
40
1
40
1
40
1
40
1
41
1
10
767.657249999995
20
16.3331197888383
30
0
41
1
10
767.653301423677
20
16.3239542378342
30
0
41
1
10
767.649062278602
20
16.314999839924
30
0
41
1
10
767.641890292588
20
16.3023824627649
30
0
41
1
10
767.639344045072
20
16.2982876871014
30
0
41
1
10
767.633862944293
20
16.2906704770631
30
0
41
1
10
767.630905631629
20
16.2871104422306
30
0
41
1
10
767.62609657547
20
16.2827202993821
30
0
41
1
10
767.624438975238
20
16.2814237818054
30
0
41
1
10
767.620973923811
20
16.2792892659032
30
0
41
1
10
767.619165204414
20
16.2784618927661
30
0
41
1
10
767.615556785188
20
16.2774943675238
30
0
41
1
10
767.61370867895
20
16.2773488210593
30
0
41
1
10
767.610180584916
20
16.2777857364227
30
0
41
1
10
767.60846829005
20
16.2783624395565
30
0
41
1
10
767.60363068392
20
16.2809647486445
30
0
41
1
10
767.600854969398
20
16.2837884527647
30
0
41
1
10
767.596024565015
20
16.2903392664298
30
0
41
1
10
767.59396562342
20
16.2940542278259
30
0
41
1
10
767.590246483775
20
16.3019775369543
30
0
41
1
10
767.588612584204
20
16.3061521710441
30
0
41
1
10
767.585658623901
20
16.3146641163251
30
0
41
1
10
767.584332664393
20
16.3190233585161
30
0
41
1
10
767.580665021383
20
16.3323140567846
30
0
41
1
10
767.578627539057
20
16.341454393343
30
0
41
1
10
767.575020258094
20
16.3600592765794
30
0
41
1
10
767.573458990611
20
16.3695258214676
30
0
41
1
10
767.570681498253
20
16.3885053145536
30
0
41
1
10
767.569461933954
20
16.3980474248398
30
0
41
1
10
767.566164724209
20
16.4267872215063
30
0
41
1
10
767.564441871258
20
16.4460963751801
30
0
41
1
10
767.561565262987
20
16.4848993521621
30
0
41
1
10
767.560418250916
20
16.5043951900489
30
0
41
1
10
767.557575244483
20
16.5630834174568
30
0
41
1
10
767.556465663615
20
16.6024730525798
30
0
41
1
10
767.555135765611
20
16.6815771273821
30
0
41
1
10
767.5549295177
20
16.7212583231011
30
0
41
1
10
767.555109823879
20
16.8006259198066
30
0
41
1
10
767.555499793026
20
16.840345729402
30
0
41
1
10
767.557293455112
20
16.9595919780079
30
0
41
1
10
767.559308234818
20
17.0392042586659
30
0
41
1
10
767.564196181932
20
17.1985984506361
30
0
41
1
10
767.56708109708
20
17.2783812662432
30
0
41
1
10
767.573316966476
20
17.4380864886319
30
0
41
1
10
767.576671708505
20
17.5180091875503
30
0
41
1
10
767.587049936215
20
17.7579573823311
30
0
41
1
10
767.594374358784
20
17.9182360785491
30
0
41
1
10
767.608485845607
20
18.2387123301405
30
0
41
1
10
767.615286090069
20
18.3989234241573
30
0
41
1
10
767.627532712958
20
18.719298552105
30
0
41
1
10
767.638431938168
20
19.0396265628962
30
0
41
1
10
767.645462457192
20
19.3598699455466
30
0
41
1
10
767.650191912683
20
19.6800739979357
30
0
41
1
10
767.652618523692
20
20.0002387320252
30
0
41
1
10
767.650187524562
20
20.320326922328
30
0
41
1
10
767.645457290143
20
20.6403758493426
30
0
41
1
10
767.638429381582
20
20.9603855006096
30
0
41
1
10
767.62754588067
20
21.2803107722907
30
0
41
1
10
767.615321771864
20
21.6001891502427
30
0
41
1
10
767.608536385057
20
21.7601049199368
30
0
41
1
10
767.594458716991
20
22.0798827704283
30
0
41
1
10
767.5871536225
20
22.2397449609439
30
0
41
1
10
767.576777768777
20
22.4794899901419
30
0
41
1
10
767.573420214871
20
22.5593969217903
30
0
41
1
10
767.56717100212
20
22.7191924148687
30
0
41
1
10
767.564275469638
20
22.7990810088279
30
0
41
1
10
767.559360408876
20
22.9588363731542
30
0
41
1
10
767.557331970261
20
23.038667524483
30
0
41
1
10
767.554915618715
20
23.1976889205649
30
0
41
1
10
767.554474000375
20
23.2769449256313
30
0
41
1
10
767.556408527631
20
23.395141685333
30
0
41
1
10
767.557490962645
20
23.4344250564922
30
0
41
1
10
767.56027893944
20
23.4930695492682
30
0
41
1
10
767.561405199969
20
23.5125703442786
30
0
41
1
10
767.56423493603
20
23.5514384747194
30
0
41
1
10
767.565931575081
20
23.5708072543238
30
0
41
1
10
767.5702707399
20
23.6093334837028
30
0
41
1
10
767.572876911364
20
23.6284986132853
30
0
41
1
10
767.578280301633
20
23.656922049097
30
0
41
1
10
767.580322520626
20
23.6662675322797
30
0
41
1
10
767.585238144679
20
23.6844129311106
30
0
41
1
10
767.588077516882
20
23.6932127309461
30
0
41
1
10
767.59358496363
20
23.7052161685006
30
0
41
1
10
767.595658717637
20
23.7090581612393
30
0
41
1
10
767.600477568669
20
23.7157909426854
30
0
41
1
10
767.603260702252
20
23.7187147664823
30
0
41
1
10
767.608034973336
20
23.7214541328523
30
0
41
1
10
767.609764356208
20
23.7221008805326
30
0
41
1
10
767.613312362299
20
23.7226512478304
30
0
41
1
10
767.615150048834
20
23.7225628925132
30
0
41
1
10
767.620665102832
20
23.7212252532115
30
0
41
1
10
767.624234052256
20
23.7189366016314
30
0
41
1
10
767.630712654505
20
23.7131061781788
30
0
41
1
10
767.633714095519
20
23.7095172477654
30
0
41
1
10
767.639223963314
20
23.7018974155203
30
0
41
1
10
767.641766744744
20
23.6978234406917
30
0
41
1
10
767.64900699551
20
23.685119613276
30
0
41
1
10
767.653288339033
20
23.6760761346166
30
0
41
1
10
767.65725
20
23.6668802111418
30
0
0
SPLINE
5
1BF
100
AcDbEntity
8
1
62
256
6
ByLayer
370
18
48
1
60
0
100
AcDbSpline
70
4
71
3
72
10
73
6
40
0
40
0
40
0
40
0
40
0.5
40
0.5
40
1
40
1
40
1
40
1
41
1
10
767.65725
20
23.6668802111417
30
0
41
1
10
767.80354517873
20
23.327295557216
30
0
41
1
10
767.934818787518
20
22.9814192652855
30
0
41
1
10
768.160083064708
20
22.2740510856166
30
0
41
1
10
768.254077218737
20
21.9125606577982
30
0
41
1
10
768.325
20
21.5414070106056
30
0
0
SPLINE
5
1C0
100
AcDbEntity
8
1
62
256
6
ByLayer
370
18
48
1
60
0
100
AcDbSpline
70
4
71
3
72
8
73
4
40
0
40
0
40
0
40
0
40
1
40
1
40
1
40
1
41
1
10
768.325
20
24.0532515062519
30
0
41
1
10
768.165581223844
20
25.2220587692588
30
0
41
1
10
767.940369761457
20
26.3739255107605
30
0
41
1
10
767.65725
20
27.5108818292061
30
0
0
SPLINE
5
1C1
100
AcDbEntity
8
1
62
256
6
ByLayer
370
18
48
1
60
0
100
AcDbSpline
70
4
71
3
72
38
73
34
40
0
40
0
40
0
40
0
40
0.250000000000003
40
0.250000000000003
40
0.375000000000004
40
0.375000000000004
40
0.500000000000005
40
0.500000000000005
40
0.625000000000005
40
0.625000000000005
40
0.687500000000001
40
0.687500000000001
40
0.749999999999996
40
0.749999999999996
40
0.812499999999992
40
0.812499999999992
40
0.843749999999994
40
0.843749999999994
40
0.874999999999996
40
0.874999999999996
40
0.890624999999997
40
0.890624999999997
40
0.906249999999998
40
0.906249999999998
40
0.921874999999999
40
0.921874999999999
40
0.9375
40
0.9375
40
0.953125000000001
40
0.953125000000001
40
0.968750000000002
40
0.968750000000002
40
1
40
1
40
1
40
1
41
1
10
767.65725
20
27.510881829206
30
0
41
1
10
767.63716054397
20
27.5915573491706
30
0
41
1
10
767.619450956248
20
27.6721410317698
30
0
41
1
10
767.596561035942
20
27.7928680077281
30
0
41
1
10
767.589551068575
20
27.8331181043106
30
0
41
1
10
767.57702566488
20
27.9134280274953
30
0
41
1
10
767.571531729368
20
27.95331456204
30
0
41
1
10
767.562511855497
20
28.0324242113643
30
0
41
1
10
767.558965882088
20
28.0716531908838
30
0
41
1
10
767.555852527797
20
28.1297850500823
30
0
41
1
10
767.555186994494
20
28.149042372476
30
0
41
1
10
767.554879827929
20
28.1872352288606
30
0
41
1
10
767.555228028269
20
28.2061737359691
30
0
41
1
10
767.557508733814
20
28.2435648887785
30
0
41
1
10
767.559446424528
20
28.2621685423728
30
0
41
1
10
767.56439774179
20
28.2882186991983
30
0
41
1
10
767.566393256596
20
28.2966210940716
30
0
41
1
10
767.571427719528
20
28.3125823953395
30
0
41
1
10
767.574462350045
20
28.320186218913
30
0
41
1
10
767.580359838197
20
28.3303812819854
30
0
41
1
10
767.582518143518
20
28.3335070255003
30
0
41
1
10
767.587336978513
20
28.3390490514091
30
0
41
1
10
767.590030958628
20
28.3414861799516
30
0
41
1
10
767.595913788946
20
28.3452619074809
30
0
41
1
10
767.599092314855
20
28.3466090579636
30
0
41
1
10
767.606024814214
20
28.3479936140611
30
0
41
1
10
767.60966234777
20
28.3479959168803
30
0
41
1
10
767.617139507211
20
28.3466707159443
30
0
41
1
10
767.62103524075
20
28.3453168047229
30
0
41
1
10
767.628645050974
20
28.3415903478704
30
0
41
1
10
767.63240740058
20
28.3392196334807
30
0
41
1
10
767.64359324305
20
28.3309037559711
30
0
41
1
10
767.650578102513
20
28.3240551738897
30
0
41
1
10
767.65725
20
28.3165319633723
30
0
0
SPLINE
5
1C2
100
AcDbEntity
8
1
62
256
6
ByLayer
370
18
48
1
60
0
100
AcDbSpline
70
4
71
3
72
8
73
4
40
0
40
0
40
0
40
0
40
1
40
1
40
1
40
1
41
1
10
767.657249999996
20
28.3165319633657
30
0
41
1
10
767.882439703317
20
28.0626087656918
30
0
41
1
10
768.105220267216
20
27.8059028330085
30
0
41
1
10
768.325
20
27.5457307174543
30
0
0
SPLINE
5
1C3
100
AcDbEntity
8
1
62
256
6
ByLayer
370
18
48
1
60
0
100
AcDbSpline
70
4
71
3
72
8
73
4
40
0
40
0
40
0
40
0
40
1
40
1
40
1
40
1
41
1
10
768.325
20
28.3586321419766
30
0
41
1
10
768.122833855469
20
29.0564398856433
30
0
41
1
10
767.899443492047
20
29.745105815512
30
0
41
1
10
767.65725
20
30.4256727570695
30
0
0
SPLINE
5
1C4
100
AcDbEntity
8
1
62
256
6
ByLayer
370
18
48
1
60
0
100
AcDbSpline
70
4
71
3
72
39
73
35
40
0
40
0
40
0
40
0
40
0.124999999999983
40
0.249999999999966
40
0.249999999999966
40
0.374999999999949
40
0.374999999999949
40
0.499999999999932
40
0.499999999999932
40
0.624999999999916
40
0.624999999999916
40
0.687499999999916
40
0.687499999999916
40
0.71874999999992
40
0.71874999999992
40
0.749999999999925
40
0.749999999999925
40
0.781249999999929
40
0.781249999999929
40
0.812499999999933
40
0.812499999999933
40
0.843749999999937
40
0.843749999999937
40
0.874999999999941
40
0.874999999999941
40
0.906249999999946
40
0.906249999999946
40
0.921874999999953
40
0.921874999999953
40
0.937499999999961
40
0.937499999999961
40
0.96874999999998
40
0.96874999999998
40
1
40
1
40
1
40
1
41
1
10
767.65725
20
30.4256727570695
30
0
41
1
10
767.646580757253
20
30.4556534714292
30
0
41
1
10
767.626666964633
20
30.5154524870271
30
0
41
1
10
767.609474495294
20
30.5749319116961
30
0
41
1
10
767.593723142902
20
30.6342413573174
30
0
41
1
10
767.586565111271
20
30.6638113724729
30
0
41
1
10
767.573950192746
20
30.722754806684
30
0
41
1
10
767.568478888485
20
30.7521542599787
30
0
41
1
10
767.559868126884
20
30.8105946104137
30
0
41
1
10
767.556764204021
20
30.8392257050359
30
0
41
1
10
767.554929433022
20
30.8808204558509
30
0
41
1
10
767.55479395776
20
30.8944573349876
30
0
41
1
10
767.555616302648
20
30.9144276148418
30
0
41
1
10
767.55606606811
20
30.9210179727047
30
0
41
1
10
767.557381723674
20
30.9338163323398
30
0
41
1
10
767.558246925812
20
30.9400427332851
30
0
41
1
10
767.560494611393
20
30.9520666294951
30
0
41
1
10
767.5618756436
20
30.9578653069908
30
0
41
1
10
767.565318935334
20
30.9689003930914
30
0
41
1
10
767.567398569345
20
30.974176648254
30
0
41
1
10
767.572430566598
20
30.9837365091114
30
0
41
1
10
767.575359520263
20
30.9879983330601
30
0
41
1
10
767.582352105876
20
30.9951036975198
30
0
41
1
10
767.586358027436
20
30.9978576113879
30
0
41
1
10
767.595394612178
20
31.001262794958
30
0
41
1
10
767.600550748122
20
31.0019022096185
30
0
41
1
10
767.608635032293
20
31.0010852451275
30
0
41
1
10
767.611401776354
20
31.0005305785545
30
0
41
1
10
767.617073916069
20
30.9988780653417
30
0
41
1
10
767.619995357271
20
30.9977698190818
30
0
41
1
10
767.628690733006
20
30.9937944544214
30
0
41
1
10
767.634474936355
20
30.9902721402696
30
0
41
1
10
767.646023948476
20
30.9819041255761
30
0
41
1
10
767.651713152806
20
30.9771061699152
30
0
41
1
10
767.65725
20
30.9719368077116
30
0
0
SPLINE
5
1C5
100
AcDbEntity
8
1
62
256
6
ByLayer
370
18
48
1
60
0
100
AcDbSpline
70
4
71
3
72
8
73
4
40
0
40
0
40
0
40
0
40
1
40
1
40
1
40
1
41
1
10
767.65725
20
30.9719368077098
30
0
41
1
10
767.880459452193
20
30.7635419459523
30
0
41
1
10
768.103076961139
20
30.5543076667784
30
0
41
1
10
768.325
20
30.344088579877
30
0
0
SPLINE
5
1C6
100
AcDbEntity
8
1
62
256
6
ByLayer
370
18
48
1
60
0
100
AcDbSpline
70
4
71
3
72
8
73
4
40
0
40
0
40
0
40
0
40
1
40
1
40
1
40
1
41
1
10
768.325
20
30.8997529695331
30
0
41
1
10
768.11364948325
20
31.4423948710266
30
0
41
1
10
767.890641792267
20
31.9785874716291
30
0
41
1
10
767.65725
20
32.5090350955904
30
0
0
SPLINE
5
1C7
100
AcDbEntity
8
1
62
256
6
ByLayer
370
18
48
1
60
0
100
AcDbSpline
70
4
71
3
72
39
73
35
40
0
40
0
40
0
40
0
40
0.125000000000012
40
0.250000000000024
40
0.250000000000024
40
0.375000000000037
40
0.375000000000037
40
0.437500000000041
40
0.437500000000041
40
0.500000000000045
40
0.500000000000045
40
0.625000000000058
40
0.625000000000058
40
0.687500000000053
40
0.687500000000053
40
0.718750000000048
40
0.718750000000048
40
0.750000000000042
40
0.750000000000042
40
0.781250000000037
40
0.781250000000037
40
0.812500000000032
40
0.812500000000032
40
0.843750000000026
40
0.843750000000026
40
0.875000000000021
40
0.875000000000021
40
0.906250000000016
40
0.906250000000016
40
0.937500000000011
40
0.937500000000011
40
0.968750000000005
40
0.968750000000005
40
1
40
1
40
1
40
1
41
1
10
767.65725
20
32.5090350955904
30
0
41
1
10
767.646225164343
20
32.5340920944762
30
0
41
1
10
767.62566280359
20
32.5839966544902
30
0
41
1
10
767.607968252586
20
32.6334872058795
30
0
41
1
10
767.591816858937
20
32.6827532154633
30
0
41
1
10
767.584508407246
20
32.7072745173253
30
0
41
1
10
767.574949499611
20
32.7438541457817
30
0
41
1
10
767.571999129151
20
32.7560133838954
30
0
41
1
10
767.566652232335
20
32.7802530319975
30
0
41
1
10
767.564261614681
20
32.7923165856257
30
0
41
1
10
767.558188988545
20
32.8278077286561
30
0
41
1
10
767.555502694857
20
32.8507348092149
30
0
41
1
10
767.554840261364
20
32.8833405981006
30
0
41
1
10
767.555202488621
20
32.8939611874137
30
0
41
1
10
767.556973345991
20
32.9088301673432
30
0
41
1
10
767.557768449191
20
32.9136195907055
30
0
41
1
10
767.559861553343
20
32.9227900961034
30
0
41
1
10
767.561164570343
20
32.9271744902936
30
0
41
1
10
767.564334883021
20
32.9352565259815
30
0
41
1
10
767.566205229861
20
32.9389775709374
30
0
41
1
10
767.570649829865
20
32.9456323698406
30
0
41
1
10
767.573254028099
20
32.9485904737491
30
0
41
1
10
767.579220243512
20
32.9533632895343
30
0
41
1
10
767.582554449094
20
32.9551710720551
30
0
41
1
10
767.590023947377
20
32.9574699819806
30
0
41
1
10
767.594177796039
20
32.9579372222939
30
0
41
1
10
767.602907259085
20
32.9574332577452
30
0
41
1
10
767.607543497602
20
32.9564786691504
30
0
41
1
10
767.617256085205
20
32.9532340128428
30
0
41
1
10
767.622195531083
20
32.9509958721138
30
0
41
1
10
767.632212550562
20
32.9454995925673
30
0
41
1
10
767.63731316436
20
32.9422185261577
30
0
41
1
10
767.647347757395
20
32.9349952927317
30
0
41
1
10
767.652317900227
20
32.931036209286
30
0
41
1
10
767.65725
20
32.9267973886494
30
0
0
SPLINE
5
1C8
100
AcDbEntity
8
1
62
256
6
ByLayer
370
18
48
1
60
0
100
AcDbSpline
70
4
71
3
72
8
73
4
40
0
40
0
40
0
40
0
40
1
40
1
40
1
40
1
41
1
10
767.65725
20
32.9267973886476
30
0
41
1
10
767.880013178354
20
32.7353468501396
30
0
41
1
10
768.102604575939
20
32.5436304116657
30
0
41
1
10
768.325
20
32.3516106251919
30
0
0
SPLINE
5
1C9
100
AcDbEntity
8
1
62
256
6
ByLayer
370
18
48
1
60
0
100
AcDbSpline
70
4
71
3
72
8
73
4
40
0
40
0
40
0
40
0
40
1
40
1
40
1
40
1
41
1
10
768.325
20
32.7766387719466
30
0
41
1
10
768.109664772761
20
33.2336986822644
30
0
41
1
10
767.886818670973
20
33.6858303643842
30
0
41
1
10
767.65725
20
34.1335510614963
30
0
0
SPLINE
5
1CA
100
AcDbEntity
8
1
62
256
6
ByLayer
370
18
48
1
60
0
100
AcDbSpline
70
4
71
3
72
34
73
30
40
0
40
0
40
0
40
0
40
0.125000000000009
40
0.125000000000009
40
0.250000000000017
40
0.250000000000017
40
0.375000000000026
40
0.375000000000026
40
0.500000000000034
40
0.500000000000034
40
0.562500000000036
40
0.562500000000036
40
0.625000000000037
40
0.625000000000037
40
0.687500000000039
40
0.687500000000039
40
0.718750000000034
40
0.718750000000034
40
0.750000000000029
40
0.750000000000029
40
0.812500000000026
40
0.812500000000026
40
0.875000000000022
40
0.875000000000022
40
0.906250000000019
40
0.906250000000019
40
0.937500000000016
40
0.937500000000016
40
1
40
1
40
1
40
1
41
1
10
767.65725
20
34.1335510614963
30
0
41
1
10
767.645947569855
20
34.1555938423444
30
0
41
1
10
767.635390176449
20
34.1775242066399
30
0
41
1
10
767.615742019619
20
34.2211582295485
30
0
41
1
10
767.60665006824
20
34.2428620850196
30
0
41
1
10
767.590085510798
20
34.2860169256364
30
0
41
1
10
767.582606227346
20
34.3074688857756
30
0
41
1
10
767.569694945613
20
34.3500545638413
30
0
41
1
10
767.564359427979
20
34.3708411368192
30
0
41
1
10
767.558704902089
20
34.400904502113
30
0
41
1
10
767.557224027691
20
34.4107172130484
30
0
41
1
10
767.555295929659
20
34.4295732544308
30
0
41
1
10
767.554838459604
20
34.4386516861358
30
0
41
1
10
767.555262619244
20
34.4558895857236
30
0
41
1
10
767.556158911307
20
34.4640906829774
30
0
41
1
10
767.558858420317
20
34.4750092570382
30
0
41
1
10
767.559984533795
20
34.4784317834433
30
0
41
1
10
767.562777789928
20
34.4847593715439
30
0
41
1
10
767.564455662166
20
34.4876686534013
30
0
41
1
10
767.570292459914
20
34.4952279622178
30
0
41
1
10
767.575288908285
20
34.4988325026111
30
0
41
1
10
767.5880517706
20
34.50222375713
30
0
41
1
10
767.595399596579
20
34.5018954890103
30
0
41
1
10
767.607827631656
20
34.4984711290418
30
0
41
1
10
767.612142497255
20
34.4968503871693
30
0
41
1
10
767.620909687214
20
34.4928277405401
30
0
41
1
10
767.62538989515
20
34.4904177404295
30
0
41
1
10
767.63908284868
20
34.4821267221164
30
0
41
1
10
767.64817805849
20
34.475431859733
30
0
41
1
10
767.65725
20
34.4679225924783
30
0
0
SPLINE
5
1CB
100
AcDbEntity
8
1
62
256
6
ByLayer
370
18
48
1
60
0
100
AcDbSpline
70
4
71
3
72
8
73
4
40
0
40
0
40
0
40
0
40
1
40
1
40
1
40
1
41
1
10
767.65725
20
34.4679225924773
30
0
41
1
10
767.879873851596
20
34.2836464926937
30
0
41
1
10
768.10245879482
20
34.0993076990628
30
0
41
1
10
768.325
20
33.9148985452417
30
0
0
SPLINE
5
1CC
100
AcDbEntity
8
1
62
256
6
ByLayer
370
18
48
1
60
0
100
AcDbSpline
70
4
71
3
72
8
73
4
40
0
40
0
40
0
40
0
40
1
40
1
40
1
40
1
41
1
10
768.325
20
34.2541356041248
30
0
41
1
10
768.107474410812
20
34.6547707183881
30
0
41
1
10
767.884714477839
20
35.0514914448446
30
0
41
1
10
767.65725
20
35.4446939818547
30
0
0
SPLINE
5
1CD
100
AcDbEntity
8
1
62
256
6
ByLayer
370
18
48
1
60
0
100
AcDbSpline
70
4
71
3
72
38
73
34
40
0
40
0
40
0
40
0
40
0.125000000000012
40
0.125000000000012
40
0.250000000000023
40
0.250000000000023
40
0.312500000000029
40
0.312500000000029
40
0.375000000000035
40
0.375000000000035
40
0.437500000000041
40
0.437500000000041
40
0.500000000000047
40
0.500000000000047
40
0.562500000000053
40
0.562500000000053
40
0.625000000000059
40
0.625000000000059
40
0.687500000000064
40
0.687500000000064
40
0.718750000000064
40
0.718750000000064
40
0.750000000000063
40
0.750000000000063
40
0.812500000000046
40
0.812500000000046
40
0.875000000000028
40
0.875000000000028
40
0.906250000000017
40
0.906250000000017
40
0.937500000000007
40
0.937500000000007
40
1
40
1
40
1
40
1
41
1
10
767.65725
20
35.4446939818547
30
0
41
1
10
767.645729252828
20
35.4646091222737
30
0
41
1
10
767.6349441526
20
35.4843931058612
30
0
41
1
10
767.61485300466
20
35.5236915973044
30
0
41
1
10
767.605544881582
20
35.5432064967486
30
0
41
1
10
767.592841568741
20
35.5722469414041
30
0
41
1
10
767.588818547235
20
35.5818881626814
30
0
41
1
10
767.581249401669
20
35.6010827081509
30
0
41
1
10
767.577714050631
20
35.6106127680007
30
0
41
1
10
767.571284863396
20
35.6293031574132
30
0
41
1
10
767.568378653118
20
35.6384929493794
30
0
41
1
10
767.563283976012
20
35.6565116752604
30
0
41
1
10
767.561087923277
20
35.6653728259443
30
0
41
1
10
767.557609873028
20
35.6825080141104
30
0
41
1
10
767.556338551274
20
35.6907145969871
30
0
41
1
10
767.554922968103
20
35.7062608793257
30
0
41
1
10
767.554774658789
20
35.7136036355978
30
0
41
1
10
767.555949855096
20
35.727161780375
30
0
41
1
10
767.557306821874
20
35.7334360179691
30
0
41
1
10
767.560756288819
20
35.7412410707144
30
0
41
1
10
767.56214022622
20
35.743588807064
30
0
41
1
10
767.565441932077
20
35.7477064700671
30
0
41
1
10
767.567378919058
20
35.7494845025534
30
0
41
1
10
767.573920712581
20
35.7536924547499
30
0
41
1
10
767.57926021677
20
35.7550605634488
30
0
41
1
10
767.592119843747
20
35.7546064696248
30
0
41
1
10
767.599334569386
20
35.7527819659464
30
0
41
1
10
767.611057643271
20
35.7479670519951
30
0
41
1
10
767.615118993722
20
35.7460099259297
30
0
41
1
10
767.623294279305
20
35.7415799100321
30
0
41
1
10
767.627438854406
20
35.7390951994885
30
0
41
1
10
767.640022299474
20
35.7309333792176
30
0
41
1
10
767.648662924757
20
35.7245055162572
30
0
41
1
10
767.65725
20
35.7174895437117
30
0
0
SPLINE
5
1CE
100
AcDbEntity
8
1
62
256
6
ByLayer
370
18
48
1
60
0
100
AcDbSpline
70
4
71
3
72
8
73
4
40
0
40
0
40
0
40
0
40
1
40
1
40
1
40
1
41
1
10
767.65725
20
35.7174895437117
30
0
41
1
10
767.879835104503
20
35.5356289057229
30
0
41
1
10
768.102418501529
20
35.3537654812451
30
0
41
1
10
768.325
20
35.1718989586797
30
0
0
SPLINE
5
1CF
100
AcDbEntity
8
1
62
256
6
ByLayer
370
18
48
1
60
0
100
AcDbSpline
70
4
71
3
72
8
73
4
40
0
40
0
40
0
40
0
40
1
40
1
40
1
40
1
41
1
10
768.325
20
35.447273718451
30
0
41
1
10
768.106110862472
20
35.8070097520372
30
0
41
1
10
767.883402868273
20
36.1635681246834
30
0
41
1
10
767.65725
20
36.5172600263589
30
0
0
SPLINE
5
1D0
100
AcDbEntity
8
1
62
256
6
ByLayer
370
18
48
1
60
0
100
AcDbSpline
70
4
71
3
72
39
73
35
40
0
40
0
40
0
40
0
40
0.125000000000034
40
0.125000000000034
40
0.250000000000068
40
0.250000000000068
40
0.375000000000102
40
0.375000000000102
40
0.437500000000102
40
0.437500000000102
40
0.500000000000103
40
0.500000000000103
40
0.562500000000103
40
0.562500000000103
40
0.593750000000103
40
0.593750000000103
40
0.625000000000103
40
0.625000000000103
40
0.687500000000086
40
0.687500000000086
40
0.718750000000077
40
0.718750000000077
40
0.750000000000069
40
0.78125000000006
40
0.78125000000006
40
0.812500000000052
40
0.812500000000052
40
0.843750000000043
40
0.843750000000043
40
0.875000000000034
40
0.875000000000034
40
0.937500000000017
40
0.937500000000017
40
1
40
1
40
1
40
1
41
1
10
767.65725
20
36.5172600263589
30
0
41
1
10
767.645519386215
20
36.5356061261857
30
0
41
1
10
767.634521551363
20
36.5537784214971
30
0
41
1
10
767.614024223821
20
36.5897612937985
30
0
41
1
10
767.604521780148
20
36.6075726015411
30
0
41
1
10
767.587257567992
20
36.6427706443716
30
0
41
1
10
767.579448823552
20
36.660282368721
30
0
41
1
10
767.569812155719
20
36.6852814028831
30
0
41
1
10
767.566934654513
20
36.6934255439745
30
0
41
1
10
767.561968416092
20
36.7092694132272
30
0
41
1
10
767.559870904248
20
36.7170117988937
30
0
41
1
10
767.556719179234
20
36.7316638736271
30
0
41
1
10
767.55565509052
20
36.7385864295497
30
0
41
1
10
767.555000694993
20
36.748229933081
30
0
41
1
10
767.554940457173
20
36.7513203192796
30
0
41
1
10
767.555181959873
20
36.7572170347621
30
0
41
1
10
767.555487031506
20
36.7600307863661
30
0
41
1
10
767.5570001528
20
36.7678184648525
30
0
41
1
10
767.558794940162
20
36.7722016600437
30
0
41
1
10
767.562952677587
20
36.777274275843
30
0
41
1
10
767.564589139932
20
36.7787057040736
30
0
41
1
10
767.568291601871
20
36.7809356659737
30
0
41
1
10
767.572442699817
20
36.7825611717253
30
0
41
1
10
767.577519317191
20
36.7829420323368
30
0
41
1
10
767.583084020541
20
36.7826676901877
30
0
41
1
10
767.586091614629
20
36.7821985079421
30
0
41
1
10
767.592388092761
20
36.7806511214584
30
0
41
1
10
767.595697643422
20
36.7795724469583
30
0
41
1
10
767.602621795316
20
36.7768394676759
30
0
41
1
10
767.606262068668
20
36.7751710447108
30
0
41
1
10
767.61739864662
20
36.769454106356
30
0
41
1
10
767.625099764707
20
36.7647223175529
30
0
41
1
10
767.640942426848
20
36.7537999933519
30
0
41
1
10
767.649106107275
20
36.7475814822768
30
0
41
1
10
767.65725
20
36.7409130865511
30
0
0
SPLINE
5
1D1
100
AcDbEntity
8
1
62
256
6
ByLayer
370
18
48
1
60
0
100
AcDbSpline
70
4
71
3
72
8
73
4
40
0
40
0
40
0
40
0
40
1
40
1
40
1
40
1
41
1
10
767.65725
20
36.7409130865511
30
0
41
1
10
767.879840463616
20
36.5586511945628
30
0
41
1
10
768.102424037712
20
36.3763780833511
30
0
41
1
10
768.325
20
36.1940925803333
30
0
0
SPLINE
5
1D2
100
AcDbEntity
8
1
62
256
6
ByLayer
370
18
48
1
60
0
100
AcDbSpline
70
4
71
3
72
8
73
4
40
0
40
0
40
0
40
0
40
1
40
1
40
1
40
1
41
1
10
768.325
20
36.4181652094476
30
0
41
1
10
768.105193688956
20
36.7464520401279
30
0
41
1
10
767.882519487208
20
37.0721261063067
30
0
41
1
10
767.65725
20
37.3954357623938
30
0
0
SPLINE
5
1D3
100
AcDbEntity
8
1
62
256
6
ByLayer
370
18
48
1
60
0
100
AcDbSpline
70
4
71
3
72
39
73
35
40
0
40
0
40
0
40
0
40
0.124999999999991
40
0.124999999999991
40
0.249999999999981
40
0.249999999999981
40
0.31249999999998
40
0.31249999999998
40
0.374999999999979
40
0.374999999999979
40
0.437499999999978
40
0.437499999999978
40
0.499999999999977
40
0.499999999999977
40
0.562499999999976
40
0.562499999999976
40
0.593749999999976
40
0.593749999999976
40
0.624999999999975
40
0.656249999999974
40
0.656249999999974
40
0.687499999999974
40
0.687499999999974
40
0.749999999999978
40
0.749999999999978
40
0.78124999999998
40
0.78124999999998
40
0.812499999999983
40
0.812499999999983
40
0.874999999999988
40
0.874999999999988
40
0.937499999999994
40
0.937499999999994
40
1
40
1
40
1
40
1
41
1
10
767.65725
20
37.3954357623938
30
0
41
1
10
767.645324701891
20
37.4125511031276
30
0
41
1
10
767.634118740494
20
37.4294552571387
30
0
41
1
10
767.613209011872
20
37.4628156427117
30
0
41
1
10
767.603501112796
20
37.479273133001
30
0
41
1
10
767.590286631661
20
37.5035535488249
30
0
41
1
10
767.586092554181
20
37.5116131784899
30
0
41
1
10
767.5783577017
20
37.5273171615466
30
0
41
1
10
767.57480576526
20
37.534978185887
30
0
41
1
10
767.56841768522
20
37.5498668770472
30
0
41
1
10
767.565580397059
20
37.5570952276227
30
0
41
1
10
767.560764477946
20
37.5710325164192
30
0
41
1
10
767.558804524416
20
37.5776998844245
30
0
41
1
10
767.556019272251
20
37.5900627954492
30
0
41
1
10
767.555178204018
20
37.5957968346096
30
0
41
1
10
767.554948466163
20
37.6035628121306
30
0
41
1
10
767.55504774884
20
37.6060190500377
30
0
41
1
10
767.555629984416
20
37.6105215882266
30
0
41
1
10
767.55659262905
20
37.6146362625023
30
0
41
1
10
767.558374363258
20
37.6179169552535
30
0
41
1
10
767.560607203658
20
37.6207390298837
30
0
41
1
10
767.561960358768
20
37.6219230297089
30
0
41
1
10
767.566634579587
20
37.6246393517231
30
0
41
1
10
767.570581849335
20
37.6253836917215
30
0
41
1
10
767.577798497833
20
37.6248429403167
30
0
41
1
10
767.580440569971
20
37.6243776519336
30
0
41
1
10
767.586012659557
20
37.6229183955854
30
0
41
1
10
767.588953392389
20
37.6219268677543
30
0
41
1
10
767.598210098366
20
37.6182180088995
30
0
41
1
10
767.605040761242
20
37.6147145099867
30
0
41
1
10
767.61918299044
20
37.6062798321368
30
0
41
1
10
767.626524213264
20
37.6013513944206
30
0
41
1
10
767.641654445611
20
37.5903201751844
30
0
41
1
10
767.649445016526
20
37.5842089256619
30
0
41
1
10
767.65725
20
37.5777377493872
30
0
0
SPLINE
5
1D4
100
AcDbEntity
8
1
62
256
6
ByLayer
370
18
48
1
60
0
100
AcDbSpline
70
4
71
3
72
8
73
4
40
0
40
0
40
0
40
0
40
1
40
1
40
1
40
1
41
1
10
767.65725
20
37.5777377493872
30
0
41
1
10
767.87987051103
20
37.3931612446294
30
0
41
1
10
768.102455053618
20
37.2085268805216
30
0
41
1
10
768.325
20
37.0238289167985
30
0
0
SPLINE
5
1D5
100
AcDbEntity
8
1
62
256
6
ByLayer
370
18
48
1
60
0
100
AcDbSpline
70
4
71
3
72
8
73
4
40
0
40
0
40
0
40
0
40
1
40
1
40
1
40
1
41
1
10
768.325
20
37.2044771021002
30
0
41
1
10
768.104543176152
20
37.5075899137581
30
0
41
1
10
767.88189214863
20
37.8085394178258
30
0
41
1
10
767.65725
20
38.1075258373083
30
0
0
SPLINE
5
1D6
100
AcDbEntity
8
1
62
256
6
ByLayer
370
18
48
1
60
0
100
AcDbSpline
70
4
71
3
72
41
73
37
40
0
40
0
40
0
40
0
40
0.125000000000032
40
0.125000000000032
40
0.250000000000065
40
0.250000000000065
40
0.312500000000067
40
0.312500000000067
40
0.375000000000068
40
0.375000000000068
40
0.43750000000007
40
0.43750000000007
40
0.500000000000072
40
0.500000000000072
40
0.53125000000007
40
0.53125000000007
40
0.562500000000068
40
0.562500000000068
40
0.625000000000055
40
0.625000000000055
40
0.656250000000048
40
0.656250000000048
40
0.687500000000042
40
0.718750000000035
40
0.718750000000035
40
0.750000000000028
40
0.750000000000028
40
0.812500000000022
40
0.812500000000022
40
0.843750000000014
40
0.843750000000014
40
0.875000000000006
40
0.875000000000006
40
0.937500000000003
40
0.937500000000003
40
1
40
1
40
1
40
1
41
1
10
767.65725
20
38.1075258373083
30
0
41
1
10
767.645133612853
20
38.1236520862429
30
0
41
1
10
767.633721354955
20
38.1395227357339
30
0
41
1
10
767.61239933665
20
38.170711061677
30
0
41
1
10
767.602484034729
20
38.1860308189373
30
0
41
1
10
767.589000608029
20
38.2084940522868
30
0
41
1
10
767.584764161257
20
38.2158585816845
30
0
41
1
10
767.576991896134
20
38.2300942064249
30
0
41
1
10
767.573436872586
20
38.2369962554989
30
0
41
1
10
767.567090720929
20
38.250302272633
30
0
41
1
10
767.564285222121
20
38.256742509131
30
0
41
1
10
767.559676075155
20
38.2688376663248
30
0
41
1
10
767.557880787462
20
38.2744596070177
30
0
41
1
10
767.55608161498
20
38.2821463882735
30
0
41
1
10
767.555631576596
20
38.2845836947039
30
0
41
1
10
767.555064878203
20
38.2891802464892
30
0
41
1
10
767.554949380238
20
38.2913489762605
30
0
41
1
10
767.555163437305
20
38.2972779330212
30
0
41
1
10
767.556039062514
20
38.300489201531
30
0
41
1
10
767.558608393519
20
38.3040386442914
30
0
41
1
10
767.559685167868
20
38.3050136940431
30
0
41
1
10
767.562248039143
20
38.3064699500953
30
0
41
1
10
767.565209750923
20
38.3074386097812
30
0
41
1
10
767.568962971665
20
38.3074409983091
30
0
41
1
10
767.573116175665
20
38.3069558074684
30
0
41
1
10
767.575406894813
20
38.3064649741718
30
0
41
1
10
767.582795550642
20
38.304272219553
30
0
41
1
10
767.588325129078
20
38.3018896485199
30
0
41
1
10
767.597417129716
20
38.2971037349173
30
0
41
1
10
767.600599370303
20
38.295293765726
30
0
41
1
10
767.607106219725
20
38.2913540555667
30
0
41
1
10
767.610434173347
20
38.2892241879276
30
0
41
1
10
767.620618706119
20
38.2824046773769
30
0
41
1
10
767.627674624594
20
38.2772880411604
30
0
41
1
10
767.642242551995
20
38.2660812759396
30
0
41
1
10
767.649723591615
20
38.2600112789874
30
0
41
1
10
767.65725
20
38.2536450551939
30
0
0
SPLINE
5
1D7
100
AcDbEntity
8
1
62
256
6
ByLayer
370
18
48
1
60
0
100
AcDbSpline
70
4
71
3
72
8
73
4
40
0
40
0
40
0
40
0
40
1
40
1
40
1
40
1
41
1
10
767.65725
20
38.2536450551939
30
0
41
1
10
767.879918034686
20
38.0653009648984
30
0
41
1
10
768.102504008099
20
37.8768276604166
30
0
41
1
10
768.325
20
37.6882126704889
30
0
0
SPLINE
5
1D8
100
AcDbEntity
8
1
62
256
6
ByLayer
370
18
48
1
60
0
100
AcDbSpline
70
4
71
3
72
8
73
4
40
0
40
0
40
0
40
0
40
1
40
1
40
1
40
1
41
1
10
768.325
20
37.8306454136876
30
0
41
1
10
768.104063620197
20
38.1130190838638
30
0
41
1
10
767.881429112876
20
38.3935969271661
30
0
41
1
10
767.65725
20
38.6725412982274
30
0
0
SPLINE
5
1D9
100
AcDbEntity
8
1
62
256
6
ByLayer
370
18
48
1
60
0
100
AcDbSpline
70
4
71
3
72
32
73
28
40
0
40
0
40
0
40
0
40
0.124999999999975
40
0.124999999999975
40
0.187499999999977
40
0.187499999999977
40
0.249999999999979
40
0.249999999999979
40
0.374999999999984
40
0.374999999999984
40
0.437499999999986
40
0.437499999999986
40
0.499999999999987
40
0.499999999999987
40
0.562499999999989
40
0.562499999999989
40
0.62499999999999
40
0.62499999999999
40
0.687499999999992
40
0.687499999999992
40
0.749999999999994
40
0.749999999999994
40
0.812499999999995
40
0.812499999999995
40
0.874999999999997
40
0.874999999999997
40
1
40
1
40
1
40
1
41
1
10
767.65725
20
38.6725412982274
30
0
41
1
10
767.64494057418
20
38.68785782348
30
0
41
1
10
767.633318873656
20
38.7028671310316
30
0
41
1
10
767.617011628257
20
38.7248721403017
30
0
41
1
10
767.611764913676
20
38.7321216506197
30
0
41
1
10
767.601689781501
20
38.7464304999079
30
0
41
1
10
767.596845051518
20
38.7535142415094
30
0
41
1
10
767.583145933226
20
38.7742692173073
30
0
41
1
10
767.575242776462
20
38.7872409577647
30
0
41
1
10
767.565799614548
20
38.8049975713238
30
0
41
1
10
767.563060350952
20
38.8106387643536
30
0
41
1
10
767.558712460972
20
38.82090467516
30
0
41
1
10
767.55707817739
20
38.8255726081449
30
0
41
1
10
767.555090762479
20
38.8338053543455
30
0
41
1
10
767.554755261167
20
38.8373636261793
30
0
41
1
10
767.555617055609
20
38.842877797782
30
0
41
1
10
767.556803731201
20
38.8448870541006
30
0
41
1
10
767.560865190671
20
38.8471669635146
30
0
41
1
10
767.563668877089
20
38.8474044435774
30
0
41
1
10
767.570780971869
20
38.8461268671363
30
0
41
1
10
767.575153344153
20
38.844573234916
30
0
41
1
10
767.584978642165
20
38.8399063272724
30
0
41
1
10
767.590446879234
20
38.836805278826
30
0
41
1
10
767.602385796368
20
38.8292226370542
30
0
41
1
10
767.608690809114
20
38.824846688058
30
0
41
1
10
767.628372566574
20
38.810327656496
30
0
41
1
10
767.642665907693
20
38.7986708283637
30
0
41
1
10
767.65725
20
38.7860121158212
30
0
0
SPLINE
5
1DA
100
AcDbEntity
8
1
62
256
6
ByLayer
370
18
48
1
60
0
100
AcDbSpline
70
4
71
3
72
8
73
4
40
0
40
0
40
0
40
0
40
1
40
1
40
1
40
1
41
1
10
767.65725
20
38.7860121158212
30
0
41
1
10
767.87998075361
20
38.5926860914819
30
0
41
1
10
768.102568584439
20
38.3991409204042
30
0
41
1
10
768.325
20
38.2053559142486
30
0
0
SPLINE
5
1DB
100
AcDbEntity
8
1
62
256
6
ByLayer
370
18
48
1
60
0
100
AcDbSpline
70
4
71
3
72
8
73
4
40
0
40
0
40
0
40
0
40
1
40
1
40
1
40
1
41
1
10
768.325
20
38.3131045806175
30
0
41
1
10
768.103699542003
20
38.5780268881113
30
0
41
1
10
767.881077169411
20
38.8414602064855
30
0
41
1
10
767.65725
20
39.10353645583
30
0
0
SPLINE
5
1DC
100
AcDbEntity
8
1
62
256
6
ByLayer
370
18
48
1
60
0
100
AcDbSpline
70
4
71
3
72
39
73
35
40
0
40
0
40
0
40
0
40
0.125000000000001
40
0.125000000000001
40
0.187500000000001
40
0.187500000000001
40
0.25
40
0.25
40
0.312499999999999
40
0.312499999999999
40
0.374999999999998
40
0.374999999999998
40
0.437499999999998
40
0.437499999999998
40
0.499999999999997
40
0.499999999999997
40
0.562499999999996
40
0.562499999999996
40
0.593749999999996
40
0.593749999999996
40
0.624999999999996
40
0.656249999999995
40
0.656249999999995
40
0.687499999999995
40
0.687499999999995
40
0.749999999999996
40
0.749999999999996
40
0.812499999999997
40
0.812499999999997
40
0.874999999999998
40
0.874999999999998
40
0.937499999999999
40
0.937499999999999
40
1
40
1
40
1
40
1
41
1
10
767.65725
20
39.10353645583
30
0
41
1
10
767.644720301885
20
39.1182073123488
30
0
41
1
10
767.632831620295
20
39.1325470880633
30
0
41
1
10
767.616089807214
20
39.1534861827578
30
0
41
1
10
767.610673127516
20
39.1603955852253
30
0
41
1
10
767.600350782586
20
39.1738715592374
30
0
41
1
10
767.595467318582
20
39.1804078556129
30
0
41
1
10
767.586309842177
20
39.19303658171
30
0
41
1
10
767.582035169824
20
39.1991294935465
30
0
41
1
10
767.57418926886
20
39.2108018981859
30
0
41
1
10
767.570602612509
20
39.2164099354899
30
0
41
1
10
767.564448553245
20
39.2267218792929
30
0
41
1
10
767.561857320965
20
39.2314574894801
30
0
41
1
10
767.557802629483
20
39.2399525505422
30
0
41
1
10
767.556337441899
20
39.2437366023546
30
0
41
1
10
767.554842247904
20
39.2498809876625
30
0
41
1
10
767.554789161881
20
39.2522748174111
30
0
41
1
10
767.555879548971
20
39.2547239971618
30
0
41
1
10
767.556443906822
20
39.2553477788186
30
0
41
1
10
767.557950612297
20
39.256167768325
30
0
41
1
10
767.559837032911
20
39.2565727869556
30
0
41
1
10
767.562474123868
20
39.2561581820736
30
0
41
1
10
767.565488600722
20
39.2553319492449
30
0
41
1
10
767.56719588308
20
39.2547077456088
30
0
41
1
10
767.572808138481
20
39.2522449741242
30
0
41
1
10
767.577166551717
20
39.2498423561831
30
0
41
1
10
767.586979316917
20
39.2436893768481
30
0
41
1
10
767.592462904165
20
39.2399118777473
30
0
41
1
10
767.604001675492
20
39.2314436069544
30
0
41
1
10
767.610103027308
20
39.2267258026812
30
0
41
1
10
767.622880118554
20
39.2164563338429
30
0
41
1
10
767.629588591916
20
39.2108748441111
30
0
41
1
10
767.643220612098
20
39.1992199386352
30
0
41
1
10
767.650174656779
20
39.1931232278176
30
0
41
1
10
767.65725
20
39.1867908893216
30
0
0
SPLINE
5
1DD
100
AcDbEntity
8
1
62
256
6
ByLayer
370
18
48
1
60
0
100
AcDbSpline
70
4
71
3
72
8
73
4
40
0
40
0
40
0
40
0
40
1
40
1
40
1
40
1
41
1
10
767.65725
20
39.1867908893216
30
0
41
1
10
767.880058917021
20
38.9873798588587
30
0
41
1
10
768.102649044268
20
38.7876437561669
30
0
41
1
10
768.325
20
38.5875522985811
30
0
0
SPLINE
5
1DE
100
AcDbEntity
8
1
62
256
6
ByLayer
370
18
48
1
60
0
100
AcDbSpline
70
4
71
3
72
8
73
4
40
0
40
0
40
0
40
0
40
1
40
1
40
1
40
1
41
1
10
768.325
20
38.663003051294
30
0
41
1
10
768.10341668238
20
38.9130085961605
30
0
41
1
10
767.880803440279
20
39.161785672369
30
0
41
1
10
767.65725
20
39.4094413032536
30
0
0
SPLINE
5
1DF
100
AcDbEntity
8
1
62
256
6
ByLayer
370
18
48
1
60
0
100
AcDbSpline
70
4
71
3
72
38
73
34
40
0
40
0
40
0
40
0
40
0.124999999999994
40
0.124999999999994
40
0.18749999999999
40
0.18749999999999
40
0.249999999999987
40
0.249999999999987
40
0.312499999999984
40
0.312499999999984
40
0.374999999999981
40
0.374999999999981
40
0.437499999999978
40
0.437499999999978
40
0.468749999999978
40
0.468749999999978
40
0.499999999999978
40
0.499999999999978
40
0.56249999999998
40
0.56249999999998
40
0.624999999999983
40
0.624999999999983
40
0.687499999999986
40
0.687499999999986
40
0.749999999999989
40
0.749999999999989
40
0.812499999999992
40
0.812499999999992
40
0.874999999999994
40
0.874999999999994
40
0.937499999999997
40
0.937499999999997
40
1
40
1
40
1
40
1
41
1
10
767.65725
20
39.4094413032536
30
0
41
1
10
767.644516424558
20
39.4235477363977
30
0
41
1
10
767.632415757923
20
39.4372414059806
30
0
41
1
10
767.615362180513
20
39.4570583688118
30
0
41
1
10
767.609843681088
20
39.4635646186613
30
0
41
1
10
767.599315823628
20
39.4761942960811
30
0
41
1
10
767.594346351019
20
39.4822691112948
30
0
41
1
10
767.585057088003
20
39.4938876558972
30
0
41
1
10
767.58073649483
20
39.4994320447123
30
0
41
1
10
767.57285188582
20
39.50990094132
30
0
41
1
10
767.569289806117
20
39.514827151744
30
0
41
1
10
767.563275020147
20
39.5236417442495
30
0
41
1
10
767.560789116349
20
39.527572449867
30
0
41
1
10
767.557970403979
20
39.5326362507622
30
0
41
1
10
767.5571807071
20
39.5341915429258
30
0
41
1
10
767.55595838777
20
39.5369474349395
30
0
41
1
10
767.555522888384
20
39.5381514278959
30
0
41
1
10
767.554757589445
20
39.5412275521589
30
0
41
1
10
767.554968098834
20
39.5425694202398
30
0
41
1
10
767.556970634973
20
39.5436687956298
30
0
41
1
10
767.558727151058
20
39.5434132125527
30
0
41
1
10
767.563678010358
20
39.5413711947659
30
0
41
1
10
767.566920781157
20
39.539549883266
30
0
41
1
10
767.574553372275
20
39.5345708990511
30
0
41
1
10
767.578939391943
20
39.5314253083238
30
0
41
1
10
767.588732659252
20
39.5239611087649
30
0
41
1
10
767.594093655634
20
39.5196751489214
30
0
41
1
10
767.605369710049
20
39.5103549017165
30
0
41
1
10
767.611321002803
20
39.5052926490154
30
0
41
1
10
767.623774439075
20
39.4944635289509
30
0
41
1
10
767.630297453056
20
39.4886766426156
30
0
41
1
10
767.643565991622
20
39.4767145394122
30
0
41
1
10
767.650343891601
20
39.4705116283907
30
0
41
1
10
767.65725
20
39.4641115400969
30
0
0
SPLINE
5
1E0
100
AcDbEntity
8
1
62
256
6
ByLayer
370
18
48
1
60
0
100
AcDbSpline
70
4
71
3
72
8
73
4
40
0
40
0
40
0
40
0
40
1
40
1
40
1
40
1
41
1
10
767.65725
20
39.4641115400969
30
0
41
1
10
767.880154410721
20
39.257539643554
30
0
41
1
10
768.102747357519
20
39.0505212677334
30
0
41
1
10
768.325
20
38.8430150703254
30
0
0
SPLINE
5
1E1
100
AcDbEntity
8
1
62
256
6
ByLayer
370
18
48
1
60
0
100
AcDbSpline
70
4
71
3
72
8
73
4
40
0
40
0
40
0
40
0
40
1
40
1
40
1
40
1
41
1
10
768.325
20
38.8877094006812
30
0
41
1
10
768.103192833685
20
39.1248200564494
30
0
41
1
10
767.880586600133
20
39.3609264340748
30
0
41
1
10
767.65725
20
39.596114877436
30
0
0
SPLINE
5
1E2
100
AcDbEntity
8
1
62
256
6
ByLayer
370
18
48
1
60
0
100
AcDbSpline
70
4
71
3
72
36
73
32
40
0
40
0
40
0
40
0
40
0.125000000000001
40
0.125000000000001
40
0.187500000000001
40
0.187500000000001
40
0.250000000000001
40
0.250000000000001
40
0.3125
40
0.3125
40
0.375
40
0.375
40
0.4375
40
0.4375
40
0.5
40
0.5
40
0.5625
40
0.5625
40
0.625
40
0.625
40
0.6875
40
0.6875
40
0.75
40
0.75
40
0.8125
40
0.8125
40
0.875
40
0.875
40
0.9375
40
0.9375
40
1
40
1
40
1
40
1
41
1
10
767.65725
20
39.596114877436
30
0
41
1
10
767.644297810295
20
39.6097544033037
30
0
41
1
10
767.631971469554
20
39.6228889373599
30
0
41
1
10
767.614587766373
20
39.6416896233635
30
0
41
1
10
767.608962437992
20
39.6478234161376
30
0
41
1
10
767.598219744535
20
39.6596542662082
30
0
41
1
10
767.593162452165
20
39.6652848393075
30
0
41
1
10
767.583744054987
20
39.6759127204231
30
0
41
1
10
767.579381977264
20
39.6809109190319
30
0
41
1
10
767.571475424566
20
39.6901618127091
30
0
41
1
10
767.56796393266
20
39.6943779115571
30
0
41
1
10
767.562123476241
20
39.7016606312714
30
0
41
1
10
767.559763016764
20
39.7047635224848
30
0
41
1
10
767.556345506592
20
39.709714468606
30
0
41
1
10
767.555339389409
20
39.7114932513501
30
0
41
1
10
767.554805792477
20
39.7135574169798
30
0
41
1
10
767.555270373726
20
39.7138564274232
30
0
41
1
10
767.557760513605
20
39.7128814024541
30
0
41
1
10
767.559738775618
20
39.7116279658242
30
0
41
1
10
767.565035279268
20
39.7077230059349
30
0
41
1
10
767.568396074916
20
39.7050343713405
30
0
41
1
10
767.576150554506
20
39.6985299248084
30
0
41
1
10
767.580543608829
20
39.6947184183921
30
0
41
1
10
767.590239294518
20
39.6861116252251
30
0
41
1
10
767.595524602478
20
39.6813303234821
30
0
41
1
10
767.60658470537
20
39.6711876616564
30
0
41
1
10
767.612396656112
20
39.6657932777152
30
0
41
1
10
767.624514642587
20
39.6544403903452
30
0
41
1
10
767.630846485558
20
39.6484571722592
30
0
41
1
10
767.643842245097
20
39.6360897501959
30
0
41
1
10
767.650482231385
20
39.629728714853
30
0
41
1
10
767.65725
20
39.6232090000619
30
0
0
SPLINE
5
1E3
100
AcDbEntity
8
1
62
256
6
ByLayer
370
18
48
1
60
0
100
AcDbSpline
70
4
71
3
72
8
73
4
40
0
40
0
40
0
40
0
40
1
40
1
40
1
40
1
41
1
10
767.65725
20
39.6232090000619
30
0
41
1
10
767.880270558999
20
39.4083626422753
30
0
41
1
10
768.102866984829
20
39.1929320464142
30
0
41
1
10
768.325
20
38.9768631082309
30
0
0
SPLINE
5
1E4
100
AcDbEntity
8
1
62
256
6
ByLayer
370
18
48
1
60
0
100
AcDbSpline
70
4
71
3
72
8
73
4
40
0
40
0
40
0
40
0
40
1
40
1
40
1
40
1
41
1
10
768.325
20
38.9916679077052
30
0
41
1
10
768.1030130494
20
39.2175491122079
30
0
41
1
10
767.880412287865
20
39.442621033897
30
0
41
1
10
767.65725
20
39.6669526077349
30
0
0
SPLINE
5
1E5
100
AcDbEntity
8
1
62
256
6
ByLayer
370
18
48
1
60
0
100
AcDbSpline
70
4
71
3
72
36
73
32
40
0
40
0
40
0
40
0
40
0.146289791244262
40
0.146289791244262
40
0.219434686866391
40
0.219434686866391
40
0.29257958248852
40
0.29257958248852
40
0.365724478110649
40
0.365724478110649
40
0.438869373732779
40
0.438869373732779
40
0.475441821543844
40
0.475441821543844
40
0.512014269354909
40
0.512014269354909
40
0.58515916497704
40
0.58515916497704
40
0.621731612788106
40
0.621731612788106
40
0.658304060599171
40
0.658304060599171
40
0.731448956221302
40
0.731448956221302
40
0.76802140403236
40
0.76802140403236
40
0.804593851843417
40
0.804593851843417
40
0.87773874746551
40
0.87773874746551
40
1
40
1
40
1
40
1
41
1
10
767.65725
20
39.6669526077349
30
0
41
1
10
767.644065127169
20
39.6802065643121
30
0
41
1
10
767.631499690005
20
39.6928510008146
30
0
41
1
10
767.613767488913
20
39.7107095352662
30
0
41
1
10
767.608029628151
20
39.716490917094
30
0
41
1
10
767.597063181624
20
39.727544880084
30
0
41
1
10
767.591917003684
20
39.7327343768096
30
0
41
1
10
767.582374604036
20
39.7423602519257
30
0
41
1
10
767.577977210357
20
39.7467978161449
30
0
41
1
10
767.570069925254
20
39.7547794324607
30
0
41
1
10
767.566638932007
20
39.7582438358011
30
0
41
1
10
767.562418282625
20
39.7625062972593
30
0
41
1
10
767.561162433678
20
39.7637747334397
30
0
41
1
10
767.558973145788
20
39.7659861174857
30
0
41
1
10
767.558035604913
20
39.7669332091887
30
0
41
1
10
767.555782453196
20
39.7692094124104
30
0
41
1
10
767.55502129948
20
39.7699784801964
30
0
41
1
10
767.554990007903
20
39.7700100954518
30
0
41
1
10
767.555165390467
20
39.7698328961022
30
0
41
1
10
767.555896933859
20
39.7690938049047
30
0
41
1
10
767.556455981111
20
39.7685289974823
30
0
41
1
10
767.558654369785
20
39.7663081071407
30
0
41
1
10
767.560818210051
20
39.7641222501467
30
0
41
1
10
767.565025639673
20
39.759873097258
30
0
41
1
10
767.566596637724
20
39.7582866678991
30
0
41
1
10
767.569995938923
20
39.7548544454181
30
0
41
1
10
767.57182715684
20
39.7530057074163
30
0
41
1
10
767.577684905715
20
39.7470928227293
30
0
41
1
10
767.582079041942
20
39.742658461259
30
0
41
1
10
767.594944602186
20
39.7296801943758
30
0
41
1
10
767.603885385626
20
39.7206659715939
30
0
41
1
10
767.613528600512
20
39.710951075899
30
0
0
SPLINE
5
1E6
100
AcDbEntity
8
1
62
256
6
ByLayer
370
18
48
1
60
0
100
AcDbSpline
70
4
71
3
72
26
73
22
40
0
40
0
40
0
40
0
40
0.0312499999999967
40
0.0312499999999967
40
0.0624999999999934
40
0.0624999999999934
40
0.124999999999995
40
0.124999999999995
40
0.187499999999996
40
0.187499999999996
40
0.249999999999997
40
0.249999999999997
40
0.374999999999996
40
0.374999999999996
40
0.499999999999996
40
0.499999999999996
40
0.624999999999996
40
0.624999999999996
40
0.749999999999996
40
0.749999999999996
40
1
40
1
40
1
40
1
41
1
10
767.575581557728
20
7.0495616771961
30
0
41
1
10
767.57321606335
20
7.05155662587367
30
0
41
1
10
767.571088293822
20
7.05392702949604
30
0
41
1
10
767.567350219928
20
7.05916849260194
30
0
41
1
10
767.565720043642
20
7.06205474319177
30
0
41
1
10
767.561427389436
20
7.07137975180115
30
0
41
1
10
767.559352272886
20
7.07854151623178
30
0
41
1
10
767.556470119346
20
7.09371267051603
30
0
41
1
10
767.555638746509
20
7.10175982940871
30
0
41
1
10
767.554868824112
20
7.11853412016347
30
0
41
1
10
767.55493499286
20
7.12728257092436
30
0
41
1
10
767.556204534297
20
7.15423338952655
30
0
41
1
10
767.558429036056
20
7.17280740204632
30
0
41
1
10
767.564679172283
20
7.21075976427619
30
0
41
1
10
767.568724162297
20
7.23014637985239
30
0
41
1
10
767.578247140337
20
7.26956540854729
30
0
41
1
10
767.583735326924
20
7.28959739875972
30
0
41
1
10
767.595755071578
20
7.32960007543886
30
0
41
1
10
767.602308270639
20
7.34965644339871
30
0
41
1
10
767.623417068591
20
7.40997257872056
30
0
41
1
10
767.639391730636
20
7.45037703085387
30
0
41
1
10
767.65725
20
7.49096490440388
30
0
0
SPLINE
5
1E7
100
AcDbEntity
8
1
62
256
6
ByLayer
370
18
48
1
60
0
100
AcDbSpline
70
4
71
3
72
8
73
4
40
0
40
0
40
0
40
0
40
1
40
1
40
1
40
1
41
1
10
767.65725
20
7.49096490440388
30
0
41
1
10
767.890641792267
20
8.02141252836515
30
0
41
1
10
768.11364948325
20
8.55760512896762
30
0
41
1
10
768.325
20
9.10024703046116
30
0
0
SPLINE
5
1E8
100
AcDbEntity
8
1
62
256
6
ByLayer
370
18
48
1
60
0
100
AcDbSpline
70
4
71
3
72
8
73
4
40
0
40
0
40
0
40
0
40
1
40
1
40
1
40
1
41
1
10
768.325
20
9.65591142011726
30
0
41
1
10
768.103076961139
20
9.44569233321585
30
0
41
1
10
767.880459452193
20
9.23645805404198
30
0
41
1
10
767.65725
20
9.02806319228444
30
0
0
SPLINE
5
1E9
100
AcDbEntity
8
1
62
256
6
ByLayer
370
18
48
1
60
0
100
AcDbSpline
70
4
71
3
72
40
73
36
40
0
40
0
40
0
40
0
40
0.0312500000000096
40
0.0312500000000096
40
0.0625000000000192
40
0.0625000000000192
40
0.0781250000000228
40
0.0781250000000228
40
0.0937500000000265
40
0.0937500000000265
40
0.125000000000024
40
0.125000000000024
40
0.156250000000021
40
0.156250000000021
40
0.187500000000019
40
0.187500000000019
40
0.218750000000016
40
0.218750000000016
40
0.250000000000013
40
0.250000000000013
40
0.312500000000012
40
0.312500000000012
40
0.375000000000011
40
0.375000000000011
40
0.437500000000011
40
0.437500000000011
40
0.50000000000001
40
0.50000000000001
40
0.625000000000007
40
0.625000000000007
40
0.750000000000005
40
0.750000000000005
40
0.875000000000003
40
0.875000000000003
40
1
40
1
40
1
40
1
41
1
10
767.65725
20
9.02806319228262
30
0
41
1
10
767.651733704436
20
9.02291301768037
30
0
41
1
10
767.646066107437
20
9.01813149461606
30
0
41
1
10
767.634562152208
20
9.00978603678499
30
0
41
1
10
767.628808977809
20
9.00627610314626
30
0
41
1
10
767.62017698217
20
9.00230530784489
30
0
41
1
10
767.61727725566
20
9.00119308693945
30
0
41
1
10
767.61158738497
20
8.99951237264088
30
0
41
1
10
767.608815785729
20
8.99894563005853
30
0
41
1
10
767.600727543927
20
8.99809165776441
30
0
41
1
10
767.595584332522
20
8.99869683582068
30
0
41
1
10
767.586503060931
20
9.00205774283802
30
0
41
1
10
767.582444136122
20
9.00483097076989
30
0
41
1
10
767.575492380429
20
9.01183937929483
30
0
41
1
10
767.572565250109
20
9.01605426988647
30
0
41
1
10
767.567523949783
20
9.02554085043727
30
0
41
1
10
767.565433449283
20
9.03078924091477
30
0
41
1
10
767.561966014372
20
9.0417917022337
30
0
41
1
10
767.560571634746
20
9.04758487306765
30
0
41
1
10
767.557163017579
20
9.06563380756739
30
0
41
1
10
767.555916890592
20
9.07860889752675
30
0
41
1
10
767.554799530385
20
9.10508079225815
30
0
41
1
10
767.554919462331
20
9.11866885626074
30
0
41
1
10
767.556115737511
20
9.1463472203958
30
0
41
1
10
767.557197457677
20
9.16044022926502
30
0
41
1
10
767.5601156044
20
9.18902680542965
30
0
41
1
10
767.561958590354
20
9.20354250511815
30
0
41
1
10
767.568358916547
20
9.24712995081393
30
0
41
1
10
767.573786247854
20
9.27639908301376
30
0
41
1
10
767.586349200078
20
9.33525747247813
30
0
41
1
10
767.593494825445
20
9.36484835724235
30
0
41
1
10
767.609260086472
20
9.42430995223089
30
0
41
1
10
767.617882392817
20
9.45418110574826
30
0
41
1
10
767.636537462531
20
9.51419028828121
30
0
41
1
10
767.646566260774
20
9.5443057932647
30
0
41
1
10
767.65725
20
9.57432724292471
30
0
0
SPLINE
5
1EA
100
AcDbEntity
8
1
62
256
6
ByLayer
370
18
48
1
60
0
100
AcDbSpline
70
4
71
3
72
8
73
4
40
0
40
0
40
0
40
0
40
1
40
1
40
1
40
1
41
1
10
767.65725
20
9.57432724292471
30
0
41
1
10
767.899443492047
20
10.2548941844823
30
0
41
1
10
768.122833855469
20
10.9435601143509
30
0
41
1
10
768.325
20
11.6413678580177
30
0
0
SPLINE
5
1EB
100
AcDbEntity
8
1
62
256
6
ByLayer
370
18
48
1
60
0
100
AcDbSpline
70
4
71
3
72
8
73
4
40
0
40
0
40
0
40
0
40
1
40
1
40
1
40
1
41
1
10
768.325
20
12.4542692825399
30
0
41
1
10
768.105220267217
20
12.1940971669872
30
0
41
1
10
767.88243970332
20
11.9373912343053
30
0
41
1
10
767.65725
20
11.6834680366327
30
0
0
SPLINE
5
1EC
100
AcDbEntity
8
1
62
256
6
ByLayer
370
18
48
1
60
0
100
AcDbSpline
70
4
71
3
72
40
73
36
40
0
40
0
40
0
40
0
40
0.031249999999997
40
0.031249999999997
40
0.0468749999999955
40
0.0468749999999955
40
0.062499999999994
40
0.062499999999994
40
0.0781249999999925
40
0.0781249999999925
40
0.093749999999991
40
0.093749999999991
40
0.10937499999999
40
0.10937499999999
40
0.124999999999988
40
0.124999999999988
40
0.140624999999987
40
0.140624999999987
40
0.156249999999985
40
0.156249999999985
40
0.187499999999982
40
0.187499999999982
40
0.249999999999986
40
0.249999999999986
40
0.312499999999989
40
0.312499999999989
40
0.374999999999992
40
0.374999999999992
40
0.499999999999994
40
0.499999999999994
40
0.624999999999996
40
0.624999999999996
40
0.749999999999998
40
0.749999999999998
40
1
40
1
40
1
40
1
41
1
10
767.65725
20
11.6834680366326
30
0
41
1
10
767.650694943635
20
11.6760765757952
30
0
41
1
10
767.643856307001
20
11.6693489214238
30
0
41
1
10
767.632828000437
20
11.6610665922041
30
0
41
1
10
767.629054327816
20
11.6586530424351
30
0
41
1
10
767.621506084283
20
11.6548755320819
30
0
41
1
10
767.61764714495
20
11.6534830716393
30
0
41
1
10
767.610209805759
20
11.6520457621423
30
0
41
1
10
767.606618079863
20
11.6519769072297
30
0
41
1
10
767.599698960658
20
11.6531950148266
30
0
41
1
10
767.596491641375
20
11.6544651334356
30
0
41
1
10
767.590590250106
20
11.658074198426
30
0
41
1
10
767.587881583886
20
11.6604303829208
30
0
41
1
10
767.58304075593
20
11.6658072397985
30
0
41
1
10
767.580873840228
20
11.6688474163026
30
0
41
1
10
767.576925875258
20
11.6754645489861
30
0
41
1
10
767.575146203239
20
11.6790491512266
30
0
41
1
10
767.571958100517
20
11.6864812331382
30
0
41
1
10
767.57053716708
20
11.6903495933441
30
0
41
1
10
767.566674588752
20
11.7023079229658
30
0
41
1
10
767.56462720792
20
11.7107459519723
30
0
41
1
10
767.559543929198
20
11.7370015104435
30
0
41
1
10
767.557615467712
20
11.7552964549215
30
0
41
1
10
767.555271978326
20
11.7925330920063
30
0
41
1
10
767.554890029935
20
11.8115355970074
30
0
41
1
10
767.555160723138
20
11.8500543733499
30
0
41
1
10
767.555822177156
20
11.8695747639084
30
0
41
1
10
767.558978582121
20
11.9287292523216
30
0
41
1
10
767.562586786564
20
11.9683683464664
30
0
41
1
10
767.571676507637
20
12.0478165419797
30
0
41
1
10
767.577183669213
20
12.0876506103395
30
0
41
1
10
767.589657597443
20
12.1674979755164
30
0
41
1
10
767.596630654187
20
12.2075118088023
30
0
41
1
10
767.619443660266
20
12.327795111356
30
0
41
1
10
767.637125569122
20
12.4083021983419
30
0
41
1
10
767.65725
20
12.4891181707882
30
0
0
SPLINE
5
1ED
100
AcDbEntity
8
1
62
256
6
ByLayer
370
18
48
1
60
0
100
AcDbSpline
70
4
71
3
72
8
73
4
40
0
40
0
40
0
40
0
40
1
40
1
40
1
40
1
41
1
10
767.65725
20
12.4891181707882
30
0
41
1
10
767.940369761457
20
13.6260744892338
30
0
41
1
10
768.165581223844
20
14.7779412307355
30
0
41
1
10
768.325
20
15.9467484937424
30
0
0
SPLINE
5
1EE
100
AcDbEntity
8
1
62
256
6
ByLayer
370
13
48
1
60
0
100
AcDbSpline
70
4
71
3
72
26
73
22
40
0
40
0
40
0
40
0
40
0.125
40
0.125
40
0.187500000000001
40
0.187500000000001
40
0.250000000000001
40
0.250000000000001
40
0.375000000000001
40
0.375000000000001
40
0.500000000000001
40
0.500000000000001
40
0.625000000000001
40
0.625000000000001
40
0.75
40
0.75
40
0.875
40
0.875
40
0.9375
40
0.9375
40
1
40
1
40
1
40
1
41
1
10
765.5
20
-38.5320121951248
30
0
41
1
10
765.5
20
-38.6542634508824
30
0
41
1
10
765.492167463508
20
-38.7689746365704
30
0
41
1
10
765.472095585676
20
-38.9298318119364
30
0
41
1
10
765.463996918254
20
-38.9815813348807
30
0
41
1
10
765.445371596212
20
-39.0813441833187
30
0
41
1
10
765.434869742119
20
-39.1292222719954
30
0
41
1
10
765.400320933463
20
-39.2669275573617
30
0
41
1
10
765.373249546134
20
-39.3508399877039
30
0
41
1
10
765.3131222214
20
-39.5032701348093
30
0
41
1
10
765.280055843095
20
-39.5717867843755
30
0
41
1
10
765.209458265976
20
-39.6936467397824
30
0
41
1
10
765.171921382337
20
-39.7469895203822
30
0
41
1
10
765.093593841874
20
-39.8385835033973
30
0
41
1
10
765.052799644428
20
-39.8768345145281
30
0
41
1
10
764.968989879581
20
-39.9381972119804
30
0
41
1
10
764.925971759453
20
-39.9613089611848
30
0
41
1
10
764.860484536773
20
-39.9844904107268
30
0
41
1
10
764.838494204388
20
-39.9903023252974
30
0
41
1
10
764.79431086058
20
-39.9980605152112
30
0
41
1
10
764.772159482537
20
-40.0000000000028
30
0
41
1
10
764.75
20
-40.0000000000028
30
0
0
SPLINE
5
1EF
100
AcDbEntity
8
1
62
256
6
ByLayer
370
18
48
1
60
0
100
AcDbSpline
70
4
71
3
72
10
73
6
40
0
40
0
40
0
40
0
40
0.5
40
0.5
40
1
40
1
40
1
40
1
41
1
10
768.325
20
-21.5414070106113
30
0
41
1
10
768.254077218736
20
-21.9125606578062
30
0
41
1
10
768.160083064707
20
-22.2740510856267
30
0
41
1
10
767.934818787514
20
-22.9814192652998
30
0
41
1
10
767.803545178726
20
-23.3272955572322
30
0
41
1
10
767.657249999994
20
-23.6668802111599
30
0
0
SPLINE
5
1F0
100
AcDbEntity
8
1
62
256
6
ByLayer
370
18
48
1
60
0
100
AcDbSpline
70
4
71
3
72
103
73
99
40
0
40
0
40
0
40
0
40
0.0039062500000055
40
0.0039062500000055
40
0.0058593750000077
40
0.0058593750000077
40
0.00781250000001
40
0.00781250000001
40
0.0087890625000104
40
0.0087890625000104
40
0.0097656250000109
40
0.0097656250000109
40
0.0107421875000114
40
0.0107421875000114
40
0.0117187500000119
40
0.0117187500000119
40
0.0136718750000126
40
0.0136718750000126
40
0.0156250000000134
40
0.0156250000000134
40
0.0175781250000142
40
0.0175781250000142
40
0.0195312500000149
40
0.0195312500000149
40
0.0234375000000146
40
0.0234375000000146
40
0.0273437500000143
40
0.0273437500000143
40
0.031250000000014
40
0.031250000000014
40
0.0390625000000143
40
0.0390625000000143
40
0.0468750000000145
40
0.0468750000000145
40
0.0625000000000153
40
0.0625000000000153
40
0.0781250000000161
40
0.0781250000000161
40
0.0937500000000169
40
0.0937500000000169
40
0.125000000000017
40
0.125000000000017
40
0.156250000000018
40
0.156250000000018
40
0.187500000000018
40
0.187500000000018
40
0.250000000000018
40
0.250000000000018
40
0.312500000000018
40
0.312500000000018
40
0.375000000000019
40
0.437500000000019
40
0.437500000000019
40
0.50000000000002
40
0.56250000000002
40
0.56250000000002
40
0.625000000000021
40
0.687500000000021
40
0.687500000000021
40
0.750000000000021
40
0.750000000000021
40
0.812500000000022
40
0.812500000000022
40
0.843750000000023
40
0.843750000000023
40
0.875000000000024
40
0.875000000000024
40
0.906250000000025
40
0.906250000000025
40
0.937500000000025
40
0.937500000000025
40
0.953125000000025
40
0.953125000000025
40
0.960937500000025
40
0.960937500000025
40
0.968750000000025
40
0.968750000000025
40
0.976562500000025
40
0.976562500000025
40
0.980468750000024
40
0.980468750000024
40
0.984375000000023
40
0.984375000000023
40
0.986328125000022
40
0.986328125000022
40
0.988281250000021
40
0.988281250000021
40
0.98925781250002
40
0.98925781250002
40
0.990234375000019
40
0.990234375000019
40
0.992187500000015
40
0.992187500000015
40
0.994140625000012
40
0.994140625000012
40
0.996093750000008
40
0.996093750000008
40
1
40
1
40
1
40
1
41
1
10
767.657249999995
20
-23.6668802111598
30
0
41
1
10
767.653301423677
20
-23.6760457621638
30
0
41
1
10
767.649062278602
20
-23.6850001600741
30
0
41
1
10
767.641890292588
20
-23.6976175372334
30
0
41
1
10
767.639344045073
20
-23.7017123128969
30
0
41
1
10
767.633862944295
20
-23.7093295229354
30
0
41
1
10
767.63090563163
20
-23.712889557768
30
0
41
1
10
767.626096575472
20
-23.7172797006168
30
0
41
1
10
767.624438975239
20
-23.7185762181936
30
0
41
1
10
767.620973923812
20
-23.720710734096
30
0
41
1
10
767.619165204416
20
-23.7215381072334
30
0
41
1
10
767.615556785189
20
-23.7225056324759
30
0
41
1
10
767.613708678951
20
-23.7226511789407
30
0
41
1
10
767.610180584917
20
-23.7222142635777
30
0
41
1
10
767.608468290051
20
-23.7216375604441
30
0
41
1
10
767.603630683921
20
-23.7190352513566
30
0
41
1
10
767.600854969399
20
-23.7162115472366
30
0
41
1
10
767.596024565016
20
-23.7096607335717
30
0
41
1
10
767.59396562342
20
-23.7059457721757
30
0
41
1
10
767.590246483776
20
-23.6980224630474
30
0
41
1
10
767.588612584205
20
-23.6938478289576
30
0
41
1
10
767.585658623901
20
-23.6853358836768
30
0
41
1
10
767.584332664394
20
-23.6809766414857
30
0
41
1
10
767.580665021384
20
-23.6676859432172
30
0
41
1
10
767.578627539058
20
-23.658545606659
30
0
41
1
10
767.575020258094
20
-23.6399407234226
30
0
41
1
10
767.573458990612
20
-23.6304741785344
30
0
41
1
10
767.570681498253
20
-23.6114946854483
30
0
41
1
10
767.569461933954
20
-23.6019525751622
30
0
41
1
10
767.566164724209
20
-23.5732127784957
30
0
41
1
10
767.564441871258
20
-23.5539036248219
30
0
41
1
10
767.561565262987
20
-23.5151006478399
30
0
41
1
10
767.560418250916
20
-23.4956048099531
30
0
41
1
10
767.557575244483
20
-23.4369165825452
30
0
41
1
10
767.556465663615
20
-23.3975269474222
30
0
41
1
10
767.555135765611
20
-23.3184228726199
30
0
41
1
10
767.5549295177
20
-23.2787416769009
30
0
41
1
10
767.555109823879
20
-23.1993740801954
30
0
41
1
10
767.555499793026
20
-23.1596542705999
30
0
41
1
10
767.557293455112
20
-23.040408021994
30
0
41
1
10
767.559308234818
20
-22.960795741336
30
0
41
1
10
767.564196181931
20
-22.8014015493658
30
0
41
1
10
767.56708109708
20
-22.7216187337587
30
0
41
1
10
767.573316966476
20
-22.5619135113699
30
0
41
1
10
767.576671708505
20
-22.4819908124515
30
0
41
1
10
767.587049936215
20
-22.2420426176706
30
0
41
1
10
767.594374358784
20
-22.0817639214526
30
0
41
1
10
767.608485845607
20
-21.7612876698611
30
0
41
1
10
767.615286090069
20
-21.6010765758443
30
0
41
1
10
767.627532712957
20
-21.2807014478965
30
0
41
1
10
767.638431938167
20
-20.9603734371052
30
0
41
1
10
767.645462457192
20
-20.6401300544546
30
0
41
1
10
767.650191912682
20
-20.3199260020655
30
0
41
1
10
767.652618507706
20
-19.9997612677265
30
0
41
1
10
767.650187524562
20
-19.679673077673
30
0
41
1
10
767.645457290143
20
-19.3596241506584
30
0
41
1
10
767.638429381582
20
-19.0396144993912
30
0
41
1
10
767.62754588067
20
-18.7196892277101
30
0
41
1
10
767.615321771864
20
-18.399810849758
30
0
41
1
10
767.608536385057
20
-18.2398950800639
30
0
41
1
10
767.594458716991
20
-17.9201172295723
30
0
41
1
10
767.587153622499
20
-17.7602550390567
30
0
41
1
10
767.576777768777
20
-17.5205100098586
30
0
41
1
10
767.57342021487
20
-17.4406030782101
30
0
41
1
10
767.56717100212
20
-17.2808075851317
30
0
41
1
10
767.564275469638
20
-17.2009189911725
30
0
41
1
10
767.559360408876
20
-17.0411636268462
30
0
41
1
10
767.557331970261
20
-16.9613324755174
30
0
41
1
10
767.554915618714
20
-16.8023110794354
30
0
41
1
10
767.554474000374
20
-16.723055074369
30
0
41
1
10
767.556408527631
20
-16.6048583146672
30
0
41
1
10
767.557490962645
20
-16.5655749435081
30
0
41
1
10
767.560278939439
20
-16.5069304507319
30
0
41
1
10
767.561405199968
20
-16.4874296557216
30
0
41
1
10
767.56423493603
20
-16.4485615252807
30
0
41
1
10
767.565931575081
20
-16.4291927456764
30
0
41
1
10
767.5702707399
20
-16.3906665162974
30
0
41
1
10
767.572876911364
20
-16.3715013867148
30
0
41
1
10
767.578280301633
20
-16.3430779509031
30
0
41
1
10
767.580322520626
20
-16.3337324677204
30
0
41
1
10
767.585238144679
20
-16.3155870688896
30
0
41
1
10
767.588077516882
20
-16.306787269054
30
0
41
1
10
767.59358496363
20
-16.2947838314996
30
0
41
1
10
767.595658717637
20
-16.2909418387608
30
0
41
1
10
767.600477568668
20
-16.2842090573147
30
0
41
1
10
767.603260702252
20
-16.2812852335177
30
0
41
1
10
767.608034973335
20
-16.2785458671477
30
0
41
1
10
767.609764356208
20
-16.2778991194675
30
0
41
1
10
767.613312362299
20
-16.2773487521695
30
0
41
1
10
767.615150048834
20
-16.2774371074868
30
0
41
1
10
767.620665102831
20
-16.2787747467885
30
0
41
1
10
767.624234052256
20
-16.2810633983686
30
0
41
1
10
767.630712654505
20
-16.2868938218212
30
0
41
1
10
767.633714095518
20
-16.2904827522346
30
0
41
1
10
767.639223963314
20
-16.2981025844798
30
0
41
1
10
767.641766744743
20
-16.3021765593083
30
0
41
1
10
767.64900699551
20
-16.314880386724
30
0
41
1
10
767.653288339033
20
-16.3239238653834
30
0
41
1
10
767.65725
20
-16.3331197888582
30
0
0
SPLINE
5
1F1
100
AcDbEntity
8
1
62
256
6
ByLayer
370
18
48
1
60
0
100
AcDbSpline
70
4
71
3
72
10
73
6
40
0
40
0
40
0
40
0
40
0.5
40
0.5
40
1
40
1
40
1
40
1
41
1
10
767.65725
20
-16.3331197888583
30
0
41
1
10
767.80354517873
20
-16.672704442784
30
0
41
1
10
767.934818787517
20
-17.0185807347145
30
0
41
1
10
768.160083064708
20
-17.7259489143834
30
0
41
1
10
768.254077218736
20
-18.0874393422018
30
0
41
1
10
768.325
20
-18.4585929893945
30
0
0
SPLINE
5
1F2
100
AcDbEntity
8
1
62
256
6
ByLayer
370
18
48
1
60
0
100
AcDbSpline
70
4
71
3
72
8
73
4
40
0
40
0
40
0
40
0
40
1
40
1
40
1
40
1
41
1
10
768.325
20
-15.9467484937481
30
0
41
1
10
768.165581223844
20
-14.7779412307412
30
0
41
1
10
767.940369761457
20
-13.6260744892396
30
0
41
1
10
767.65725
20
-12.489118170794
30
0
0
SPLINE
5
1F3
100
AcDbEntity
8
1
62
256
6
ByLayer
370
18
48
1
60
0
100
AcDbSpline
70
4
71
3
72
38
73
34
40
0
40
0
40
0
40
0
40
0.250000000000001
40
0.250000000000001
40
0.374999999999997
40
0.374999999999997
40
0.499999999999994
40
0.499999999999994
40
0.624999999999991
40
0.624999999999991
40
0.687499999999989
40
0.687499999999989
40
0.749999999999987
40
0.749999999999987
40
0.812499999999986
40
0.812499999999986
40
0.843749999999987
40
0.843749999999987
40
0.874999999999988
40
0.874999999999988
40
0.89062499999999
40
0.89062499999999
40
0.906249999999991
40
0.906249999999991
40
0.921874999999992
40
0.921874999999992
40
0.937499999999993
40
0.937499999999993
40
0.953124999999994
40
0.953124999999994
40
0.968749999999995
40
0.968749999999995
40
1
40
1
40
1
40
1
41
1
10
767.65725
20
-12.489118170794
30
0
41
1
10
767.63716054397
20
-12.4084426508294
30
0
41
1
10
767.619450956248
20
-12.3278589682302
30
0
41
1
10
767.596561035942
20
-12.207131992272
30
0
41
1
10
767.589551068575
20
-12.1668818956894
30
0
41
1
10
767.57702566488
20
-12.0865719725047
30
0
41
1
10
767.571531729368
20
-12.04668543796
30
0
41
1
10
767.562511855497
20
-11.9675757886357
30
0
41
1
10
767.558965882088
20
-11.9283468091162
30
0
41
1
10
767.555852527796
20
-11.8702149499177
30
0
41
1
10
767.555186994494
20
-11.850957627524
30
0
41
1
10
767.554879827929
20
-11.8127647711394
30
0
41
1
10
767.555228028268
20
-11.7938262640309
30
0
41
1
10
767.557508733814
20
-11.7564351112216
30
0
41
1
10
767.559446424528
20
-11.7378314576272
30
0
41
1
10
767.56439774179
20
-11.7117813008017
30
0
41
1
10
767.566393256596
20
-11.7033789059284
30
0
41
1
10
767.571427719528
20
-11.6874176046605
30
0
41
1
10
767.574462350045
20
-11.6798137810871
30
0
41
1
10
767.580359838196
20
-11.6696187180146
30
0
41
1
10
767.582518143517
20
-11.6664929744997
30
0
41
1
10
767.587336978513
20
-11.6609509485909
30
0
41
1
10
767.590030958628
20
-11.6585138200484
30
0
41
1
10
767.595913788946
20
-11.6547380925191
30
0
41
1
10
767.599092314855
20
-11.6533909420364
30
0
41
1
10
767.606024814214
20
-11.6520063859389
30
0
41
1
10
767.60966234777
20
-11.6520040831197
30
0
41
1
10
767.61713950721
20
-11.6533292840557
30
0
41
1
10
767.621035240749
20
-11.6546831952771
30
0
41
1
10
767.628645050974
20
-11.6584096521297
30
0
41
1
10
767.63240740058
20
-11.6607803665193
30
0
41
1
10
767.64359324305
20
-11.6690962440289
30
0
41
1
10
767.650578102513
20
-11.6759448261103
30
0
41
1
10
767.657249999999
20
-11.6834680366277
30
0
0
SPLINE
5
1F4
100
AcDbEntity
8
1
62
256
6
ByLayer
370
18
48
1
60
0
100
AcDbSpline
70
4
71
3
72
8
73
4
40
0
40
0
40
0
40
0
40
1
40
1
40
1
40
1
41
1
10
767.657249999996
20
-11.6834680366343
30
0
41
1
10
767.882439703317
20
-11.9373912343082
30
0
41
1
10
768.105220267216
20
-12.1940971669915
30
0
41
1
10
768.325
20
-12.4542692825457
30
0
0
SPLINE
5
1F5
100
AcDbEntity
8
1
62
256
6
ByLayer
370
18
48
1
60
0
100
AcDbSpline
70
4
71
3
72
8
73
4
40
0
40
0
40
0
40
0
40
1
40
1
40
1
40
1
41
1
10
768.325
20
-11.6413678580234
30
0
41
1
10
768.122833855469
20
-10.9435601143567
30
0
41
1
10
767.899443492047
20
-10.254894184488
30
0
41
1
10
767.65725
20
-9.57432724293045
30
0
0
SPLINE
5
1F6
100
AcDbEntity
8
1
62
256
6
ByLayer
370
18
48
1
60
0
100
AcDbSpline
70
4
71
3
72
39
73
35
40
0
40
0
40
0
40
0
40
0.124999999999991
40
0.249999999999982
40
0.249999999999982
40
0.374999999999972
40
0.374999999999972
40
0.499999999999963
40
0.499999999999963
40
0.624999999999954
40
0.624999999999954
40
0.68749999999995
40
0.68749999999995
40
0.718749999999952
40
0.718749999999952
40
0.749999999999953
40
0.749999999999953
40
0.781249999999955
40
0.781249999999955
40
0.812499999999957
40
0.812499999999957
40
0.843749999999959
40
0.843749999999959
40
0.874999999999961
40
0.874999999999961
40
0.906249999999962
40
0.906249999999962
40
0.921874999999969
40
0.921874999999969
40
0.937499999999976
40
0.937499999999976
40
0.968749999999988
40
0.968749999999988
40
1
40
1
40
1
40
1
41
1
10
767.65725
20
-9.57432724293045
30
0
41
1
10
767.646580757253
20
-9.54434652857077
30
0
41
1
10
767.626666964633
20
-9.48454751297294
30
0
41
1
10
767.609474495294
20
-9.42506808830393
30
0
41
1
10
767.593723142902
20
-9.36575864268264
30
0
41
1
10
767.586565111271
20
-9.33618862752706
30
0
41
1
10
767.573950192745
20
-9.27724519331605
30
0
41
1
10
767.568478888485
20
-9.24784574002126
30
0
41
1
10
767.559868126884
20
-9.18940538958628
30
0
41
1
10
767.556764204021
20
-9.16077429496409
30
0
41
1
10
767.554929433022
20
-9.11917954414912
30
0
41
1
10
767.55479395776
20
-9.10554266501237
30
0
41
1
10
767.555616302648
20
-9.08557238515823
30
0
41
1
10
767.55606606811
20
-9.07898202729535
30
0
41
1
10
767.557381723674
20
-9.0661836676602
30
0
41
1
10
767.558246925812
20
-9.05995726671489
30
0
41
1
10
767.560494611393
20
-9.04793337050495
30
0
41
1
10
767.5618756436
20
-9.04213469300925
30
0
41
1
10
767.565318935333
20
-9.03109960690864
30
0
41
1
10
767.567398569345
20
-9.02582335174606
30
0
41
1
10
767.572430566598
20
-9.01626349088855
30
0
41
1
10
767.575359520263
20
-9.01200166693991
30
0
41
1
10
767.582352105876
20
-9.00489630248023
30
0
41
1
10
767.586358027436
20
-9.00214238861213
30
0
41
1
10
767.595394612178
20
-8.998737205042
30
0
41
1
10
767.600550748121
20
-8.99809779038151
30
0
41
1
10
767.608635032293
20
-8.99891475487254
30
0
41
1
10
767.611401776354
20
-8.99946942144555
30
0
41
1
10
767.617073916069
20
-9.00112193465833
30
0
41
1
10
767.619995357271
20
-9.00223018091822
30
0
41
1
10
767.628690733006
20
-9.00620554557861
30
0
41
1
10
767.634474936355
20
-9.00972785973039
30
0
41
1
10
767.646023948476
20
-9.01809587442392
30
0
41
1
10
767.651713152806
20
-9.02289383008485
30
0
41
1
10
767.65725
20
-9.02806319228836
30
0
0
SPLINE
5
1F7
100
AcDbEntity
8
1
62
256
6
ByLayer
370
18
48
1
60
0
100
AcDbSpline
70
4
71
3
72
8
73
4
40
0
40
0
40
0
40
0
40
1
40
1
40
1
40
1
41
1
10
767.65725
20
-9.02806319229018
30
0
41
1
10
767.880459452193
20
-9.23645805404772
30
0
41
1
10
768.103076961139
20
-9.44569233322159
30
0
41
1
10
768.325
20
-9.655911420123
30
0
0
SPLINE
5
1F8
100
AcDbEntity
8
1
62
256
6
ByLayer
370
18
48
1
60
0
100
AcDbSpline
70
4
71
3
72
8
73
4
40
0
40
0
40
0
40
0
40
1
40
1
40
1
40
1
41
1
10
768.325
20
-9.1002470304669
30
0
41
1
10
768.11364948325
20
-8.55760512897336
30
0
41
1
10
767.890641792267
20
-8.02141252837089
30
0
41
1
10
767.65725
20
-7.49096490440962
30
0
0
SPLINE
5
1F9
100
AcDbEntity
8
1
62
256
6
ByLayer
370
18
48
1
60
0
100
AcDbSpline
70
4
71
3
72
26
73
22
40
0
40
0
40
0
40
0
40
0.249999999999994
40
0.249999999999994
40
0.374999999999995
40
0.374999999999995
40
0.499999999999996
40
0.499999999999996
40
0.624999999999997
40
0.624999999999997
40
0.749999999999998
40
0.749999999999998
40
0.812499999999998
40
0.812499999999998
40
0.874999999999998
40
0.874999999999998
40
0.937499999999999
40
0.937499999999999
40
0.968749999999999
40
0.968749999999999
40
1
40
1
40
1
40
1
41
1
10
767.65725
20
-7.49096490440962
30
0
41
1
10
767.63938556211
20
-7.45036301117182
30
0
41
1
10
767.623444884246
20
-7.41003253726655
30
0
41
1
10
767.602409682671
20
-7.3499558982424
30
0
41
1
10
767.595884951571
20
-7.33000112434183
30
0
41
1
10
767.583922074761
20
-7.29024929685795
30
0
41
1
10
767.578481318458
20
-7.27045190530993
30
0
41
1
10
767.568922546761
20
-7.23104673886758
30
0
41
1
10
767.564790193128
20
-7.21134775706207
30
0
41
1
10
767.558469436633
20
-7.17313683216554
30
0
41
1
10
767.556238595779
20
-7.15453127157917
30
0
41
1
10
767.554945596996
20
-7.12771345739344
30
0
41
1
10
767.554861290552
20
-7.11895019185175
30
0
41
1
10
767.555619078087
20
-7.10194517113007
30
0
41
1
10
767.556454082057
20
-7.09381565088194
30
0
41
1
10
767.559347005157
20
-7.07855081784362
30
0
41
1
10
767.561423866673
20
-7.07138948277412
30
0
41
1
10
767.565716732368
20
-7.06206089896625
30
0
41
1
10
767.567346689904
20
-7.05917441981467
30
0
41
1
10
767.571082754909
20
-7.05393382095582
30
0
41
1
10
767.573206751966
20
-7.05156447867108
30
0
41
1
10
767.575581557728
20
-7.04956167720184
30
0
0
SPLINE
5
1FA
100
AcDbEntity
8
1
62
256
6
ByLayer
370
18
48
1
60
0
100
AcDbSpline
70
4
71
3
72
32
73
28
40
0
40
0
40
0
40
0
40
0.039063900345307
40
0.039063900345307
40
0.0871107053280507
40
0.0871107053280507
40
0.135157510310794
40
0.135157510310794
40
0.231251120276282
40
0.231251120276282
40
0.279297925259025
40
0.279297925259025
40
0.327344730241769
40
0.327344730241769
40
0.423438340207256
40
0.423438340207256
40
0.47148514518999
40
0.47148514518999
40
0.519531950172723
40
0.519531950172723
40
0.615625560138168
40
0.615625560138168
40
0.807812780069084
40
0.807812780069084
40
0.903906390034542
40
0.903906390034542
40
1
40
1
40
1
40
1
41
1
10
767.567556367131
20
-39.7573176558526
30
0
41
1
10
767.566214867563
20
-39.7586721969867
30
0
41
1
10
767.564969015844
20
-39.7599302950786
30
0
41
1
10
767.562418282625
20
-39.762506297265
30
0
41
1
10
767.561162433677
20
-39.7637747334454
30
0
41
1
10
767.558973145788
20
-39.7659861174914
30
0
41
1
10
767.558035604913
20
-39.7669332091944
30
0
41
1
10
767.555782453195
20
-39.7692094124162
30
0
41
1
10
767.55502129948
20
-39.7699784802021
30
0
41
1
10
767.554990007903
20
-39.7700100954575
30
0
41
1
10
767.555165390467
20
-39.7698328961079
30
0
41
1
10
767.555896933859
20
-39.7690938049105
30
0
41
1
10
767.556455981111
20
-39.7685289974881
30
0
41
1
10
767.558654369785
20
-39.7663081071464
30
0
41
1
10
767.560818210051
20
-39.7641222501524
30
0
41
1
10
767.565025639673
20
-39.7598730972637
30
0
41
1
10
767.566596637724
20
-39.7582866679049
30
0
41
1
10
767.569995938922
20
-39.7548544454238
30
0
41
1
10
767.57182715684
20
-39.753005707422
30
0
41
1
10
767.577684905715
20
-39.7470928227351
30
0
41
1
10
767.582079041942
20
-39.7426584612647
30
0
41
1
10
767.596526643566
20
-39.7280842937861
30
0
41
1
10
767.60743414722
20
-39.7170882304573
30
0
41
1
10
767.625224277074
20
-39.699171012818
30
0
41
1
10
767.631425107864
20
-39.6929285571767
30
0
41
1
10
767.644122351883
20
-39.6801523609383
30
0
41
1
10
767.650618768128
20
-39.6736185847585
30
0
41
1
10
767.65725
20
-39.6669526077406
30
0
0
SPLINE
5
1FB
100
AcDbEntity
8
1
62
256
6
ByLayer
370
18
48
1
60
0
100
AcDbSpline
70
4
71
3
72
8
73
4
40
0
40
0
40
0
40
0
40
1
40
1
40
1
40
1
41
1
10
767.65725
20
-39.6669526077405
30
0
41
1
10
767.880412287865
20
-39.4426210339027
30
0
41
1
10
768.1030130494
20
-39.2175491122137
30
0
41
1
10
768.325
20
-38.9916679077109
30
0
0
SPLINE
5
1FC
100
AcDbEntity
8
1
62
256
6
ByLayer
370
18
48
1
60
0
100
AcDbSpline
70
4
71
3
72
8
73
4
40
0
40
0
40
0
40
0
40
1
40
1
40
1
40
1
41
1
10
768.325
20
-38.9768631082366
30
0
41
1
10
768.102866984829
20
-39.1929320464199
30
0
41
1
10
767.880270558999
20
-39.408362642281
30
0
41
1
10
767.65725
20
-39.6232090000676
30
0
0
SPLINE
5
1FD
100
AcDbEntity
8
1
62
256
6
ByLayer
370
18
48
1
60
0
100
AcDbSpline
70
4
71
3
72
37
73
33
40
0
40
0
40
0
40
0
40
0.125000000000012
40
0.125000000000012
40
0.187500000000007
40
0.187500000000007
40
0.250000000000001
40
0.250000000000001
40
0.312499999999996
40
0.312499999999996
40
0.37499999999999
40
0.37499999999999
40
0.437499999999984
40
0.437499999999984
40
0.499999999999979
40
0.499999999999979
40
0.531249999999974
40
0.531249999999974
40
0.562499999999969
40
0.562499999999969
40
0.624999999999959
40
0.624999999999959
40
0.656249999999961
40
0.656249999999961
40
0.687499999999964
40
0.749999999999971
40
0.749999999999971
40
0.812499999999979
40
0.812499999999979
40
0.874999999999986
40
0.874999999999986
40
1
40
1
40
1
40
1
41
1
10
767.65725
20
-39.6232090000676
30
0
41
1
10
767.643798365337
20
-39.6361676022989
30
0
41
1
10
767.630961804452
20
-39.6483954838251
30
0
41
1
10
767.61283825916
20
-39.6653818331505
30
0
41
1
10
767.606972907653
20
-39.6708291130917
30
0
41
1
10
767.59576372479
20
-39.6811134454341
30
0
41
1
10
767.590524519823
20
-39.68585467329
30
0
41
1
10
767.580861475692
20
-39.6944397815453
30
0
41
1
10
767.576422090347
20
-39.6982970730224
30
0
41
1
10
767.568574540116
20
-39.704889478416
30
0
41
1
10
767.565262562609
20
-39.7075442701857
30
0
41
1
10
767.559930736726
20
-39.71149675431
30
0
41
1
10
767.557905936575
20
-39.7127973016914
30
0
41
1
10
767.55533038002
20
-39.7138579755633
30
0
41
1
10
767.554822528477
20
-39.7136023830663
30
0
41
1
10
767.555169656641
20
-39.7121009086696
30
0
41
1
10
767.555471032383
20
-39.7114132225672
30
0
41
1
10
767.556444479704
20
-39.7096640878556
30
0
41
1
10
767.557119382552
20
-39.7085996956591
30
0
41
1
10
767.559636609513
20
-39.7049349863862
30
0
41
1
10
767.561976614644
20
-39.7018489865698
30
0
41
1
10
767.566371409227
20
-39.6963612637038
30
0
41
1
10
767.567991959291
20
-39.6943794729379
30
0
41
1
10
767.571462322212
20
-39.6902062334709
30
0
41
1
10
767.577021750233
20
-39.6836187715566
30
0
41
1
10
767.583542831282
20
-39.6761418905107
30
0
41
1
10
767.592985140083
20
-39.6654828981725
30
0
41
1
10
767.598114454227
20
-39.6597712000094
30
0
41
1
10
767.608813091414
20
-39.6479869350947
30
0
41
1
10
767.614397084543
20
-39.6418969951272
30
0
41
1
10
767.631764019017
20
-39.6231110608801
30
0
41
1
10
767.644195707301
20
-39.6098619246219
30
0
41
1
10
767.65725
20
-39.5961148774417
30
0
0
SPLINE
5
1FE
100
AcDbEntity
8
1
62
256
6
ByLayer
370
18
48
1
60
0
100
AcDbSpline
70
4
71
3
72
8
73
4
40
0
40
0
40
0
40
0
40
1
40
1
40
1
40
1
41
1
10
767.65725
20
-39.5961148774417
30
0
41
1
10
767.880586600133
20
-39.3609264340806
30
0
41
1
10
768.103192833684
20
-39.1248200564552
30
0
41
1
10
768.325
20
-38.887709400687
30
0
0
SPLINE
5
1FF
100
AcDbEntity
8
1
62
256
6
ByLayer
370
18
48
1
60
0
100
AcDbSpline
70
4
71
3
72
8
73
4
40
0
40
0
40
0
40
0
40
1
40
1
40
1
40
1
41
1
10
768.325
20
-38.8430150703311
30
0
41
1
10
768.102747357519
20
-39.0505212677391
30
0
41
1
10
767.880154410721
20
-39.2575396435598
30
0
41
1
10
767.65725
20
-39.4641115401026
30
0
0
SPLINE
5
200
100
AcDbEntity
8
1
62
256
6
ByLayer
370
18
48
1
60
0
100
AcDbSpline
70
4
71
3
72
37
73
33
40
0
40
0
40
0
40
0
40
0.125000000000005
40
0.125000000000005
40
0.187500000000007
40
0.187500000000007
40
0.250000000000009
40
0.250000000000009
40
0.312500000000011
40
0.312500000000011
40
0.375000000000013
40
0.375000000000013
40
0.437500000000015
40
0.437500000000015
40
0.468750000000015
40
0.468750000000015
40
0.500000000000015
40
0.500000000000015
40
0.562500000000014
40
0.562500000000014
40
0.593750000000014
40
0.593750000000014
40
0.625000000000014
40
0.687500000000014
40
0.687500000000014
40
0.750000000000015
40
0.750000000000015
40
0.87500000000002
40
0.87500000000002
40
0.93750000000001
40
0.93750000000001
40
1
40
1
40
1
40
1
41
1
10
767.65725
20
-39.4641115401026
30
0
41
1
10
767.643481113526
20
-39.4768715612387
30
0
41
1
10
767.630273784138
20
-39.4888059541488
30
0
41
1
10
767.611547898444
20
-39.5050982353435
30
0
41
1
10
767.605489814992
20
-39.51025386629
30
0
41
1
10
767.594178148089
20
-39.5196070423285
30
0
41
1
10
767.588876835461
20
-39.5238470582573
30
0
41
1
10
767.579099862891
20
-39.5313070360207
30
0
41
1
10
767.57463253141
20
-39.5345149468127
30
0
41
1
10
767.567013137968
20
-39.5394938540002
30
0
41
1
10
767.56380782919
20
-39.5413073094964
30
0
41
1
10
767.5587558925
20
-39.5434113779805
30
0
41
1
10
767.557001638105
20
-39.5436616429432
30
0
41
1
10
767.55549790417
20
-39.5428718308008
30
0
41
1
10
767.555184696729
20
-39.5424138178765
30
0
41
1
10
767.554936749632
20
-39.541105637953
30
0
41
1
10
767.555004907661
20
-39.540251059934
30
0
41
1
10
767.555758100464
20
-39.5371719822862
30
0
41
1
10
767.556981441356
20
-39.5344243191955
30
0
41
1
10
767.559786795892
20
-39.5293676731267
30
0
41
1
10
767.560890347139
20
-39.5275167600925
30
0
41
1
10
767.563367637925
20
-39.5235807903741
30
0
41
1
10
767.567494977205
20
-39.5173123772825
30
0
41
1
10
767.5727388874
20
-39.5100551661043
30
0
41
1
10
767.580597943671
20
-39.4996119501172
30
0
41
1
10
767.584983266588
20
-39.4939812929106
30
0
41
1
10
767.598947779451
20
-39.4765112920344
30
0
41
1
10
767.609415312622
20
-39.4639742060585
30
0
41
1
10
767.626502436555
20
-39.4441103481674
30
0
41
1
10
767.632448996398
20
-39.4372921818106
30
0
41
1
10
767.644620476765
20
-39.4235058617199
30
0
41
1
10
767.650862274447
20
-39.416517715055
30
0
41
1
10
767.65725
20
-39.4094413032593
30
0
0
SPLINE
5
201
100
AcDbEntity
8
1
62
256
6
ByLayer
370
18
48
1
60
0
100
AcDbSpline
70
4
71
3
72
8
73
4
40
0
40
0
40
0
40
0
40
1
40
1
40
1
40
1
41
1
10
767.65725
20
-39.4094413032593
30
0
41
1
10
767.880803440278
20
-39.1617856723747
30
0
41
1
10
768.10341668238
20
-38.9130085961663
30
0
41
1
10
768.325
20
-38.6630030512997
30
0
0
SPLINE
5
202
100
AcDbEntity
8
1
62
256
6
ByLayer
370
18
48
1
60
0
100
AcDbSpline
70
4
71
3
72
8
73
4
40
0
40
0
40
0
40
0
40
1
40
1
40
1
40
1
41
1
10
768.325
20
-38.5875522985868
30
0
41
1
10
768.102649044268
20
-38.7876437561727
30
0
41
1
10
767.880058917021
20
-38.9873798588644
30
0
41
1
10
767.65725
20
-39.1867908893274
30
0
0
SPLINE
5
203
100
AcDbEntity
8
1
62
256
6
ByLayer
370
18
48
1
60
0
100
AcDbSpline
70
4
71
3
72
37
73
33
40
0
40
0
40
0
40
0
40
0.124999999999987
40
0.124999999999987
40
0.18749999999999
40
0.18749999999999
40
0.249999999999992
40
0.249999999999992
40
0.312499999999994
40
0.312499999999994
40
0.343749999999996
40
0.343749999999996
40
0.374999999999999
40
0.374999999999999
40
0.437500000000003
40
0.437500000000003
40
0.468750000000008
40
0.468750000000008
40
0.500000000000012
40
0.531250000000017
40
0.531250000000017
40
0.562500000000022
40
0.562500000000022
40
0.625000000000019
40
0.625000000000019
40
0.687500000000016
40
0.687500000000016
40
0.750000000000013
40
0.750000000000013
40
0.875000000000006
40
0.875000000000006
40
1
40
1
40
1
40
1
41
1
10
767.65725
20
-39.1867908893274
30
0
41
1
10
767.643139830643
20
-39.1994193040652
30
0
41
1
10
767.629559018078
20
-39.2110804357856
30
0
41
1
10
767.610252673758
20
-39.2266093342772
30
0
41
1
10
767.604082847579
20
-39.2313817121535
30
0
41
1
10
767.592547032076
20
-39.2398524263081
30
0
41
1
10
767.587149089205
20
-39.2435773821111
30
0
41
1
10
767.577237245028
20
-39.2498034368456
30
0
41
1
10
767.572871992595
20
-39.2522091250071
30
0
41
1
10
767.567297365674
20
-39.2546669882541
30
0
41
1
10
767.565600365279
20
-39.255294760761
30
0
41
1
10
767.562547833039
20
-39.2561441468965
30
0
41
1
10
767.561200657848
20
-39.2563611168352
30
0
41
1
10
767.557776933759
20
-39.2563809936469
30
0
41
1
10
767.556275948703
20
-39.2555686066963
30
0
41
1
10
767.555165628217
20
-39.2531423952517
30
0
41
1
10
767.554988464952
20
-39.2521252843255
30
0
41
1
10
767.555012717228
20
-39.2497422656564
30
0
41
1
10
767.555408965223
20
-39.247005207388
30
0
41
1
10
767.55649812322
20
-39.2436083770985
30
0
41
1
10
767.557915779553
20
-39.2398986655319
30
0
41
1
10
767.558793740425
20
-39.2378782050014
30
0
41
1
10
767.561847178551
20
-39.2314744972478
30
0
41
1
10
767.564442229072
20
-39.2267342203955
30
0
41
1
10
767.570568351948
20
-39.2164656110215
30
0
41
1
10
767.574102703825
20
-39.2109334133452
30
0
41
1
10
767.582003843321
20
-39.199173406944
30
0
41
1
10
767.586292918726
20
-39.1930605527643
30
0
41
1
10
767.600014594563
20
-39.1741356202916
30
0
41
1
10
767.610290564234
20
-39.1607447564055
30
0
41
1
10
767.632716631857
20
-39.13268556223
30
0
41
1
10
767.644695650877
20
-39.1182361758907
30
0
41
1
10
767.65725
20
-39.1035364558358
30
0
0
SPLINE
5
204
100
AcDbEntity
8
1
62
256
6
ByLayer
370
18
48
1
60
0
100
AcDbSpline
70
4
71
3
72
8
73
4
40
0
40
0
40
0
40
0
40
1
40
1
40
1
40
1
41
1
10
767.65725
20
-39.1035364558358
30
0
41
1
10
767.881077169411
20
-38.8414602064913
30
0
41
1
10
768.103699542002
20
-38.5780268881171
30
0
41
1
10
768.325
20
-38.3131045806233
30
0
0
SPLINE
5
205
100
AcDbEntity
8
1
62
256
6
ByLayer
370
18
48
1
60
0
100
AcDbSpline
70
4
71
3
72
8
73
4
40
0
40
0
40
0
40
0
40
1
40
1
40
1
40
1
41
1
10
768.325
20
-38.2053559142543
30
0
41
1
10
768.102568584439
20
-38.3991409204099
30
0
41
1
10
767.879980753609
20
-38.5926860914877
30
0
41
1
10
767.65725
20
-38.7860121158269
30
0
0
SPLINE
5
206
100
AcDbEntity
8
1
62
256
6
ByLayer
370
18
48
1
60
0
100
AcDbSpline
70
4
71
3
72
38
73
34
40
0
40
0
40
0
40
0
40
0.0625000000000063
40
0.0625000000000063
40
0.125000000000012
40
0.125000000000012
40
0.187500000000019
40
0.187500000000019
40
0.218750000000019
40
0.218750000000019
40
0.250000000000018
40
0.250000000000018
40
0.312500000000013
40
0.312500000000013
40
0.375000000000008
40
0.375000000000008
40
0.437500000000004
40
0.437500000000004
40
0.499999999999999
40
0.499999999999999
40
0.562499999999994
40
0.562499999999994
40
0.624999999999989
40
0.624999999999989
40
0.687499999999984
40
0.687499999999984
40
0.749999999999979
40
0.749999999999979
40
0.874999999999991
40
0.874999999999991
40
0.937499999999995
40
0.937499999999995
40
1
40
1
40
1
40
1
41
1
10
767.65725
20
-38.786012115827
30
0
41
1
10
767.649998248352
20
-38.7923064972396
30
0
41
1
10
767.642872285329
20
-38.7983085212493
30
0
41
1
10
767.628908270403
20
-38.8096409384381
30
0
41
1
10
767.622043357133
20
-38.8149920519677
30
0
41
1
10
767.608778566715
20
-38.8247864385439
30
0
41
1
10
767.602489822523
20
-38.8291492314654
30
0
41
1
10
767.593642672276
20
-38.834779074527
30
0
41
1
10
767.590791730918
20
-38.8365025896829
30
0
41
1
10
767.585305184796
20
-38.8396129660475
30
0
41
1
10
767.58266567377
20
-38.8409999785453
30
0
41
1
10
767.575290151631
20
-38.8445178012826
30
0
41
1
10
767.571024223356
20
-38.8460514637408
30
0
41
1
10
767.563868724608
20
-38.8473983386611
30
0
41
1
10
767.560970865643
20
-38.8471810517929
30
0
41
1
10
767.556901537584
20
-38.8449849699582
30
0
41
1
10
767.555674402096
20
-38.8430325278886
30
0
41
1
10
767.554746624355
20
-38.8375093833311
30
0
41
1
10
767.555059927397
20
-38.8340161740926
30
0
41
1
10
767.556996998269
20
-38.825830410083
30
0
41
1
10
767.558643216243
20
-38.8210884981567
30
0
41
1
10
767.562971002402
20
-38.8108301289909
30
0
41
1
10
767.565650760817
20
-38.8052967580475
30
0
41
1
10
767.571877672975
20
-38.7935504001028
30
0
41
1
10
767.575436221925
20
-38.7873197968779
30
0
41
1
10
767.58328902452
20
-38.7743197546049
30
0
41
1
10
767.587530646947
20
-38.7676351887064
30
0
41
1
10
767.601059291908
20
-38.7471119729131
30
0
41
1
10
767.611140106773
20
-38.7328096008872
30
0
41
1
10
767.627597125186
20
-38.7105811761639
30
0
41
1
10
767.633314844532
20
-38.7030336996709
30
0
41
1
10
767.645042340135
20
-38.6878708036831
30
0
41
1
10
767.651068553406
20
-38.68023282538
30
0
41
1
10
767.65725
20
-38.6725412982331
30
0
0
SPLINE
5
207
100
AcDbEntity
8
1
62
256
6
ByLayer
370
18
48
1
60
0
100
AcDbSpline
70
4
71
3
72
8
73
4
40
0
40
0
40
0
40
0
40
1
40
1
40
1
40
1
41
1
10
767.65725
20
-38.6725412982331
30
0
41
1
10
767.881429112876
20
-38.3935969271719
30
0
41
1
10
768.104063620197
20
-38.1130190838695
30
0
41
1
10
768.325
20
-37.8306454136934
30
0
0
SPLINE
5
208
100
AcDbEntity
8
1
62
256
6
ByLayer
370
18
48
1
60
0
100
AcDbSpline
70
4
71
3
72
8
73
4
40
0
40
0
40
0
40
0
40
1
40
1
40
1
40
1
41
1
10
768.325
20
-37.6882126704946
30
0
41
1
10
768.102504008099
20
-37.8768276604223
30
0
41
1
10
767.879918034686
20
-38.0653009649042
30
0
41
1
10
767.65725
20
-38.2536450551996
30
0
0
SPLINE
5
209
100
AcDbEntity
8
1
62
256
6
ByLayer
370
18
48
1
60
0
100
AcDbSpline
70
4
71
3
72
41
73
37
40
0
40
0
40
0
40
0
40
0.0625000000000152
40
0.0625000000000152
40
0.0937500000000227
40
0.0937500000000227
40
0.12500000000003
40
0.12500000000003
40
0.187500000000063
40
0.187500000000063
40
0.218750000000074
40
0.218750000000074
40
0.250000000000086
40
0.250000000000086
40
0.312500000000108
40
0.312500000000108
40
0.37500000000013
40
0.37500000000013
40
0.437500000000151
40
0.437500000000151
40
0.500000000000173
40
0.500000000000173
40
0.531250000000177
40
0.531250000000177
40
0.56250000000018
40
0.625000000000165
40
0.625000000000165
40
0.687500000000149
40
0.687500000000149
40
0.750000000000133
40
0.750000000000133
40
0.875000000000068
40
0.875000000000068
40
0.937500000000034
40
0.937500000000034
40
1
40
1
40
1
40
1
41
1
10
767.65725
20
-38.2536450551997
30
0
41
1
10
767.649763251247
20
-38.2599777328336
30
0
41
1
10
767.642389836336
20
-38.2659624629294
30
0
41
1
10
767.631528943309
20
-38.2743256519395
30
0
41
1
10
767.627942008151
20
-38.2770105628974
30
0
41
1
10
767.62084243178
20
-38.2821508450802
30
0
41
1
10
767.617324342238
20
-38.2846089453345
30
0
41
1
10
767.607084890952
20
-38.2914700344436
30
0
41
1
10
767.600614151609
20
-38.2954106488693
30
0
41
1
10
767.591531521162
20
-38.3002067361413
30
0
41
1
10
767.588590422335
20
-38.3016258778109
30
0
41
1
10
767.583038456275
20
-38.3040058732391
30
0
41
1
10
767.580434294579
20
-38.30496614089
30
0
41
1
10
767.573142092744
20
-38.3071502287383
30
0
41
1
10
767.568970586653
20
-38.3076823906237
30
0
41
1
10
767.562114352937
20
-38.3067495364774
30
0
41
1
10
767.55955868873
20
-38.3052927007941
30
0
41
1
10
767.556092885347
20
-38.3006198331381
30
0
41
1
10
767.555181203019
20
-38.2973545513725
30
0
41
1
10
767.554868989464
20
-38.2895257760863
30
0
41
1
10
767.55544017896
20
-38.2849490216839
30
0
41
1
10
767.557223542409
20
-38.2772385274698
30
0
41
1
10
767.557977600155
20
-38.2745152488749
30
0
41
1
10
767.559750869445
20
-38.2688865643562
30
0
41
1
10
767.562810682998
20
-38.2601530424887
30
0
41
1
10
767.566937717188
20
-38.2506438271356
30
0
41
1
10
767.573244303111
20
-38.2373803703728
30
0
41
1
10
767.576818603168
20
-38.2304231195118
30
0
41
1
10
767.584605453415
20
-38.2161382387264
30
0
41
1
10
767.588793283287
20
-38.2088515112066
30
0
41
1
10
767.602116745497
20
-38.1866196317426
30
0
41
1
10
767.612003374444
20
-38.1713071208461
30
0
41
1
10
767.62811423162
20
-38.1477163654972
30
0
41
1
10
767.633716013417
20
-38.1397269961694
30
0
41
1
10
767.645240588756
20
-38.123683007623
30
0
41
1
10
767.65116647228
20
-38.1156226801458
30
0
41
1
10
767.65725
20
-38.107525837314
30
0
0
SPLINE
5
20A
100
AcDbEntity
8
1
62
256
6
ByLayer
370
18
48
1
60
0
100
AcDbSpline
70
4
71
3
72
8
73
4
40
0
40
0
40
0
40
0
40
1
40
1
40
1
40
1
41
1
10
767.65725
20
-38.107525837314
30
0
41
1
10
767.88189214863
20
-37.8085394178315
30
0
41
1
10
768.104543176151
20
-37.5075899137639
30
0
41
1
10
768.325
20
-37.2044771021059
30
0
0
SPLINE
5
20B
100
AcDbEntity
8
1
62
256
6
ByLayer
370
18
48
1
60
0
100
AcDbSpline
70
4
71
3
72
8
73
4
40
0
40
0
40
0
40
0
40
1
40
1
40
1
40
1
41
1
10
768.325
20
-37.0238289168042
30
0
41
1
10
768.102455053618
20
-37.2085268805273
30
0
41
1
10
767.87987051103
20
-37.3931612446351
30
0
41
1
10
767.65725
20
-37.5777377493929
30
0
0
SPLINE
5
20C
100
AcDbEntity
8
1
62
256
6
ByLayer
370
18
48
1
60
0
100
AcDbSpline
70
4
71
3
72
34
73
30
40
0
40
0
40
0
40
0
40
0.0625000000000002
40
0.0625000000000002
40
0.125000000000001
40
0.125000000000001
40
0.187500000000001
40
0.187500000000001
40
0.250000000000001
40
0.250000000000001
40
0.281250000000005
40
0.281250000000005
40
0.312500000000009
40
0.312500000000009
40
0.375000000000018
40
0.375000000000018
40
0.437500000000027
40
0.437500000000027
40
0.500000000000036
40
0.500000000000036
40
0.62500000000004
40
0.62500000000004
40
0.687500000000041
40
0.687500000000041
40
0.750000000000043
40
0.750000000000043
40
0.875000000000021
40
0.875000000000021
40
1
40
1
40
1
40
1
41
1
10
767.65725
20
-37.5777377493931
30
0
41
1
10
767.649488908667
20
-37.5841725343314
30
0
41
1
10
767.641823694214
20
-37.5901897349459
30
0
41
1
10
767.626724760347
20
-37.6012120518385
30
0
41
1
10
767.619237979794
20
-37.6062435686535
30
0
41
1
10
767.605117818079
20
-37.614671986498
30
0
41
1
10
767.598426324621
20
-37.6181195600482
30
0
41
1
10
767.585937823284
20
-37.6231466536645
30
0
41
1
10
767.580388451838
20
-37.6246190647461
30
0
41
1
10
767.573200292553
20
-37.6252014613423
30
0
41
1
10
767.570990397782
20
-37.6251249382651
30
0
41
1
10
767.566957676257
20
-37.6244081310372
30
0
41
1
10
767.565156409234
20
-37.6237674902166
30
0
41
1
10
767.560468966659
20
-37.6210811376875
30
0
41
1
10
767.558236811846
20
-37.6182490228781
30
0
41
1
10
767.55543401562
20
-37.6108100664445
30
0
41
1
10
767.554885623818
20
-37.6063089662954
30
0
41
1
10
767.555152947205
20
-37.5960533083436
30
0
41
1
10
767.555987203674
20
-37.5902410899656
30
0
41
1
10
767.560152348846
20
-37.5716467741232
30
0
41
1
10
767.565051940429
20
-37.5577549995676
30
0
41
1
10
767.574644630835
20
-37.5353327783101
30
0
41
1
10
767.578212811265
20
-37.5276254710816
30
0
41
1
10
767.585881383972
20
-37.5120284155329
30
0
41
1
10
767.589996860805
20
-37.5041041369835
30
0
41
1
10
767.60308732435
20
-37.4799990991136
30
0
41
1
10
767.612798206587
20
-37.4634896957867
30
0
41
1
10
767.63395238208
20
-37.4297025399368
30
0
41
1
10
767.64528704587
20
-37.4126051475358
30
0
41
1
10
767.65725
20
-37.3954357623996
30
0
0
SPLINE
5
20D
100
AcDbEntity
8
1
62
256
6
ByLayer
370
18
48
1
60
0
100
AcDbSpline
70
4
71
3
72
8
73
4
40
0
40
0
40
0
40
0
40
1
40
1
40
1
40
1
41
1
10
767.65725
20
-37.3954357623996
30
0
41
1
10
767.882519487208
20
-37.0721261063125
30
0
41
1
10
768.105193688956
20
-36.7464520401336
30
0
41
1
10
768.325
20
-36.4181652094534
30
0
0
SPLINE
5
20E
100
AcDbEntity
8
1
62
256
6
ByLayer
370
18
48
1
60
0
100
AcDbSpline
70
4
71
3
72
8
73
4
40
0
40
0
40
0
40
0
40
1
40
1
40
1
40
1
41
1
10
768.325
20
-36.194092580339
30
0
41
1
10
768.102424037712
20
-36.3763780833569
30
0
41
1
10
767.879840463616
20
-36.5586511945685
30
0
41
1
10
767.65725
20
-36.7409130865568
30
0
0
SPLINE
5
20F
100
AcDbEntity
8
1
62
256
6
ByLayer
370
18
48
1
60
0
100
AcDbSpline
70
4
71
3
72
41
73
37
40
0
40
0
40
0
40
0
40
0.0624999999999998
40
0.0624999999999998
40
0.0937499999999997
40
0.0937499999999997
40
0.125
40
0.156249999999999
40
0.156249999999999
40
0.187499999999999
40
0.187499999999999
40
0.250000000000009
40
0.250000000000009
40
0.281250000000013
40
0.281250000000013
40
0.312500000000016
40
0.312500000000016
40
0.34375000000002
40
0.34375000000002
40
0.375000000000023
40
0.375000000000023
40
0.43750000000003
40
0.43750000000003
40
0.500000000000038
40
0.500000000000038
40
0.562500000000045
40
0.562500000000045
40
0.625000000000052
40
0.625000000000052
40
0.750000000000031
40
0.750000000000031
40
0.812500000000023
40
0.812500000000023
40
0.875000000000015
40
0.875000000000015
40
1
40
1
40
1
40
1
41
1
10
767.65725
20
-36.740913086557
30
0
41
1
10
767.649153374726
20
-36.7475427786701
30
0
41
1
10
767.641127045978
20
-36.7536643426488
30
0
41
1
10
767.62921992007
20
-36.7618858337066
30
0
41
1
10
767.625254105664
20
-36.7644755628091
30
0
41
1
10
767.617523037253
20
-36.7691908074903
30
0
41
1
10
767.609970617246
20
-36.7734599239957
30
0
41
1
10
767.602805945573
20
-36.7767590400678
30
0
41
1
10
767.595857190031
20
-36.779516842549
30
0
41
1
10
767.592488182662
20
-36.7806205885044
30
0
41
1
10
767.583055300929
20
-36.7829562759446
30
0
41
1
10
767.577545205207
20
-36.783271768535
30
0
41
1
10
767.570498232641
20
-36.7817946242849
30
0
41
1
10
767.568376011671
20
-36.7809744605894
30
0
41
1
10
767.564654354123
20
-36.7787565513135
30
0
41
1
10
767.563037757473
20
-36.7773557333167
30
0
41
1
10
767.560259454652
20
-36.774009490891
30
0
41
1
10
767.559093183515
20
-36.7720491998703
30
0
41
1
10
767.557226873325
20
-36.7677016742305
30
0
41
1
10
767.55652113542
20
-36.7653155655993
30
0
41
1
10
767.555000491748
20
-36.7575992063801
30
0
41
1
10
767.554777789993
20
-36.7517086371889
30
0
41
1
10
767.555632396812
20
-36.7387330268784
30
0
41
1
10
767.556696677954
20
-36.7318045317933
30
0
41
1
10
767.559808928574
20
-36.7172648286038
30
0
41
1
10
767.561860013003
20
-36.7096514943773
30
0
41
1
10
767.566791414079
20
-36.6938480827414
30
0
41
1
10
767.569686859825
20
-36.6856265427377
30
0
41
1
10
767.579284463712
20
-36.6606698127019
30
0
41
1
10
767.586916033277
20
-36.6435153776102
30
0
41
1
10
767.599796548764
20
-36.617183726791
30
0
41
1
10
767.604333355951
20
-36.6083046902454
30
0
41
1
10
767.6138631021
20
-36.5903562030197
30
0
41
1
10
767.618869149208
20
-36.5812646199137
30
0
41
1
10
767.634415525727
20
-36.5539479878794
30
0
41
1
10
767.645494008421
20
-36.5356458158057
30
0
41
1
10
767.65725
20
-36.5172600263646
30
0
0
SPLINE
5
210
100
AcDbEntity
8
1
62
256
6
ByLayer
370
18
48
1
60
0
100
AcDbSpline
70
4
71
3
72
8
73
4
40
0
40
0
40
0
40
0
40
1
40
1
40
1
40
1
41
1
10
767.65725
20
-36.5172600263646
30
0
41
1
10
767.883402868272
20
-36.1635681246892
30
0
41
1
10
768.106110862472
20
-35.807009752043
30
0
41
1
10
768.325
20
-35.4472737184568
30
0
0
SPLINE
5
211
100
AcDbEntity
8
1
62
256
6
ByLayer
370
18
48
1
60
0
100
AcDbSpline
70
4
71
3
72
8
73
4
40
0
40
0
40
0
40
0
40
1
40
1
40
1
40
1
41
1
10
768.325
20
-35.1718989586855
30
0
41
1
10
768.102418501529
20
-35.3537654812508
30
0
41
1
10
767.879835104503
20
-35.5356289057286
30
0
41
1
10
767.65725
20
-35.7174895437174
30
0
0
SPLINE
5
212
100
AcDbEntity
8
1
62
256
6
ByLayer
370
18
48
1
60
0
100
AcDbSpline
70
4
71
3
72
39
73
35
40
0
40
0
40
0
40
0
40
0.0625000000000299
40
0.0625000000000299
40
0.12500000000006
40
0.12500000000006
40
0.156250000000067
40
0.156250000000067
40
0.187500000000074
40
0.218750000000081
40
0.218750000000081
40
0.250000000000088
40
0.250000000000088
40
0.281250000000095
40
0.281250000000095
40
0.312500000000102
40
0.312500000000102
40
0.375000000000092
40
0.375000000000092
40
0.406250000000087
40
0.406250000000087
40
0.437500000000083
40
0.437500000000083
40
0.500000000000074
40
0.500000000000074
40
0.562500000000064
40
0.562500000000064
40
0.625000000000055
40
0.625000000000055
40
0.750000000000037
40
0.750000000000037
40
0.875000000000018
40
0.875000000000018
40
1
40
1
40
1
40
1
41
1
10
767.65725
20
-35.7174895437178
30
0
41
1
10
767.648730065731
20
-35.7244506594907
30
0
41
1
10
767.640240384045
20
-35.7307815407502
30
0
41
1
10
767.623341124263
20
-35.7417632452964
30
0
41
1
10
767.615142835808
20
-35.7462664499832
30
0
41
1
10
767.603502565365
20
-35.7510809415406
30
0
41
1
10
767.599690571782
20
-35.7523720625327
30
0
41
1
10
767.592508199676
20
-35.7541712912096
30
0
41
1
10
767.585753036205
20
-35.7552066069193
30
0
41
1
10
767.57985489915
20
-35.7547064733949
30
0
41
1
10
767.57439678744
20
-35.7534162542925
30
0
41
1
10
767.571921227016
20
-35.7523773316268
30
0
41
1
10
767.567549364675
20
-35.7496208656571
30
0
41
1
10
767.565632865709
20
-35.747898944906
30
0
41
1
10
767.562294682936
20
-35.7438225688678
30
0
41
1
10
767.560877068862
20
-35.7414628784528
30
0
41
1
10
767.557390747716
20
-35.7337219486549
30
0
41
1
10
767.556027508755
20
-35.7276340826187
30
0
41
1
10
767.555089670381
20
-35.717429483273
30
0
41
1
10
767.554965589462
20
-35.7138375645455
30
0
41
1
10
767.555050764294
20
-35.7064542013077
30
0
41
1
10
767.555257937137
20
-35.7026486077681
30
0
41
1
10
767.55630692986
20
-35.6909353209466
30
0
41
1
10
767.557572712542
20
-35.6827335143565
30
0
41
1
10
767.561013886186
20
-35.6656965037119
30
0
41
1
10
767.563205111981
20
-35.6568151092977
30
0
41
1
10
767.568289962251
20
-35.638782912374
30
0
41
1
10
767.571181138174
20
-35.629625902738
30
0
41
1
10
767.580731495714
20
-35.6017996159803
30
0
41
1
10
767.588256700669
20
-35.5827793180618
30
0
41
1
10
767.605186633247
20
-35.5439764378925
30
0
41
1
10
767.614628433405
20
-35.5241441538708
30
0
41
1
10
767.634871171201
20
-35.4845227592418
30
0
41
1
10
767.645710540002
20
-35.4646414698822
30
0
41
1
10
767.65725
20
-35.4446939818604
30
0
0
SPLINE
5
213
100
AcDbEntity
8
1
62
256
6
ByLayer
370
18
48
1
60
0
100
AcDbSpline
70
4
71
3
72
8
73
4
40
0
40
0
40
0
40
0
40
1
40
1
40
1
40
1
41
1
10
767.65725
20
-35.4446939818604
30
0
41
1
10
767.884714477839
20
-35.0514914448503
30
0
41
1
10
768.107474410811
20
-34.6547707183938
30
0
41
1
10
768.325
20
-34.2541356041305
30
0
0
SPLINE
5
214
100
AcDbEntity
8
1
62
256
6
ByLayer
370
18
48
1
60
0
100
AcDbSpline
70
4
71
3
72
8
73
4
40
0
40
0
40
0
40
0
40
1
40
1
40
1
40
1
41
1
10
768.325
20
-33.9148985452474
30
0
41
1
10
768.10245879482
20
-34.0993076990685
30
0
41
1
10
767.879873851595
20
-34.2836464926994
30
0
41
1
10
767.65725
20
-34.467922592483
30
0
0
SPLINE
5
215
100
AcDbEntity
8
1
62
256
6
ByLayer
370
18
48
1
60
0
100
AcDbSpline
70
4
71
3
72
42
73
38
40
0
40
0
40
0
40
0
40
0.031250000000014
40
0.031250000000014
40
0.062500000000028
40
0.062500000000028
40
0.125000000000047
40
0.125000000000047
40
0.156250000000056
40
0.156250000000056
40
0.187500000000065
40
0.187500000000065
40
0.218750000000075
40
0.218750000000075
40
0.250000000000084
40
0.250000000000084
40
0.281250000000093
40
0.281250000000093
40
0.312500000000102
40
0.312500000000102
40
0.375000000000101
40
0.375000000000101
40
0.4375000000001
40
0.4375000000001
40
0.500000000000099
40
0.500000000000099
40
0.562500000000098
40
0.562500000000098
40
0.625000000000097
40
0.625000000000097
40
0.750000000000062
40
0.750000000000062
40
0.812500000000046
40
0.812500000000046
40
0.875000000000031
40
0.875000000000031
40
1
40
1
40
1
40
1
41
1
10
767.65725
20
-34.4679225924836
30
0
41
1
10
767.652715784636
20
-34.471675773092
30
0
41
1
10
767.648171982642
20
-34.4752242180369
30
0
41
1
10
767.639061851737
20
-34.4818389945718
30
0
41
1
10
767.634463110044
20
-34.4849246200637
30
0
41
1
10
767.620890781081
20
-34.4931405929676
30
0
41
1
10
767.612184274073
20
-34.4972382423703
30
0
41
1
10
767.599785944165
20
-34.500702455622
30
0
41
1
10
767.595798736559
20
-34.5013827539444
30
0
41
1
10
767.588437887232
20
-34.5017214914784
30
0
41
1
10
767.585016590109
20
-34.5013950629378
30
0
41
1
10
767.578687918255
20
-34.4997566279543
30
0
41
1
10
767.575771253971
20
-34.4984261404337
30
0
41
1
10
767.570642007269
20
-34.4949312757266
30
0
41
1
10
767.568396313809
20
-34.4927645906326
30
0
41
1
10
767.564466866063
20
-34.4876906958263
30
0
41
1
10
767.562790610632
20
-34.4847816386589
30
0
41
1
10
767.560004051664
20
-34.4784826949921
30
0
41
1
10
767.558878662108
20
-34.4750745187706
30
0
41
1
10
767.556177071261
20
-34.4641968163934
30
0
41
1
10
767.555271816216
20
-34.4560057663101
30
0
41
1
10
767.554835140454
20
-34.4387708886031
30
0
41
1
10
767.555287739564
20
-34.4297082172308
30
0
41
1
10
767.557198628638
20
-34.4109116919662
30
0
41
1
10
767.558660813748
20
-34.4011752998122
30
0
41
1
10
767.562414468341
20
-34.3811464862799
30
0
41
1
10
767.564690590357
20
-34.3709455342401
30
0
41
1
10
767.569864147007
20
-34.3503629399151
30
0
41
1
10
767.572766885172
20
-34.3399587323308
30
0
41
1
10
767.582286200838
20
-34.3084550597256
30
0
41
1
10
767.589704686116
20
-34.2870676906649
30
0
41
1
10
767.602170480304
20
-34.2545050517217
30
0
41
1
10
767.606561134335
20
-34.2435472674707
30
0
41
1
10
767.615723333452
20
-34.221600569116
30
0
41
1
10
767.620491747495
20
-34.2106169177788
30
0
41
1
10
767.635333434929
20
-34.1776369969177
30
0
41
1
10
767.645938290533
20
-34.1556119395238
30
0
41
1
10
767.65725
20
-34.1335510615021
30
0
0
SPLINE
5
216
100
AcDbEntity
8
1
62
256
6
ByLayer
370
18
48
1
60
0
100
AcDbSpline
70
4
71
3
72
8
73
4
40
0
40
0
40
0
40
0
40
1
40
1
40
1
40
1
41
1
10
767.65725
20
-34.1335510615021
30
0
41
1
10
767.886818670973
20
-33.6858303643899
30
0
41
1
10
768.10966477276
20
-33.2336986822701
30
0
41
1
10
768.325
20
-32.7766387719524
30
0
0
SPLINE
5
217
100
AcDbEntity
8
1
62
256
6
ByLayer
370
18
48
1
60
0
100
AcDbSpline
70
4
71
3
72
8
73
4
40
0
40
0
40
0
40
0
40
1
40
1
40
1
40
1
41
1
10
768.325
20
-32.3516106251977
30
0
41
1
10
768.102604575938
20
-32.5436304116715
30
0
41
1
10
767.880013178354
20
-32.7353468501454
30
0
41
1
10
767.65725
20
-32.9267973886533
30
0
0
SPLINE
5
218
100
AcDbEntity
8
1
62
256
6
ByLayer
370
18
48
1
60
0
100
AcDbSpline
70
4
71
3
72
40
73
36
40
0
40
0
40
0
40
0
40
0.0312500000000066
40
0.0312500000000066
40
0.0625000000000131
40
0.0625000000000131
40
0.0937500000000197
40
0.0937500000000197
40
0.125000000000026
40
0.125000000000026
40
0.156250000000033
40
0.156250000000033
40
0.187500000000039
40
0.187500000000039
40
0.218750000000046
40
0.218750000000046
40
0.250000000000053
40
0.250000000000053
40
0.281250000000059
40
0.281250000000059
40
0.312500000000066
40
0.312500000000066
40
0.375000000000052
40
0.375000000000052
40
0.437500000000038
40
0.437500000000038
40
0.500000000000023
40
0.500000000000023
40
0.625000000000018
40
0.625000000000018
40
0.750000000000012
40
0.750000000000012
40
0.875000000000006
40
0.875000000000006
40
1
40
1
40
1
40
1
41
1
10
767.65725
20
-32.9267973886543
30
0
41
1
10
767.652324785389
20
-32.93103029194
30
0
41
1
10
767.647356992028
20
-32.9349883582539
30
0
41
1
10
767.637315154054
20
-32.9422173806767
30
0
41
1
10
767.632248515211
20
-32.9454744594699
30
0
41
1
10
767.622330439527
20
-32.9509271559124
30
0
41
1
10
767.617440623879
20
-32.9531531239505
30
0
41
1
10
767.607826918484
20
-32.9564023130755
30
0
41
1
10
767.603111409145
20
-32.957400259307
30
0
41
1
10
767.594370949066
20
-32.9579463401289
30
0
41
1
10
767.590248358896
20
-32.9575103898114
30
0
41
1
10
767.582727371686
20
-32.95525147571
30
0
41
1
10
767.579382383949
20
-32.9534618281105
30
0
41
1
10
767.573407708144
20
-32.9487429753443
30
0
41
1
10
767.570784206276
20
-32.9457993979788
30
0
41
1
10
767.566309974722
20
-32.9391667912475
30
0
41
1
10
767.564427793416
20
-32.9354558159258
30
0
41
1
10
767.561236804879
20
-32.9273943022156
30
0
41
1
10
767.559924523398
20
-32.9230168864872
30
0
41
1
10
767.557820257697
20
-32.9138930625665
30
0
41
1
10
767.557021441388
20
-32.9091396280862
30
0
41
1
10
767.555235379233
20
-32.8944161496681
30
0
41
1
10
767.554850803663
20
-32.883988681111
30
0
41
1
10
767.555246538783
20
-32.8622431516892
30
0
41
1
10
767.556035160587
20
-32.8509757282844
30
0
41
1
10
767.558471756972
20
-32.8281699982704
30
0
41
1
10
767.5601236938
20
-32.8165750974251
30
0
41
1
10
767.566117480304
20
-32.7813270560718
30
0
41
1
10
767.571482810187
20
-32.7572167678186
30
0
41
1
10
767.584278013173
20
-32.7080635048205
30
0
41
1
10
767.591632558633
20
-32.6833433019132
30
0
41
1
10
767.607858354255
20
-32.6337950042144
30
0
41
1
10
767.616740588791
20
-32.6089426679609
30
0
41
1
10
767.635921765221
20
-32.5590955706646
30
0
41
1
10
767.646221364226
20
-32.5341007313014
30
0
41
1
10
767.65725
20
-32.5090350955961
30
0
0
SPLINE
5
219
100
AcDbEntity
8
1
62
256
6
ByLayer
370
18
48
1
60
0
100
AcDbSpline
70
4
71
3
72
8
73
4
40
0
40
0
40
0
40
0
40
1
40
1
40
1
40
1
41
1
10
767.65725
20
-32.5090350955961
30
0
41
1
10
767.890641792267
20
-31.9785874716348
30
0
41
1
10
768.11364948325
20
-31.4423948710324
30
0
41
1
10
768.325
20
-30.8997529695388
30
0
0
SPLINE
5
21A
100
AcDbEntity
8
1
62
256
6
ByLayer
370
18
48
1
60
0
100
AcDbSpline
70
4
71
3
72
8
73
4
40
0
40
0
40
0
40
0
40
1
40
1
40
1
40
1
41
1
10
768.325
20
-30.3440885798827
30
0
41
1
10
768.103076961139
20
-30.5543076667842
30
0
41
1
10
767.880459452193
20
-30.763541945958
30
0
41
1
10
767.65725
20
-30.9719368077156
30
0
0
SPLINE
5
21B
100
AcDbEntity
8
1
62
256
6
ByLayer
370
18
48
1
60
0
100
AcDbSpline
70
4
71
3
72
40
73
36
40
0
40
0
40
0
40
0
40
0.0312500000000136
40
0.0312500000000136
40
0.0625000000000271
40
0.0625000000000271
40
0.0781250000000306
40
0.0781250000000306
40
0.093750000000034
40
0.093750000000034
40
0.125000000000032
40
0.125000000000032
40
0.15625000000003
40
0.15625000000003
40
0.187500000000028
40
0.187500000000028
40
0.218750000000026
40
0.218750000000026
40
0.250000000000023
40
0.250000000000023
40
0.31250000000002
40
0.31250000000002
40
0.375000000000016
40
0.375000000000016
40
0.437500000000012
40
0.437500000000012
40
0.500000000000009
40
0.500000000000009
40
0.625000000000007
40
0.625000000000007
40
0.750000000000004
40
0.750000000000004
40
0.875000000000002
40
0.875000000000002
40
1
40
1
40
1
40
1
41
1
10
767.65725
20
-30.9719368077174
30
0
41
1
10
767.651733704435
20
-30.9770869823196
30
0
41
1
10
767.646066107436
20
-30.9818685053839
30
0
41
1
10
767.634562152208
20
-30.990213963215
30
0
41
1
10
767.628808977809
20
-30.9937238968537
30
0
41
1
10
767.62017698217
20
-30.9976946921551
30
0
41
1
10
767.61727725566
20
-30.9988069130606
30
0
41
1
10
767.61158738497
20
-31.0004876273591
30
0
41
1
10
767.608815785729
20
-31.0010543699415
30
0
41
1
10
767.600727543927
20
-31.0019083422356
30
0
41
1
10
767.595584332522
20
-31.0013031641793
30
0
41
1
10
767.586503060931
20
-30.997942257162
30
0
41
1
10
767.582444136121
20
-30.9951690292301
30
0
41
1
10
767.575492380429
20
-30.9881606207052
30
0
41
1
10
767.572565250109
20
-30.9839457301135
30
0
41
1
10
767.567523949783
20
-30.9744591495627
30
0
41
1
10
767.565433449282
20
-30.9692107590852
30
0
41
1
10
767.561966014372
20
-30.9582082977663
30
0
41
1
10
767.560571634745
20
-30.9524151269324
30
0
41
1
10
767.557163017579
20
-30.9343661924326
30
0
41
1
10
767.555916890592
20
-30.9213911024733
30
0
41
1
10
767.554799530385
20
-30.8949192077419
30
0
41
1
10
767.55491946233
20
-30.8813311437393
30
0
41
1
10
767.556115737511
20
-30.8536527796042
30
0
41
1
10
767.557197457677
20
-30.839559770735
30
0
41
1
10
767.5601156044
20
-30.8109731945704
30
0
41
1
10
767.561958590354
20
-30.7964574948818
30
0
41
1
10
767.568358916547
20
-30.7528700491861
30
0
41
1
10
767.573786247854
20
-30.7236009169862
30
0
41
1
10
767.586349200078
20
-30.6647425275219
30
0
41
1
10
767.593494825445
20
-30.6351516427576
30
0
41
1
10
767.609260086472
20
-30.5756900477691
30
0
41
1
10
767.617882392817
20
-30.5458188942517
30
0
41
1
10
767.636537462531
20
-30.4858097117188
30
0
41
1
10
767.646566260774
20
-30.4556942067353
30
0
41
1
10
767.65725
20
-30.4256727570753
30
0
0
SPLINE
5
21C
100
AcDbEntity
8
1
62
256
6
ByLayer
370
18
48
1
60
0
100
AcDbSpline
70
4
71
3
72
8
73
4
40
0
40
0
40
0
40
0
40
1
40
1
40
1
40
1
41
1
10
767.65725
20
-30.4256727570753
30
0
41
1
10
767.899443492047
20
-29.7451058155177
30
0
41
1
10
768.122833855469
20
-29.0564398856491
30
0
41
1
10
768.325
20
-28.3586321419823
30
0
0
SPLINE
5
21D
100
AcDbEntity
8
1
62
256
6
ByLayer
370
18
48
1
60
0
100
AcDbSpline
70
4
71
3
72
8
73
4
40
0
40
0
40
0
40
0
40
1
40
1
40
1
40
1
41
1
10
768.325
20
-27.5457307174601
30
0
41
1
10
768.105220267217
20
-27.8059028330128
30
0
41
1
10
767.88243970332
20
-28.0626087656947
30
0
41
1
10
767.65725
20
-28.3165319633673
30
0
0
SPLINE
5
21E
100
AcDbEntity
8
1
62
256
6
ByLayer
370
18
48
1
60
0
100
AcDbSpline
70
4
71
3
72
40
73
36
40
0
40
0
40
0
40
0
40
0.0312500000000056
40
0.0312500000000056
40
0.0468750000000084
40
0.0468750000000084
40
0.0625000000000112
40
0.0625000000000112
40
0.078125000000014
40
0.078125000000014
40
0.0937500000000168
40
0.0937500000000168
40
0.10937500000002
40
0.10937500000002
40
0.125000000000022
40
0.125000000000022
40
0.140625000000025
40
0.140625000000025
40
0.156250000000028
40
0.156250000000028
40
0.187500000000026
40
0.187500000000026
40
0.250000000000024
40
0.250000000000024
40
0.312500000000022
40
0.312500000000022
40
0.37500000000002
40
0.37500000000002
40
0.500000000000017
40
0.500000000000017
40
0.625000000000013
40
0.625000000000013
40
0.75000000000001
40
0.75000000000001
40
1
40
1
40
1
40
1
41
1
10
767.65725
20
-28.3165319633674
30
0
41
1
10
767.650694943635
20
-28.3239234242048
30
0
41
1
10
767.643856307001
20
-28.3306510785762
30
0
41
1
10
767.632828000437
20
-28.3389334077958
30
0
41
1
10
767.629054327816
20
-28.341346957565
30
0
41
1
10
767.621506084283
20
-28.3451244679181
30
0
41
1
10
767.61764714495
20
-28.3465169283607
30
0
41
1
10
767.610209805759
20
-28.3479542378577
30
0
41
1
10
767.606618079863
20
-28.3480230927703
30
0
41
1
10
767.599698960658
20
-28.3468049851734
30
0
41
1
10
767.596491641375
20
-28.3455348665644
30
0
41
1
10
767.590590250105
20
-28.341925801574
30
0
41
1
10
767.587881583886
20
-28.3395696170792
30
0
41
1
10
767.583040755929
20
-28.3341927602015
30
0
41
1
10
767.580873840228
20
-28.3311525836974
30
0
41
1
10
767.576925875258
20
-28.3245354510139
30
0
41
1
10
767.575146203238
20
-28.3209508487734
30
0
41
1
10
767.571958100517
20
-28.3135187668618
30
0
41
1
10
767.57053716708
20
-28.3096504066559
30
0
41
1
10
767.566674588752
20
-28.2976920770342
30
0
41
1
10
767.56462720792
20
-28.2892540480277
30
0
41
1
10
767.559543929198
20
-28.2629984895565
30
0
41
1
10
767.557615467712
20
-28.2447035450785
30
0
41
1
10
767.555271978326
20
-28.2074669079937
30
0
41
1
10
767.554890029934
20
-28.1884644029926
30
0
41
1
10
767.555160723138
20
-28.1499456266502
30
0
41
1
10
767.555822177156
20
-28.1304252360916
30
0
41
1
10
767.558978582121
20
-28.0712707476784
30
0
41
1
10
767.562586786564
20
-28.0316316535336
30
0
41
1
10
767.571676507637
20
-27.9521834580203
30
0
41
1
10
767.577183669213
20
-27.9123493896604
30
0
41
1
10
767.589657597443
20
-27.8325020244836
30
0
41
1
10
767.596630654187
20
-27.7924881911977
30
0
41
1
10
767.619443660266
20
-27.6722048886441
30
0
41
1
10
767.637125569122
20
-27.5916978016581
30
0
41
1
10
767.65725
20
-27.5108818292118
30
0
0
SPLINE
5
21F
100
AcDbEntity
8
1
62
256
6
ByLayer
370
18
48
1
60
0
100
AcDbSpline
70
4
71
3
72
8
73
4
40
0
40
0
40
0
40
0
40
1
40
1
40
1
40
1
41
1
10
767.65725
20
-27.5108818292118
30
0
41
1
10
767.940369761457
20
-26.3739255107662
30
0
41
1
10
768.165581223844
20
-25.2220587692645
30
0
41
1
10
768.325
20
-24.0532515062576
30
0
0
SPLINE
5
220
100
AcDbEntity
8
1
62
256
6
ByLayer
370
18
48
1
60
0
100
AcDbSpline
70
4
71
3
72
20
73
16
40
0
40
0
40
0
40
0
40
0.0624999999999999
40
0.0624999999999999
40
0.125
40
0.125
40
0.25
40
0.25
40
0.5
40
0.5
40
0.75
40
0.75
40
0.875
40
0.875
40
1
40
1
40
1
40
1
41
1
10
764.75
20
-40.0000000000028
30
0
41
1
10
764.75737666923
20
-40.0000000000028
30
0
41
1
10
764.764755723547
20
-39.9986814595508
30
0
41
1
10
764.779467468693
20
-39.9934079837862
30
0
41
1
10
764.786801986608
20
-39.9894528509261
30
0
41
1
10
764.808675442789
20
-39.9736326647427
30
0
41
1
10
764.823062932663
20
-39.957830345646
30
0
41
1
10
764.865126791693
20
-39.8947616393422
30
0
41
1
10
764.891734207204
20
-39.831851235572
30
0
41
1
10
764.938889082524
20
-39.6644304019762
30
0
41
1
10
764.959491764874
20
-39.5599211353652
30
0
41
1
10
764.982343235717
20
-39.3716186516607
30
0
41
1
10
764.988603710846
20
-39.303549984096
30
0
41
1
10
764.997422339369
20
-39.1571643634406
30
0
41
1
10
765
20
-39.07881998691
30
0
41
1
10
765
20
-38.9953125000029
30
0
0
SPLINE
5
221
100
AcDbEntity
8
1
62
256
6
ByLayer
370
13
48
1
60
0
100
AcDbSpline
70
4
71
3
72
20
73
16
40
0
40
0
40
0
40
0
40
0.125
40
0.125
40
0.25
40
0.25
40
0.5
40
0.5
40
0.75
40
0.75
40
0.875
40
0.875
40
0.9375
40
0.9375
40
1
40
1
40
1
40
1
41
1
10
765
20
38.9953124999973
30
0
41
1
10
765
20
39.0788199869044
30
0
41
1
10
764.99742233937
20
39.1571643634351
30
0
41
1
10
764.988603710846
20
39.3035499840905
30
0
41
1
10
764.982343235717
20
39.3716186516552
30
0
41
1
10
764.959491764874
20
39.5599211353597
30
0
41
1
10
764.938889082524
20
39.6644304019705
30
0
41
1
10
764.891734207204
20
39.8318512355664
30
0
41
1
10
764.865126791693
20
39.8947616393365
30
0
41
1
10
764.823062932663
20
39.9578303456403
30
0
41
1
10
764.808675442789
20
39.973632664737
30
0
41
1
10
764.786801986609
20
39.9894528509204
30
0
41
1
10
764.779467468693
20
39.9934079837805
30
0
41
1
10
764.764755723548
20
39.9986814595451
30
0
41
1
10
764.75737666923
20
39.9999999999972
30
0
41
1
10
764.75
20
39.9999999999972
30
0
0
SPLINE
5
222
100
AcDbEntity
8
SK1
62
256
6
ByLayer
370
18
48
1
60
0
100
AcDbSpline
70
4
71
3
72
11
73
7
40
0
40
0
40
0
40
0
40
0.2388893496862
40
0.497421607755303
40
0.757386725613643
40
1
40
1
40
1
40
1
41
1
10
-0.394913799811405
20
-27.3654112548763
30
0
41
1
10
-0.369683308142896
20
-27.3663394559984
30
0
41
1
10
-0.321111944271308
20
-27.3763891500634
30
0
41
1
10
-0.255177176288612
20
-27.4196125572155
30
0
41
1
10
-0.21124785119153
20
-27.4855974197866
30
0
41
1
10
-0.200957398531443
20
-27.5346319643647
30
0
41
1
10
-0.200000000000102
20
-27.5602884583736
30
0
0
SPLINE
5
223
100
AcDbEntity
8
SK1
62
256
6
ByLayer
370
18
48
1
60
0
100
AcDbSpline
70
4
71
3
72
11
73
7
40
0
40
0
40
0
40
0
40
0.242613274632052
40
0.502578392599584
40
0.761110650559863
40
1
40
1
40
1
40
1
41
1
10
-0.199999999999903
20
27.5602884593823
30
0
41
1
10
-0.200957398526072
20
27.5346319653141
30
0
41
1
10
-0.211247851186357
20
27.4855974206285
30
0
41
1
10
-0.255177176262095
20
27.4196125578967
30
0
41
1
10
-0.321111944249566
20
27.3763891506148
30
0
41
1
10
-0.369683308137354
20
27.3663394565247
30
0
41
1
10
-0.394913799811178
20
27.3654112553951
30
0
0
SPLINE
5
224
100
AcDbEntity
8
SK1
62
256
6
ByLayer
370
18
48
1
60
0
100
AcDbSpline
70
4
71
2
72
6
73
3
40
0
40
0
40
0
40
1
40
1
40
1
41
1
10
-46.4999999999999
20
26.4073080746202
30
0
41
1
10
-47.2500000380091
20
25.9743785821416
30
0
41
1
10
-47.9999999999999
20
25.541448947548
30
0
0
SPLINE
5
225
100
AcDbEntity
8
SK1
62
256
6
ByLayer
370
18
48
1
60
0
100
AcDbSpline
70
4
71
2
72
6
73
3
40
0
40
0
40
0
40
1
40
1
40
1
41
1
10
-48.0000000000001
20
-25.5414493215233
30
0
41
1
10
-47.2500000379547
20
-25.9743789770286
30
0
41
1
10
-46.5000000000001
20
-26.4073084920198
30
0
0
SPLINE
5
226
100
AcDbEntity
8
SK1
62
256
6
ByLayer
370
18
48
1
60
0
100
AcDbSpline
70
4
71
2
72
6
73
3
40
0
40
0
40
0
40
1
40
1
40
1
41
1
10
-0.394913799811178
20
27.3654109362823
30
0
41
1
10
-1.19497688887543
20
27.3453143410234
30
0
41
1
10
-1.9950399779392
20
27.3252177457659
30
0
0
SPLINE
5
227
100
AcDbEntity
8
SK1
62
256
6
ByLayer
370
18
48
1
60
0
100
AcDbSpline
70
4
71
2
72
6
73
3
40
0
40
0
40
0
40
1
40
1
40
1
41
1
10
-1.9950399779394
20
-27.3252177453533
30
0
41
1
10
-1.19497688887563
20
-27.3453143405603
30
0
41
1
10
-0.394913799811405
20
-27.3654109357686
30
0
0
SPLINE
5
228
100
AcDbEntity
8
SK1
62
256
6
ByLayer
370
18
48
1
60
0
100
AcDbSpline
70
4
71
3
72
13
73
9
40
0
40
0
40
0
40
0
40
0.239476651984635
40
0.368387280177935
40
0.500029253268045
40
0.631666356502875
40
0.760563560186411
40
1
40
1
40
1
40
1
41
1
10
-1.9950399779392
20
27.325218063952
30
0
41
1
10
-2.02110990202891
20
27.32481624703
30
0
41
1
10
-2.05883986745019
20
27.3309874079683
30
0
41
1
10
-2.1062765532715
20
27.3540268959373
30
0
41
1
10
-2.13886325113751
20
27.3791895462899
30
0
41
1
10
-2.16563551769417
20
27.4104653546573
30
0
41
1
10
-2.19103253553237
20
27.4566758426755
30
0
41
1
10
-2.19909167979034
20
27.4940420737146
30
0
41
1
10
-2.1999999999999
20
27.5200952679265
30
0
0
SPLINE
5
229
100
AcDbEntity
8
SK1
62
256
6
ByLayer
370
18
48
1
60
0
100
AcDbSpline
70
4
71
3
72
13
73
9
40
0
40
0
40
0
40
0
40
0.239436439566014
40
0.368333643169659
40
0.499970746376703
40
0.631612719497151
40
0.760523347771547
40
1
40
1
40
1
40
1
41
1
10
-2.2000000000001
20
-27.5200952670183
30
0
41
1
10
-2.19909167978668
20
-27.4940420728663
30
0
41
1
10
-2.19103253552868
20
-27.4566758419156
30
0
41
1
10
-2.16563551768937
20
-27.4104653540177
30
0
41
1
10
-2.13886325113109
20
-27.3791895457297
30
0
41
1
10
-2.10627655326451
20
-27.3540268954422
30
0
41
1
10
-2.05883986743982
20
-27.3309874075325
30
0
41
1
10
-2.02110990202363
20
-27.3248162466093
30
0
41
1
10
-1.9950399779394
20
-27.3252180635337
30
0
0
SPLINE
5
22A
100
AcDbEntity
8
SK1
62
256
6
ByLayer
370
18
48
1
60
0
100
AcDbSpline
70
4
71
2
72
6
73
3
40
0
40
0
40
0
40
1
40
1
40
1
41
1
10
-2.1999999999999
20
27.5062670250574
30
0
41
1
10
-24.3500000023321
20
26.9501984522265
30
0
41
1
10
-46.4999999999999
20
26.3941258787021
30
0
0
SPLINE
5
22B
100
AcDbEntity
8
SK1
62
256
6
ByLayer
370
18
48
1
60
0
100
AcDbSpline
70
4
71
2
72
6
73
3
40
0
40
0
40
0
40
1
40
1
40
1
41
1
10
-46.5000000000001
20
-26.39412588177
30
0
41
1
10
-24.3500000023322
20
-26.950198452504
30
0
41
1
10
-2.2000000000001
20
-27.5062670222795
30
0
0
LINE
5
8E
100
AcDbEntity
8
4
62
256
6
ByLayer
370
18
48
0.05
60
0
100
AcDbLine
10
762
20
20
30
0
11
768
21
20
31
0
39
0
210
0
220
0
230
1
0
LINE
5
90
100
AcDbEntity
8
80
62
256
6
ByLayer
370
18
48
1
60
0
100
AcDbLine
10
0
20
0
30
0
11
-5
21
0
31
0
39
0
210
0
220
0
230
1
0
LINE
5
91
100
AcDbEntity
8
SK4
62
256
6
ByLayer
370
18
48
0.05
60
0
100
AcDbLine
10
4
20
0
30
0
11
762
21
0
31
0
39
0
210
0
220
0
230
1
0
LINE
5
93
100
AcDbEntity
8
81
62
256
6
ByLayer
370
18
48
1
60
0
100
AcDbLine
10
768
20
20
30
0
11
773
21
20
31
0
39
0
210
0
220
0
230
1
0
LINE
5
94
100
AcDbEntity
8
1
62
256
6
ByLayer
370
18
48
1
60
0
100
AcDbLine
10
774.8
20
13.100505
30
0
11
774.8
21
7.100505
31
0
39
0
210
0
220
0
230
1
0
LINE
5
95
100
AcDbEntity
8
1
62
256
6
ByLayer
370
13
48
1
60
0
100
AcDbLine
10
768.325198
20
7.655005
30
0
11
774.8
21
7.655005
31
0
39
0
210
0
220
0
230
1
0
LINE
5
96
100
AcDbEntity
8
1
62
256
6
ByLayer
370
13
48
1
60
0
100
AcDbLine
10
768.325198
20
12.546005
30
0
11
774.8
21
12.546005
31
0
39
0
210
0
220
0
230
1
0
LINE
5
97
100
AcDbEntity
8
1
62
256
6
ByLayer
370
18
48
1
60
0
100
AcDbLine
10
774.8
20
-26.899495
30
0
11
774.8
21
-32.899495
31
0
39
0
210
0
220
0
230
1
0
LINE
5
98
100
AcDbEntity
8
1
62
256
6
ByLayer
370
13
48
1
60
0
100
AcDbLine
10
768.325198
20
-32.344995
30
0
11
774.8
21
-32.344995
31
0
39
0
210
0
220
0
230
1
0
LINE
5
99
100
AcDbEntity
8
1
62
256
6
ByLayer
370
13
48
1
60
0
100
AcDbLine
10
768.325198
20
-27.453995
30
0
11
774.8
21
-27.453995
31
0
39
0
210
0
220
0
230
1
0
LINE
5
9A
100
AcDbEntity
8
1
62
256
6
ByLayer
370
18
48
1
60
0
100
AcDbLine
10
774.8
20
32.899495
30
0
11
774.8
21
26.899495
31
0
39
0
210
0
220
0
230
1
0
LINE
5
9B
100
AcDbEntity
8
1
62
256
6
ByLayer
370
13
48
1
60
0
100
AcDbLine
10
768.325198
20
27.453995
30
0
11
774.8
21
27.453995
31
0
39
0
210
0
220
0
230
1
0
LINE
5
9C
100
AcDbEntity
8
1
62
256
6
ByLayer
370
13
48
1
60
0
100
AcDbLine
10
768.325198
20
32.344995
30
0
11
774.8
21
32.344995
31
0
39
0
210
0
220
0
230
1
0
LINE
5
9D
100
AcDbEntity
8
1
62
256
6
ByLayer
370
18
48
1
60
0
100
AcDbLine
10
774.8
20
-7.100505
30
0
11
774.8
21
-13.100505
31
0
39
0
210
0
220
0
230
1
0
LINE
5
9E
100
AcDbEntity
8
1
62
256
6
ByLayer
370
13
48
1
60
0
100
AcDbLine
10
768.325198
20
-12.546005
30
0
11
774.8
21
-12.546005
31
0
39
0
210
0
220
0
230
1
0
LINE
5
9F
100
AcDbEntity
8
1
62
256
6
ByLayer
370
13
48
1
60
0
100
AcDbLine
10
768.325198
20
-7.655005
30
0
11
774.8
21
-7.655005
31
0
39
0
210
0
220
0
230
1
0
LINE
5
A0
100
AcDbEntity
8
SK1
62
256
6
ByLayer
370
18
48
1
60
0
100
AcDbLine
10
-0.2
20
-6.552277
30
0
11
-0.2
21
-28.683485
31
0
39
0
210
0
220
0
230
1
0
LINE
5
A2
100
AcDbEntity
8
SK1
62
256
6
ByLayer
370
18
48
1
60
0
100
AcDbLine
10
-0.2
20
28.683485
30
0
11
-0.2
21
6.552279
31
0
39
0
210
0
220
0
230
1
0
LINE
5
A3
100
AcDbEntity
8
SK1
62
256
6
ByLayer
370
13
48
1
60
0
100
AcDbLine
10
-1.307107
20
4.393309
30
0
11
-1.307107
21
-4.393312
31
0
39
0
210
0
220
0
230
1
0
LINE
5
A4
100
AcDbEntity
8
1
62
256
6
ByLayer
370
13
48
1
60
0
100
AcDbLine
10
10.105662
20
37.944501
30
0
11
10.105662
21
12.6576
31
0
39
0
210
0
220
0
230
1
0
LINE
5
A5
100
AcDbEntity
8
1
62
256
6
ByLayer
370
13
48
1
60
0
100
AcDbLine
10
10.538675
20
38.115458
30
0
11
10.538675
21
12.13309
31
0
39
0
210
0
220
0
230
1
0
LINE
5
A6
100
AcDbEntity
8
1
62
256
6
ByLayer
370
13
48
1
60
0
100
AcDbLine
10
13.461325
20
-12.13309
30
0
11
13.461325
21
-38.115458
31
0
39
0
210
0
220
0
230
1
0
LINE
5
A7
100
AcDbEntity
8
1
62
256
6
ByLayer
370
13
48
1
60
0
100
AcDbLine
10
13.894338
20
-12.6576
30
0
11
13.894338
21
-37.944501
31
0
39
0
210
0
220
0
230
1
0
LINE
5
A8
100
AcDbEntity
8
1
62
256
6
ByLayer
370
13
48
1
60
0
100
AcDbLine
10
13.461325
20
38.115458
30
0
11
13.461325
21
12.13309
31
0
39
0
210
0
220
0
230
1
0
LINE
5
A9
100
AcDbEntity
8
1
62
256
6
ByLayer
370
13
48
1
60
0
100
AcDbLine
10
13.894338
20
37.944501
30
0
11
13.894338
21
12.6576
31
0
39
0
210
0
220
0
230
1
0
LINE
5
AA
100
AcDbEntity
8
1
62
256
6
ByLayer
370
13
48
1
60
0
100
AcDbLine
10
10.105662
20
-12.6576
30
0
11
10.105662
21
-37.944501
31
0
39
0
210
0
220
0
230
1
0
LINE
5
AB
100
AcDbEntity
8
1
62
256
6
ByLayer
370
13
48
1
60
0
100
AcDbLine
10
10.538675
20
-12.13309
30
0
11
10.538675
21
-38.115458
31
0
39
0
210
0
220
0
230
1
0
LINE
5
AC
100
AcDbEntity
8
1
62
256
6
ByLayer
370
18
48
1
60
0
100
AcDbLine
10
13.461325
20
12.13309
30
0
11
10.538675
21
12.13309
31
0
39
0
210
0
220
0
230
1
0
LINE
5
AD
100
AcDbEntity
8
1
62
256
6
ByLayer
370
18
48
1
60
0
100
AcDbLine
10
10.538675
20
38.115458
30
0
11
13.461325
21
38.115458
31
0
39
0
210
0
220
0
230
1
0
LINE
5
AE
100
AcDbEntity
8
1
62
256
6
ByLayer
370
18
48
1
60
0
100
AcDbLine
10
10.538675
20
-12.13309
30
0
11
13.461325
21
-12.13309
31
0
39
0
210
0
220
0
230
1
0
LINE
5
AF
100
AcDbEntity
8
1
62
256
6
ByLayer
370
18
48
1
60
0
100
AcDbLine
10
13.461325
20
-38.115458
30
0
11
10.538675
21
-38.115458
31
0
39
0
210
0
220
0
230
1
0
LINE
5
B0
100
AcDbEntity
8
1
62
256
6
ByLayer
370
18
48
1
60
0
100
AcDbLine
10
0.3
20
-40
30
0
11
0.3
21
40
31
0
39
0
210
0
220
0
230
1
0
LINE
5
B1
100
AcDbEntity
8
1
62
256
6
ByLayer
370
18
48
1
60
0
100
AcDbLine
10
0
20
-39.7
30
0
11
0
21
39.7
31
0
39
0
210
0
220
0
230
1
0
LINE
5
B2
100
AcDbEntity
8
1
62
256
6
ByLayer
370
13
48
1
60
0
100
AcDbLine
10
761.8
20
40
30
0
11
761.8
21
-40
31
0
39
0
210
0
220
0
230
1
0
LINE
5
B3
100
AcDbEntity
8
1
62
256
6
ByLayer
370
18
48
1
60
0
100
AcDbLine
10
762
20
39.8
30
0
11
762
21
-39.8
31
0
39
0
210
0
220
0
230
1
0
LINE
5
B4
100
AcDbEntity
8
1
62
256
6
ByLayer
370
18
48
1
60
0
100
AcDbLine
10
768.325
20
-38.976863
30
0
11
768.325
21
-38.887548
31
0
39
0
210
0
220
0
230
1
0
LINE
5
B5
100
AcDbEntity
8
1
62
256
6
ByLayer
370
18
48
1
60
0
100
AcDbLine
10
768.325
20
38.887548
30
0
11
768.325
21
38.976863
31
0
39
0
210
0
220
0
230
1
0
LINE
5
B6
100
AcDbEntity
8
1
62
256
6
ByLayer
370
13
48
1
60
0
100
AcDbLine
10
767.65725
20
-39.623209
30
0
11
767.65725
21
-39.596101
31
0
39
0
210
0
220
0
230
1
0
LINE
5
B7
100
AcDbEntity
8
1
62
256
6
ByLayer
370
13
48
1
60
0
100
AcDbLine
10
767.65725
20
39.596101
30
0
11
767.65725
21
39.623209
31
0
39
0
210
0
220
0
230
1
0
LINE
5
B8
100
AcDbEntity
8
1
62
256
6
ByLayer
370
18
48
1
60
0
100
AcDbLine
10
768.325
20
-38.843015
30
0
11
768.325
21
-38.662859
31
0
39
0
210
0
220
0
230
1
0
LINE
5
B9
100
AcDbEntity
8
1
62
256
6
ByLayer
370
18
48
1
60
0
100
AcDbLine
10
768.325
20
38.662859
30
0
11
768.325
21
38.843015
31
0
39
0
210
0
220
0
230
1
0
LINE
5
BA
100
AcDbEntity
8
1
62
256
6
ByLayer
370
13
48
1
60
0
100
AcDbLine
10
767.65725
20
-39.464112
30
0
11
767.65725
21
-39.409252
31
0
39
0
210
0
220
0
230
1
0
LINE
5
BB
100
AcDbEntity
8
1
62
256
6
ByLayer
370
13
48
1
60
0
100
AcDbLine
10
767.65725
20
39.409252
30
0
11
767.65725
21
39.464112
31
0
39
0
210
0
220
0
230
1
0
LINE
5
BC
100
AcDbEntity
8
1
62
256
6
ByLayer
370
18
48
1
60
0
100
AcDbLine
10
768.325
20
-38.587552
30
0
11
768.325
21
-38.312939
31
0
39
0
210
0
220
0
230
1
0
LINE
5
BD
100
AcDbEntity
8
1
62
256
6
ByLayer
370
18
48
1
60
0
100
AcDbLine
10
768.325
20
38.312939
30
0
11
768.325
21
38.587552
31
0
39
0
210
0
220
0
230
1
0
LINE
5
BE
100
AcDbEntity
8
1
62
256
6
ByLayer
370
13
48
1
60
0
100
AcDbLine
10
767.65725
20
-39.186791
30
0
11
767.65725
21
-39.103454
31
0
39
0
210
0
220
0
230
1
0
LINE
5
BF
100
AcDbEntity
8
1
62
256
6
ByLayer
370
13
48
1
60
0
100
AcDbLine
10
767.65725
20
39.103454
30
0
11
767.65725
21
39.186791
31
0
39
0
210
0
220
0
230
1
0
LINE
5
C0
100
AcDbEntity
8
1
62
256
6
ByLayer
370
18
48
1
60
0
100
AcDbLine
10
768.325
20
-38.205356
30
0
11
768.325
21
-37.830533
31
0
39
0
210
0
220
0
230
1
0
LINE
5
C1
100
AcDbEntity
8
1
62
256
6
ByLayer
370
18
48
1
60
0
100
AcDbLine
10
768.325
20
37.830533
30
0
11
768.325
21
38.205356
31
0
39
0
210
0
220
0
230
1
0
LINE
5
C2
100
AcDbEntity
8
1
62
256
6
ByLayer
370
13
48
1
60
0
100
AcDbLine
10
767.65725
20
-38.786012
30
0
11
767.65725
21
-38.672078
31
0
39
0
210
0
220
0
230
1
0
LINE
5
C3
100
AcDbEntity
8
1
62
256
6
ByLayer
370
13
48
1
60
0
100
AcDbLine
10
767.65725
20
38.672078
30
0
11
767.65725
21
38.786012
31
0
39
0
210
0
220
0
230
1
0
LINE
5
C4
100
AcDbEntity
8
1
62
256
6
ByLayer
370
18
48
1
60
0
100
AcDbLine
10
768.325
20
-37.688213
30
0
11
768.325
21
-37.204427
31
0
39
0
210
0
220
0
230
1
0
LINE
5
C5
100
AcDbEntity
8
1
62
256
6
ByLayer
370
18
48
1
60
0
100
AcDbLine
10
768.325
20
37.204427
30
0
11
768.325
21
37.688213
31
0
39
0
210
0
220
0
230
1
0
LINE
5
C6
100
AcDbEntity
8
1
62
256
6
ByLayer
370
13
48
1
60
0
100
AcDbLine
10
767.65725
20
-38.253645
30
0
11
767.65725
21
-38.10742
31
0
39
0
210
0
220
0
230
1
0
LINE
5
C7
100
AcDbEntity
8
1
62
256
6
ByLayer
370
13
48
1
60
0
100
AcDbLine
10
767.65725
20
38.10742
30
0
11
767.65725
21
38.253645
31
0
39
0
210
0
220
0
230
1
0
LINE
5
C8
100
AcDbEntity
8
1
62
256
6
ByLayer
370
18
48
1
60
0
100
AcDbLine
10
768.325
20
-37.023829
30
0
11
768.325
21
-36.418146
31
0
39
0
210
0
220
0
230
1
0
LINE
5
C9
100
AcDbEntity
8
1
62
256
6
ByLayer
370
18
48
1
60
0
100
AcDbLine
10
768.325
20
36.418146
30
0
11
768.325
21
37.023829
31
0
39
0
210
0
220
0
230
1
0
LINE
5
CA
100
AcDbEntity
8
1
62
256
6
ByLayer
370
13
48
1
60
0
100
AcDbLine
10
767.65725
20
-37.577738
30
0
11
767.65725
21
-37.395404
31
0
39
0
210
0
220
0
230
1
0
LINE
5
CB
100
AcDbEntity
8
1
62
256
6
ByLayer
370
13
48
1
60
0
100
AcDbLine
10
767.65725
20
37.395404
30
0
11
767.65725
21
37.577738
31
0
39
0
210
0
220
0
230
1
0
LINE
5
CC
100
AcDbEntity
8
1
62
256
6
ByLayer
370
18
48
1
60
0
100
AcDbLine
10
768.325
20
-36.194093
30
0
11
768.325
21
-35.447252
31
0
39
0
210
0
220
0
230
1
0
LINE
5
CD
100
AcDbEntity
8
1
62
256
6
ByLayer
370
18
48
1
60
0
100
AcDbLine
10
768.325
20
35.447252
30
0
11
768.325
21
36.194093
31
0
39
0
210
0
220
0
230
1
0
LINE
5
CE
100
AcDbEntity
8
1
62
256
6
ByLayer
370
13
48
1
60
0
100
AcDbLine
10
767.65725
20
-36.740913
30
0
11
767.65725
21
-36.517233
31
0
39
0
210
0
220
0
230
1
0
LINE
5
CF
100
AcDbEntity
8
1
62
256
6
ByLayer
370
13
48
1
60
0
100
AcDbLine
10
767.65725
20
36.517233
30
0
11
767.65725
21
36.740913
31
0
39
0
210
0
220
0
230
1
0
LINE
5
D0
100
AcDbEntity
8
1
62
256
6
ByLayer
370
18
48
1
60
0
100
AcDbLine
10
768.325
20
-35.171899
30
0
11
768.325
21
-34.254127
31
0
39
0
210
0
220
0
230
1
0
LINE
5
D1
100
AcDbEntity
8
1
62
256
6
ByLayer
370
18
48
1
60
0
100
AcDbLine
10
768.325
20
34.254127
30
0
11
768.325
21
35.171899
31
0
39
0
210
0
220
0
230
1
0
LINE
5
D2
100
AcDbEntity
8
1
62
256
6
ByLayer
370
18
48
1
60
0
100
AcDbLine
10
768.325
20
-4.769016
30
0
11
768.325
21
4.769016
31
0
39
0
210
0
220
0
230
1
0
LINE
5
D3
100
AcDbEntity
8
1
62
256
6
ByLayer
370
13
48
1
60
0
100
AcDbLine
10
767.65725
20
-35.71749
30
0
11
767.65725
21
-35.444653
31
0
39
0
210
0
220
0
230
1
0
LINE
5
D4
100
AcDbEntity
8
1
62
256
6
ByLayer
370
13
48
1
60
0
100
AcDbLine
10
767.65725
20
35.444653
30
0
11
767.65725
21
35.71749
31
0
39
0
210
0
220
0
230
1
0
LINE
5
D5
100
AcDbEntity
8
1
62
256
6
ByLayer
370
18
48
1
60
0
100
AcDbLine
10
768.325
20
-33.914899
30
0
11
768.325
21
-32.776617
31
0
39
0
210
0
220
0
230
1
0
LINE
5
D6
100
AcDbEntity
8
1
62
256
6
ByLayer
370
18
48
1
60
0
100
AcDbLine
10
768.325
20
-7.203252
30
0
11
768.325
21
-5.51781
31
0
39
0
210
0
220
0
230
1
0
LINE
5
D7
100
AcDbEntity
8
1
62
256
6
ByLayer
370
18
48
1
60
0
100
AcDbLine
10
768.325
20
5.51781
30
0
11
768.325
21
7.203252
31
0
39
0
210
0
220
0
230
1
0
LINE
5
D8
100
AcDbEntity
8
1
62
256
6
ByLayer
370
18
48
1
60
0
100
AcDbLine
10
768.325
20
32.776617
30
0
11
768.325
21
33.914899
31
0
39
0
210
0
220
0
230
1
0
LINE
5
D9
100
AcDbEntity
8
1
62
256
6
ByLayer
370
13
48
1
60
0
100
AcDbLine
10
767.65725
20
4.813001
30
0
11
767.65725
21
5.469579
31
0
39
0
210
0
220
0
230
1
0
LINE
5
DA
100
AcDbEntity
8
1
62
256
6
ByLayer
370
13
48
1
60
0
100
AcDbLine
10
767.65725
20
34.133378
30
0
11
767.65725
21
34.467923
31
0
39
0
210
0
220
0
230
1
0
LINE
5
DB
100
AcDbEntity
8
1
62
256
6
ByLayer
370
13
48
1
60
0
100
AcDbLine
10
767.65725
20
-34.467923
30
0
11
767.65725
21
-34.133378
31
0
39
0
210
0
220
0
230
1
0
LINE
5
DC
100
AcDbEntity
8
1
62
256
6
ByLayer
370
13
48
1
60
0
100
AcDbLine
10
767.65725
20
-5.469579
30
0
11
767.65725
21
-4.813001
31
0
39
0
210
0
220
0
230
1
0
LINE
5
DD
100
AcDbEntity
8
1
62
256
6
ByLayer
370
18
48
1
60
0
100
AcDbLine
10
768.325
20
-7.540984
30
0
11
768.325
21
-7.648389
31
0
39
0
210
0
220
0
230
1
0
LINE
5
DE
100
AcDbEntity
8
1
62
256
6
ByLayer
370
18
48
1
60
0
100
AcDbLine
10
768.325
20
7.648389
30
0
11
768.325
21
7.540984
31
0
39
0
210
0
220
0
230
1
0
LINE
5
DF
100
AcDbEntity
8
1
62
256
6
ByLayer
370
18
48
1
60
0
100
AcDbLine
10
768.325
20
7.648389
30
0
11
768.325
21
9.100476
31
0
39
0
210
0
220
0
230
1
0
LINE
5
E0
100
AcDbEntity
8
1
62
256
6
ByLayer
370
18
48
1
60
0
100
AcDbLine
10
768.325
20
30.899524
30
0
11
768.325
21
32.351611
31
0
39
0
210
0
220
0
230
1
0
LINE
5
E1
100
AcDbEntity
8
1
62
256
6
ByLayer
370
18
48
1
60
0
100
AcDbLine
10
768.325
20
-32.351611
30
0
11
768.325
21
-30.899524
31
0
39
0
210
0
220
0
230
1
0
LINE
5
E2
100
AcDbEntity
8
1
62
256
6
ByLayer
370
18
48
1
60
0
100
AcDbLine
10
768.325
20
-9.100476
30
0
11
768.325
21
-7.648389
31
0
39
0
210
0
220
0
230
1
0
LINE
5
E3
100
AcDbEntity
8
1
62
256
6
ByLayer
370
13
48
1
60
0
100
AcDbLine
10
768.325
20
-7.540984
30
0
11
767.803799
21
-7.199213
31
0
39
0
210
0
220
0
230
1
0
LINE
5
E4
100
AcDbEntity
8
1
62
256
6
ByLayer
370
18
48
1
60
0
100
AcDbLine
10
768.325
20
-7.203277
30
0
11
768.325
21
-7.540984
31
0
39
0
210
0
220
0
230
1
0
LINE
5
E5
100
AcDbEntity
8
1
62
256
6
ByLayer
370
18
48
1
60
0
100
AcDbLine
10
768.325
20
-4.769026
30
0
11
768.325
21
-5.51781
31
0
39
0
210
0
220
0
230
1
0
LINE
5
E6
100
AcDbEntity
8
1
62
256
6
ByLayer
370
18
48
1
60
0
100
AcDbLine
10
768.325
20
5.51781
30
0
11
768.325
21
4.769026
31
0
39
0
210
0
220
0
230
1
0
LINE
5
E7
100
AcDbEntity
8
1
62
256
6
ByLayer
370
18
48
1
60
0
100
AcDbLine
10
768.325
20
7.540984
30
0
11
768.325
21
7.203277
31
0
39
0
210
0
220
0
230
1
0
LINE
5
E8
100
AcDbEntity
8
1
62
256
6
ByLayer
370
13
48
1
60
0
100
AcDbLine
10
767.803799
20
7.199213
30
0
11
768.325
21
7.540984
31
0
39
0
210
0
220
0
230
1
0
LINE
5
E9
100
AcDbEntity
8
1
62
256
6
ByLayer
370
18
48
1
60
0
100
AcDbLine
10
767.325
20
-6.885246
30
0
11
767.325
21
6.885246
31
0
39
0
210
0
220
0
230
1
0
LINE
5
EA
100
AcDbEntity
8
1
62
256
6
ByLayer
370
13
48
1
60
0
100
AcDbLine
10
767.65725
20
7.07303
30
0
11
767.65725
21
7.491134
31
0
39
0
210
0
220
0
230
1
0
LINE
5
EB
100
AcDbEntity
8
1
62
256
6
ByLayer
370
13
48
1
60
0
100
AcDbLine
10
767.65725
20
32.508693
30
0
11
767.65725
21
32.926797
31
0
39
0
210
0
220
0
230
1
0
LINE
5
EC
100
AcDbEntity
8
1
62
256
6
ByLayer
370
13
48
1
60
0
100
AcDbLine
10
767.65725
20
-32.926797
30
0
11
767.65725
21
-32.508693
31
0
39
0
210
0
220
0
230
1
0
LINE
5
ED
100
AcDbEntity
8
1
62
256
6
ByLayer
370
13
48
1
60
0
100
AcDbLine
10
767.65725
20
-7.491134
30
0
11
767.65725
21
-7.07303
31
0
39
0
210
0
220
0
230
1
0
LINE
5
EE
100
AcDbEntity
8
1
62
256
6
ByLayer
370
13
48
1
60
0
100
AcDbLine
10
765.5
20
6.885246
30
0
11
765.5
21
-6.885246
31
0
39
0
210
0
220
0
230
1
0
LINE
5
EF
100
AcDbEntity
8
1
62
256
6
ByLayer
370
18
48
1
60
0
100
AcDbLine
10
768.325
20
-30.344089
30
0
11
768.325
21
-28.358347
31
0
39
0
210
0
220
0
230
1
0
LINE
5
F0
100
AcDbEntity
8
1
62
256
6
ByLayer
370
18
48
1
60
0
100
AcDbLine
10
768.325
20
-11.641653
30
0
11
768.325
21
-9.655911
31
0
39
0
210
0
220
0
230
1
0
LINE
5
F1
100
AcDbEntity
8
1
62
256
6
ByLayer
370
18
48
1
60
0
100
AcDbLine
10
768.325
20
9.655911
30
0
11
768.325
21
11.641653
31
0
39
0
210
0
220
0
230
1
0
LINE
5
F2
100
AcDbEntity
8
1
62
256
6
ByLayer
370
18
48
1
60
0
100
AcDbLine
10
768.325
20
28.358347
30
0
11
768.325
21
30.344089
31
0
39
0
210
0
220
0
230
1
0
LINE
5
F3
100
AcDbEntity
8
1
62
256
6
ByLayer
370
13
48
1
60
0
100
AcDbLine
10
767.65725
20
-30.971937
30
0
11
767.65725
21
-30.425397
31
0
39
0
210
0
220
0
230
1
0
LINE
5
F4
100
AcDbEntity
8
1
62
256
6
ByLayer
370
13
48
1
60
0
100
AcDbLine
10
767.65725
20
-9.574603
30
0
11
767.65725
21
-9.028063
31
0
39
0
210
0
220
0
230
1
0
LINE
5
F5
100
AcDbEntity
8
1
62
256
6
ByLayer
370
13
48
1
60
0
100
AcDbLine
10
767.65725
20
9.028063
30
0
11
767.65725
21
9.574603
31
0
39
0
210
0
220
0
230
1
0
LINE
5
F6
100
AcDbEntity
8
1
62
256
6
ByLayer
370
13
48
1
60
0
100
AcDbLine
10
767.65725
20
30.425397
30
0
11
767.65725
21
30.971937
31
0
39
0
210
0
220
0
230
1
0
LINE
5
F7
100
AcDbEntity
8
1
62
256
6
ByLayer
370
18
48
1
60
0
100
AcDbLine
10
768.325
20
-27.545731
30
0
11
768.325
21
-24.053236
31
0
39
0
210
0
220
0
230
1
0
LINE
5
F8
100
AcDbEntity
8
1
62
256
6
ByLayer
370
18
48
1
60
0
100
AcDbLine
10
768.325
20
-15.946764
30
0
11
768.325
21
-12.454269
31
0
39
0
210
0
220
0
230
1
0
LINE
5
F9
100
AcDbEntity
8
1
62
256
6
ByLayer
370
18
48
1
60
0
100
AcDbLine
10
768.325
20
12.454269
30
0
11
768.325
21
15.946764
31
0
39
0
210
0
220
0
230
1
0
LINE
5
FA
100
AcDbEntity
8
1
62
256
6
ByLayer
370
18
48
1
60
0
100
AcDbLine
10
768.325
20
24.053236
30
0
11
768.325
21
27.545731
31
0
39
0
210
0
220
0
230
1
0
LINE
5
FB
100
AcDbEntity
8
1
62
256
6
ByLayer
370
13
48
1
60
0
100
AcDbLine
10
767.65725
20
11.683468
30
0
11
767.65725
21
12.489132
31
0
39
0
210
0
220
0
230
1
0
LINE
5
FC
100
AcDbEntity
8
1
62
256
6
ByLayer
370
13
48
1
60
0
100
AcDbLine
10
767.65725
20
27.510868
30
0
11
767.65725
21
28.316532
31
0
39
0
210
0
220
0
230
1
0
LINE
5
FD
100
AcDbEntity
8
1
62
256
6
ByLayer
370
13
48
1
60
0
100
AcDbLine
10
767.65725
20
-28.316532
30
0
11
767.65725
21
-27.510868
31
0
39
0
210
0
220
0
230
1
0
LINE
5
FE
100
AcDbEntity
8
1
62
256
6
ByLayer
370
13
48
1
60
0
100
AcDbLine
10
767.65725
20
-12.489132
30
0
11
767.65725
21
-11.683468
31
0
39
0
210
0
220
0
230
1
0
LINE
5
FF
100
AcDbEntity
8
1
62
256
6
ByLayer
370
18
48
1
60
0
100
AcDbLine
10
768.325
20
18.458593
30
0
11
768.325
21
21.541407
31
0
39
0
210
0
220
0
230
1
0
LINE
5
100
100
AcDbEntity
8
1
62
256
6
ByLayer
370
18
48
1
60
0
100
AcDbLine
10
768.325
20
-21.541407
30
0
11
768.325
21
-18.458593
31
0
39
0
210
0
220
0
230
1
0
LINE
5
101
100
AcDbEntity
8
1
62
256
6
ByLayer
370
13
48
1
60
0
100
AcDbLine
10
767.65725
20
16.33312
30
0
11
767.65725
21
23.66688
31
0
39
0
210
0
220
0
230
1
0
LINE
5
102
100
AcDbEntity
8
1
62
256
6
ByLayer
370
13
48
1
60
0
100
AcDbLine
10
767.65725
20
-23.66688
30
0
11
767.65725
21
-16.33312
31
0
39
0
210
0
220
0
230
1
0
LINE
5
103
100
AcDbEntity
8
1
62
256
6
ByLayer
370
13
48
1
60
0
100
AcDbLine
10
765.5
20
6.885246
30
0
11
767.325
21
6.885246
31
0
39
0
210
0
220
0
230
1
0
LINE
5
104
100
AcDbEntity
8
1
62
256
6
ByLayer
370
18
48
1
60
0
100
AcDbLine
10
768.325
20
18.458593
30
0
11
768.325
21
15.946748
31
0
39
0
210
0
220
0
230
1
0
LINE
5
105
100
AcDbEntity
8
1
62
256
6
ByLayer
370
18
48
1
60
0
100
AcDbLine
10
768.325
20
24.053252
30
0
11
768.325
21
21.541407
31
0
39
0
210
0
220
0
230
1
0
LINE
5
106
100
AcDbEntity
8
1
62
256
6
ByLayer
370
18
48
1
60
0
100
AcDbLine
10
768.325
20
28.358632
30
0
11
768.325
21
27.545731
31
0
39
0
210
0
220
0
230
1
0
LINE
5
107
100
AcDbEntity
8
1
62
256
6
ByLayer
370
18
48
1
60
0
100
AcDbLine
10
768.325
20
30.899753
30
0
11
768.325
21
30.344089
31
0
39
0
210
0
220
0
230
1
0
LINE
5
108
100
AcDbEntity
8
1
62
256
6
ByLayer
370
18
48
1
60
0
100
AcDbLine
10
768.325
20
32.776639
30
0
11
768.325
21
32.351611
31
0
39
0
210
0
220
0
230
1
0
LINE
5
109
100
AcDbEntity
8
1
62
256
6
ByLayer
370
18
48
1
60
0
100
AcDbLine
10
768.325
20
34.254136
30
0
11
768.325
21
33.914899
31
0
39
0
210
0
220
0
230
1
0
LINE
5
10A
100
AcDbEntity
8
1
62
256
6
ByLayer
370
18
48
1
60
0
100
AcDbLine
10
768.325
20
35.447274
30
0
11
768.325
21
35.171899
31
0
39
0
210
0
220
0
230
1
0
LINE
5
10B
100
AcDbEntity
8
1
62
256
6
ByLayer
370
18
48
1
60
0
100
AcDbLine
10
768.325
20
36.418165
30
0
11
768.325
21
36.194093
31
0
39
0
210
0
220
0
230
1
0
LINE
5
10C
100
AcDbEntity
8
1
62
256
6
ByLayer
370
18
48
1
60
0
100
AcDbLine
10
768.325
20
37.204477
30
0
11
768.325
21
37.023829
31
0
39
0
210
0
220
0
230
1
0
LINE
5
10D
100
AcDbEntity
8
1
62
256
6
ByLayer
370
18
48
1
60
0
100
AcDbLine
10
768.325
20
37.830645
30
0
11
768.325
21
37.688213
31
0
39
0
210
0
220
0
230
1
0
LINE
5
10E
100
AcDbEntity
8
1
62
256
6
ByLayer
370
18
48
1
60
0
100
AcDbLine
10
768.325
20
38.313105
30
0
11
768.325
21
38.205356
31
0
39
0
210
0
220
0
230
1
0
LINE
5
10F
100
AcDbEntity
8
1
62
256
6
ByLayer
370
18
48
1
60
0
100
AcDbLine
10
768.325
20
38.663003
30
0
11
768.325
21
38.587552
31
0
39
0
210
0
220
0
230
1
0
LINE
5
110
100
AcDbEntity
8
1
62
256
6
ByLayer
370
18
48
1
60
0
100
AcDbLine
10
768.325
20
38.887709
30
0
11
768.325
21
38.843015
31
0
39
0
210
0
220
0
230
1
0
LINE
5
111
100
AcDbEntity
8
1
62
256
6
ByLayer
370
18
48
1
60
0
100
AcDbLine
10
768.325
20
38.991668
30
0
11
768.325
21
38.976863
31
0
39
0
210
0
220
0
230
1
0
LINE
5
112
100
AcDbEntity
8
1
62
256
6
ByLayer
370
18
48
1
60
0
100
AcDbLine
10
767.325
20
40
30
0
11
767.325
21
6.885246
31
0
39
0
210
0
220
0
230
1
0
LINE
5
113
100
AcDbEntity
8
1
62
256
6
ByLayer
370
13
48
1
60
0
100
AcDbLine
10
767.325
20
6.885246
30
0
11
767.575582
21
7.049562
31
0
39
0
210
0
220
0
230
1
0
LINE
5
114
100
AcDbEntity
8
1
62
256
6
ByLayer
370
18
48
1
60
0
100
AcDbLine
10
768.325
20
9.655911
30
0
11
768.325
21
9.100247
31
0
39
0
210
0
220
0
230
1
0
LINE
5
115
100
AcDbEntity
8
1
62
256
6
ByLayer
370
18
48
1
60
0
100
AcDbLine
10
768.325
20
12.454269
30
0
11
768.325
21
11.641368
31
0
39
0
210
0
220
0
230
1
0
LINE
5
116
100
AcDbEntity
8
1
62
256
6
ByLayer
370
13
48
1
60
0
100
AcDbLine
10
765.5
20
-6.885246
30
0
11
767.325
21
-6.885246
31
0
39
0
210
0
220
0
230
1
0
LINE
5
117
100
AcDbEntity
8
1
62
256
6
ByLayer
370
18
48
1
60
0
100
AcDbLine
10
768.325
20
-21.541407
30
0
11
768.325
21
-24.053252
31
0
39
0
210
0
220
0
230
1
0
LINE
5
118
100
AcDbEntity
8
1
62
256
6
ByLayer
370
18
48
1
60
0
100
AcDbLine
10
768.325
20
-15.946748
30
0
11
768.325
21
-18.458593
31
0
39
0
210
0
220
0
230
1
0
LINE
5
119
100
AcDbEntity
8
1
62
256
6
ByLayer
370
18
48
1
60
0
100
AcDbLine
10
768.325
20
-11.641368
30
0
11
768.325
21
-12.454269
31
0
39
0
210
0
220
0
230
1
0
LINE
5
11A
100
AcDbEntity
8
1
62
256
6
ByLayer
370
18
48
1
60
0
100
AcDbLine
10
768.325
20
-9.100247
30
0
11
768.325
21
-9.655911
31
0
39
0
210
0
220
0
230
1
0
LINE
5
11B
100
AcDbEntity
8
1
62
256
6
ByLayer
370
13
48
1
60
0
100
AcDbLine
10
767.575582
20
-7.049562
30
0
11
767.325
21
-6.885246
31
0
39
0
210
0
220
0
230
1
0
LINE
5
11C
100
AcDbEntity
8
1
62
256
6
ByLayer
370
18
48
1
60
0
100
AcDbLine
10
767.325
20
-6.885246
30
0
11
767.325
21
-40
31
0
39
0
210
0
220
0
230
1
0
LINE
5
11D
100
AcDbEntity
8
1
62
256
6
ByLayer
370
18
48
1
60
0
100
AcDbLine
10
768.325
20
-38.976863
30
0
11
768.325
21
-38.991668
31
0
39
0
210
0
220
0
230
1
0
LINE
5
11E
100
AcDbEntity
8
1
62
256
6
ByLayer
370
18
48
1
60
0
100
AcDbLine
10
768.325
20
-38.843015
30
0
11
768.325
21
-38.887709
31
0
39
0
210
0
220
0
230
1
0
LINE
5
11F
100
AcDbEntity
8
1
62
256
6
ByLayer
370
18
48
1
60
0
100
AcDbLine
10
768.325
20
-38.587552
30
0
11
768.325
21
-38.663003
31
0
39
0
210
0
220
0
230
1
0
LINE
5
120
100
AcDbEntity
8
1
62
256
6
ByLayer
370
18
48
1
60
0
100
AcDbLine
10
768.325
20
-38.205356
30
0
11
768.325
21
-38.313105
31
0
39
0
210
0
220
0
230
1
0
LINE
5
121
100
AcDbEntity
8
1
62
256
6
ByLayer
370
18
48
1
60
0
100
AcDbLine
10
768.325
20
-37.688213
30
0
11
768.325
21
-37.830645
31
0
39
0
210
0
220
0
230
1
0
LINE
5
122
100
AcDbEntity
8
1
62
256
6
ByLayer
370
18
48
1
60
0
100
AcDbLine
10
768.325
20
-37.023829
30
0
11
768.325
21
-37.204477
31
0
39
0
210
0
220
0
230
1
0
LINE
5
123
100
AcDbEntity
8
1
62
256
6
ByLayer
370
18
48
1
60
0
100
AcDbLine
10
768.325
20
-36.194093
30
0
11
768.325
21
-36.418165
31
0
39
0
210
0
220
0
230
1
0
LINE
5
124
100
AcDbEntity
8
1
62
256
6
ByLayer
370
18
48
1
60
0
100
AcDbLine
10
768.325
20
-35.171899
30
0
11
768.325
21
-35.447274
31
0
39
0
210
0
220
0
230
1
0
LINE
5
125
100
AcDbEntity
8
1
62
256
6
ByLayer
370
18
48
1
60
0
100
AcDbLine
10
768.325
20
-33.914899
30
0
11
768.325
21
-34.254136
31
0
39
0
210
0
220
0
230
1
0
LINE
5
126
100
AcDbEntity
8
1
62
256
6
ByLayer
370
18
48
1
60
0
100
AcDbLine
10
768.325
20
-32.351611
30
0
11
768.325
21
-32.776639
31
0
39
0
210
0
220
0
230
1
0
LINE
5
127
100
AcDbEntity
8
1
62
256
6
ByLayer
370
18
48
1
60
0
100
AcDbLine
10
768.325
20
-30.344089
30
0
11
768.325
21
-30.899753
31
0
39
0
210
0
220
0
230
1
0
LINE
5
128
100
AcDbEntity
8
1
62
256
6
ByLayer
370
18
48
1
60
0
100
AcDbLine
10
768.325
20
-27.545731
30
0
11
768.325
21
-28.358632
31
0
39
0
210
0
220
0
230
1
0
LINE
5
129
100
AcDbEntity
8
1
62
256
6
ByLayer
370
13
48
1
60
0
100
AcDbLine
10
765.5
20
38.532012
30
0
11
765.5
21
6.885246
31
0
39
0
210
0
220
0
230
1
0
LINE
5
12A
100
AcDbEntity
8
1
62
256
6
ByLayer
370
13
48
1
60
0
100
AcDbLine
10
765.5
20
-6.885246
30
0
11
765.5
21
-38.532012
31
0
39
0
210
0
220
0
230
1
0
LINE
5
12B
100
AcDbEntity
8
1
62
256
6
ByLayer
370
13
48
1
60
0
100
AcDbLine
10
764.75
20
-40
30
0
11
764.75
21
39.75
31
0
39
0
210
0
220
0
230
1
0
LINE
5
12C
100
AcDbEntity
8
1
62
256
6
ByLayer
370
18
48
1
60
0
100
AcDbLine
10
765
20
38.995312
30
0
11
765
21
-38.995313
31
0
39
0
210
0
220
0
230
1
0
LINE
5
12D
100
AcDbEntity
8
1
62
256
6
ByLayer
370
13
48
1
60
0
100
AcDbLine
10
764.75
20
39.75
30
0
11
764.75
21
40
31
0
39
0
210
0
220
0
230
1
0
LINE
5
12E
100
AcDbEntity
8
1
62
256
6
ByLayer
370
13
48
1
60
0
100
AcDbLine
10
762.25
20
40
30
0
11
762.25
21
-40
31
0
39
0
210
0
220
0
230
1
0
LINE
5
12F
100
AcDbEntity
8
1
62
256
6
ByLayer
370
13
48
1
60
0
100
AcDbLine
10
774.8
20
13.100505
30
0
11
774.8
21
10.100505
31
0
39
0
210
0
220
0
230
1
0
LINE
5
130
100
AcDbEntity
8
1
62
256
6
ByLayer
370
13
48
1
60
0
100
AcDbLine
10
774.8
20
10.100505
30
0
11
774.8
21
7.100505
31
0
39
0
210
0
220
0
230
1
0
LINE
5
131
100
AcDbEntity
8
1
62
256
6
ByLayer
370
18
48
1
60
0
100
AcDbLine
10
781
20
5.700505
30
0
11
781
21
10.100505
31
0
39
0
210
0
220
0
230
1
0
LINE
5
132
100
AcDbEntity
8
1
62
256
6
ByLayer
370
18
48
1
60
0
100
AcDbLine
10
781
20
10.100505
30
0
11
781
21
14.500505
31
0
39
0
210
0
220
0
230
1
0
LINE
5
133
100
AcDbEntity
8
1
62
256
6
ByLayer
370
13
48
1
60
0
100
AcDbLine
10
780.4
20
15.100505
30
0
11
780.4
21
10.100505
31
0
39
0
210
0
220
0
230
1
0
LINE
5
134
100
AcDbEntity
8
1
62
256
6
ByLayer
370
13
48
1
60
0
100
AcDbLine
10
780.4
20
10.100505
30
0
11
780.4
21
5.100505
31
0
39
0
210
0
220
0
230
1
0
LINE
5
135
100
AcDbEntity
8
1
62
256
6
ByLayer
370
18
48
1
60
0
100
AcDbLine
10
775
20
5.100505
30
0
11
775
21
10.100505
31
0
39
0
210
0
220
0
230
1
0
LINE
5
136
100
AcDbEntity
8
1
62
256
6
ByLayer
370
18
48
1
60
0
100
AcDbLine
10
775
20
10.100505
30
0
11
775
21
15.100505
31
0
39
0
210
0
220
0
230
1
0
LINE
5
137
100
AcDbEntity
8
1
62
256
6
ByLayer
370
13
48
1
60
0
100
AcDbLine
10
774.8
20
-26.899495
30
0
11
774.8
21
-29.899495
31
0
39
0
210
0
220
0
230
1
0
LINE
5
138
100
AcDbEntity
8
1
62
256
6
ByLayer
370
13
48
1
60
0
100
AcDbLine
10
774.8
20
-29.899495
30
0
11
774.8
21
-32.899495
31
0
39
0
210
0
220
0
230
1
0
LINE
5
139
100
AcDbEntity
8
1
62
256
6
ByLayer
370
13
48
1
60
0
100
AcDbLine
10
780.4
20
-24.899495
30
0
11
780.4
21
-29.899495
31
0
39
0
210
0
220
0
230
1
0
LINE
5
13A
100
AcDbEntity
8
1
62
256
6
ByLayer
370
13
48
1
60
0
100
AcDbLine
10
780.4
20
-29.899495
30
0
11
780.4
21
-34.899495
31
0
39
0
210
0
220
0
230
1
0
LINE
5
13B
100
AcDbEntity
8
1
62
256
6
ByLayer
370
18
48
1
60
0
100
AcDbLine
10
775
20
-34.899495
30
0
11
775
21
-29.899495
31
0
39
0
210
0
220
0
230
1
0
LINE
5
13C
100
AcDbEntity
8
1
62
256
6
ByLayer
370
18
48
1
60
0
100
AcDbLine
10
775
20
-29.899495
30
0
11
775
21
-24.899495
31
0
39
0
210
0
220
0
230
1
0
LINE
5
13D
100
AcDbEntity
8
1
62
256
6
ByLayer
370
18
48
1
60
0
100
AcDbLine
10
781
20
-34.299495
30
0
11
781
21
-29.899495
31
0
39
0
210
0
220
0
230
1
0
LINE
5
13E
100
AcDbEntity
8
1
62
256
6
ByLayer
370
18
48
1
60
0
100
AcDbLine
10
781
20
-29.899495
30
0
11
781
21
-25.499495
31
0
39
0
210
0
220
0
230
1
0
LINE
5
13F
100
AcDbEntity
8
1
62
256
6
ByLayer
370
13
48
1
60
0
100
AcDbLine
10
774.8
20
32.899495
30
0
11
774.8
21
26.899495
31
0
39
0
210
0
220
0
230
1
0
LINE
5
140
100
AcDbEntity
8
1
62
256
6
ByLayer
370
18
48
1
60
0
100
AcDbLine
10
775
20
34.899495
30
0
11
775
21
24.899495
31
0
39
0
210
0
220
0
230
1
0
LINE
5
141
100
AcDbEntity
8
1
62
256
6
ByLayer
370
13
48
1
60
0
100
AcDbLine
10
780.4
20
34.899495
30
0
11
780.4
21
24.899495
31
0
39
0
210
0
220
0
230
1
0
LINE
5
142
100
AcDbEntity
8
1
62
256
6
ByLayer
370
18
48
1
60
0
100
AcDbLine
10
781
20
34.299495
30
0
11
781
21
25.499495
31
0
39
0
210
0
220
0
230
1
0
LINE
5
143
100
AcDbEntity
8
1
62
256
6
ByLayer
370
13
48
1
60
0
100
AcDbLine
10
774.8
20
-7.100505
30
0
11
774.8
21
-13.100505
31
0
39
0
210
0
220
0
230
1
0
LINE
5
144
100
AcDbEntity
8
1
62
256
6
ByLayer
370
13
48
1
60
0
100
AcDbLine
10
780.4
20
-5.100505
30
0
11
780.4
21
-15.100505
31
0
39
0
210
0
220
0
230
1
0
LINE
5
145
100
AcDbEntity
8
1
62
256
6
ByLayer
370
18
48
1
60
0
100
AcDbLine
10
781
20
-5.700505
30
0
11
781
21
-14.500505
31
0
39
0
210
0
220
0
230
1
0
LINE
5
146
100
AcDbEntity
8
1
62
256
6
ByLayer
370
18
48
1
60
0
100
AcDbLine
10
775
20
-5.100505
30
0
11
775
21
-15.100505
31
0
39
0
210
0
220
0
230
1
0
LINE
5
147
100
AcDbEntity
8
1
62
256
6
ByLayer
370
18
48
1
60
0
100
AcDbLine
10
761.8
20
40
30
0
11
0.3
21
40
31
0
39
0
210
0
220
0
230
1
0
LINE
5
148
100
AcDbEntity
8
1
62
256
6
ByLayer
370
18
48
1
60
0
100
AcDbLine
10
0.3
20
-40
30
0
11
761.8
21
-40
31
0
39
0
210
0
220
0
230
1
0
LINE
5
149
100
AcDbEntity
8
1
62
256
6
ByLayer
370
18
48
1
60
0
100
AcDbLine
10
0
20
-39.7
30
0
11
0.3
21
-40
31
0
39
0
210
0
220
0
230
1
0
LINE
5
14A
100
AcDbEntity
8
1
62
256
6
ByLayer
370
18
48
1
60
0
100
AcDbLine
10
0.3
20
40
30
0
11
0
21
39.7
31
0
39
0
210
0
220
0
230
1
0
LINE
5
14B
100
AcDbEntity
8
1
62
256
6
ByLayer
370
18
48
1
60
0
100
AcDbLine
10
767.325
20
40
30
0
11
764.75
21
40
31
0
39
0
210
0
220
0
230
1
0
LINE
5
14C
100
AcDbEntity
8
1
62
256
6
ByLayer
370
18
48
1
60
0
100
AcDbLine
10
767.556678
20
39.768322
30
0
11
767.325
21
40
31
0
39
0
210
0
220
0
230
1
0
LINE
5
14D
100
AcDbEntity
8
1
62
256
6
ByLayer
370
18
48
1
60
0
100
AcDbLine
10
764.75
20
-40
30
0
11
767.325
21
-40
31
0
39
0
210
0
220
0
230
1
0
LINE
5
14E
100
AcDbEntity
8
1
62
256
6
ByLayer
370
18
48
1
60
0
100
AcDbLine
10
767.325
20
-40
30
0
11
767.556678
21
-39.768322
31
0
39
0
210
0
220
0
230
1
0
LINE
5
14F
100
AcDbEntity
8
1
62
256
6
ByLayer
370
18
48
1
60
0
100
AcDbLine
10
764.75
20
40
30
0
11
762.25
21
40
31
0
39
0
210
0
220
0
230
1
0
LINE
5
150
100
AcDbEntity
8
1
62
256
6
ByLayer
370
18
48
1
60
0
100
AcDbLine
10
762.25
20
-40
30
0
11
764.75
21
-40
31
0
39
0
210
0
220
0
230
1
0
LINE
5
151
100
AcDbEntity
8
1
62
256
6
ByLayer
370
18
48
1
60
0
100
AcDbLine
10
768.325098
20
7.100505
30
0
11
774.8
21
7.100505
31
0
39
0
210
0
220
0
230
1
0
LINE
5
152
100
AcDbEntity
8
1
62
256
6
ByLayer
370
18
48
1
60
0
100
AcDbLine
10
774.8
20
13.100505
30
0
11
768.325098
21
13.100505
31
0
39
0
210
0
220
0
230
1
0
LINE
5
153
100
AcDbEntity
8
1
62
256
6
ByLayer
370
18
48
1
60
0
100
AcDbLine
10
775
20
5.100505
30
0
11
780.4
21
5.100505
31
0
39
0
210
0
220
0
230
1
0
LINE
5
154
100
AcDbEntity
8
1
62
256
6
ByLayer
370
18
48
1
60
0
100
AcDbLine
10
780.4
20
15.100505
30
0
11
775
21
15.100505
31
0
39
0
210
0
220
0
230
1
0
LINE
5
155
100
AcDbEntity
8
1
62
256
6
ByLayer
370
18
48
1
60
0
100
AcDbLine
10
768.325098
20
-32.899495
30
0
11
774.8
21
-32.899495
31
0
39
0
210
0
220
0
230
1
0
LINE
5
156
100
AcDbEntity
8
1
62
256
6
ByLayer
370
18
48
1
60
0
100
AcDbLine
10
774.8
20
-26.899495
30
0
11
768.325098
21
-26.899495
31
0
39
0
210
0
220
0
230
1
0
LINE
5
157
100
AcDbEntity
8
1
62
256
6
ByLayer
370
18
48
1
60
0
100
AcDbLine
10
775
20
-34.899495
30
0
11
780.4
21
-34.899495
31
0
39
0
210
0
220
0
230
1
0
LINE
5
158
100
AcDbEntity
8
1
62
256
6
ByLayer
370
18
48
1
60
0
100
AcDbLine
10
780.4
20
-24.899495
30
0
11
775
21
-24.899495
31
0
39
0
210
0
220
0
230
1
0
LINE
5
159
100
AcDbEntity
8
1
62
256
6
ByLayer
370
18
48
1
60
0
100
AcDbLine
10
768.325098
20
26.899495
30
0
11
774.8
21
26.899495
31
0
39
0
210
0
220
0
230
1
0
LINE
5
15A
100
AcDbEntity
8
1
62
256
6
ByLayer
370
18
48
1
60
0
100
AcDbLine
10
774.8
20
32.899495
30
0
11
768.325098
21
32.899495
31
0
39
0
210
0
220
0
230
1
0
LINE
5
15B
100
AcDbEntity
8
1
62
256
6
ByLayer
370
18
48
1
60
0
100
AcDbLine
10
775
20
24.899495
30
0
11
780.4
21
24.899495
31
0
39
0
210
0
220
0
230
1
0
LINE
5
15C
100
AcDbEntity
8
1
62
256
6
ByLayer
370
18
48
1
60
0
100
AcDbLine
10
780.4
20
34.899495
30
0
11
775
21
34.899495
31
0
39
0
210
0
220
0
230
1
0
LINE
5
15D
100
AcDbEntity
8
1
62
256
6
ByLayer
370
18
48
1
60
0
100
AcDbLine
10
768.325098
20
-13.100505
30
0
11
774.8
21
-13.100505
31
0
39
0
210
0
220
0
230
1
0
LINE
5
15E
100
AcDbEntity
8
1
62
256
6
ByLayer
370
18
48
1
60
0
100
AcDbLine
10
774.8
20
-7.100505
30
0
11
768.325098
21
-7.100505
31
0
39
0
210
0
220
0
230
1
0
LINE
5
15F
100
AcDbEntity
8
1
62
256
6
ByLayer
370
18
48
1
60
0
100
AcDbLine
10
775
20
-15.100505
30
0
11
780.4
21
-15.100505
31
0
39
0
210
0
220
0
230
1
0
LINE
5
160
100
AcDbEntity
8
1
62
256
6
ByLayer
370
18
48
1
60
0
100
AcDbLine
10
780.4
20
-5.100505
30
0
11
775
21
-5.100505
31
0
39
0
210
0
220
0
230
1
0
LINE
5
161
100
AcDbEntity
8
1
62
256
6
ByLayer
370
13
48
0.05
60
0
100
AcDbLine
10
768.3
20
0
30
0
11
-6.5
21
0
31
0
39
0
210
0
220
0
230
1
0
LINE
5
162
100
AcDbEntity
8
SK2
62
256
6
ByLayer
370
18
48
1
60
0
100
AcDbLine
10
-54.6
20
-40
30
0
11
-54.6
21
40
31
0
39
0
210
0
220
0
230
1
0
LINE
5
164
100
AcDbEntity
8
SK2
62
256
6
ByLayer
370
18
48
1
60
0
100
AcDbLine
10
-1.2875
20
40
30
0
11
-56.6
21
40
31
0
39
0
210
0
220
0
230
1
0
LINE
5
165
100
AcDbEntity
8
SK2
62
256
6
ByLayer
370
18
48
1
60
0
100
AcDbLine
10
-1.2875
20
-40
30
0
11
-56.6
21
-40
31
0
39
0
210
0
220
0
230
1
0
LINE
5
166
100
AcDbEntity
8
1
62
256
6
ByLayer
370
18
48
1
60
1
100
AcDbLine
10
-54.6
20
40
30
0
11
-54.139216
21
36.500002
31
0
39
0
210
0
220
0
230
1
0
LINE
5
167
100
AcDbEntity
8
1
62
256
6
ByLayer
370
18
48
1
60
1
100
AcDbLine
10
-54.139216
20
36.500002
30
0
11
-55.060784
21
36.499998
31
0
39
0
210
0
220
0
230
1
0
LINE
5
168
100
AcDbEntity
8
1
62
256
6
ByLayer
370
18
48
1
60
1
100
AcDbLine
10
-55.060784
20
36.499998
30
0
11
-54.6
21
40
31
0
39
0
210
0
220
0
230
1
0
LINE
5
169
100
AcDbEntity
8
1
62
256
6
ByLayer
370
18
48
1
60
1
100
AcDbLine
10
-54.6
20
-40
30
0
11
-55.060784
21
-36.500002
31
0
39
0
210
0
220
0
230
1
0
LINE
5
16A
100
AcDbEntity
8
1
62
256
6
ByLayer
370
18
48
1
60
1
100
AcDbLine
10
-55.060784
20
-36.500002
30
0
11
-54.139216
21
-36.499998
31
0
39
0
210
0
220
0
230
1
0
LINE
5
16B
100
AcDbEntity
8
1
62
256
6
ByLayer
370
18
48
1
60
1
100
AcDbLine
10
-54.139216
20
-36.499998
30
0
11
-54.6
21
-40
31
0
39
0
210
0
220
0
230
1
0
LINE
5
16C
100
AcDbEntity
8
SK2
62
256
6
ByLayer
370
18
48
1
60
0
100
AcDbLine
10
792.748181
20
-40
30
0
11
792.748181
21
40
31
0
39
0
210
0
220
0
230
1
0
LINE
5
16D
100
AcDbEntity
8
SK2
62
256
6
ByLayer
370
18
48
1
60
0
100
AcDbLine
10
763.3875
20
40
30
0
11
794.748181
21
40
31
0
39
0
210
0
220
0
230
1
0
LINE
5
16E
100
AcDbEntity
8
SK2
62
256
6
ByLayer
370
18
48
1
60
0
100
AcDbLine
10
763.3875
20
-40
30
0
11
794.748181
21
-40
31
0
39
0
210
0
220
0
230
1
0
LINE
5
16F
100
AcDbEntity
8
1
62
256
6
ByLayer
370
18
48
1
60
1
100
AcDbLine
10
792.748181
20
40
30
0
11
793.208964
21
36.500002
31
0
39
0
210
0
220
0
230
1
0
LINE
5
170
100
AcDbEntity
8
1
62
256
6
ByLayer
370
18
48
1
60
1
100
AcDbLine
10
793.208964
20
36.500002
30
0
11
792.287397
21
36.499998
31
0
39
0
210
0
220
0
230
1
0
LINE
5
171
100
AcDbEntity
8
1
62
256
6
ByLayer
370
18
48
1
60
1
100
AcDbLine
10
792.287397
20
36.499998
30
0
11
792.748181
21
40
31
0
39
0
210
0
220
0
230
1
0
LINE
5
172
100
AcDbEntity
8
1
62
256
6
ByLayer
370
18
48
1
60
1
100
AcDbLine
10
792.748181
20
-40
30
0
11
792.287397
21
-36.500002
31
0
39
0
210
0
220
0
230
1
0
LINE
5
173
100
AcDbEntity
8
1
62
256
6
ByLayer
370
18
48
1
60
1
100
AcDbLine
10
792.287397
20
-36.500002
30
0
11
793.208964
21
-36.499998
31
0
39
0
210
0
220
0
230
1
0
LINE
5
174
100
AcDbEntity
8
1
62
256
6
ByLayer
370
18
48
1
60
1
100
AcDbLine
10
793.208964
20
-36.499998
30
0
11
792.748181
21
-40
31
0
39
0
210
0
220
0
230
1
0
LINE
5
175
100
AcDbEntity
8
SK2
62
256
6
ByLayer
370
18
48
1
60
0
100
AcDbLine
10
0
20
46.084361
30
0
11
768
21
46.084361
31
0
39
0
210
0
220
0
230
1
0
LINE
5
176
100
AcDbEntity
8
SK2
62
256
6
ByLayer
370
18
48
1
60
0
100
AcDbLine
10
768
20
41.5875
30
0
11
768
21
48.084361
31
0
39
0
210
0
220
0
230
1
0
LINE
5
177
100
AcDbEntity
8
SK2
62
256
6
ByLayer
370
18
48
1
60
0
100
AcDbLine
10
0
20
41.2875
30
0
11
0
21
48.084361
31
0
39
0
210
0
220
0
230
1
0
LINE
5
178
100
AcDbEntity
8
1
62
256
6
ByLayer
370
18
48
1
60
1
100
AcDbLine
10
768
20
46.084361
30
0
11
764.500002
21
45.623577
31
0
39
0
210
0
220
0
230
1
0
LINE
5
179
100
AcDbEntity
8
1
62
256
6
ByLayer
370
18
48
1
60
1
100
AcDbLine
10
764.500002
20
45.623577
30
0
11
764.499998
21
46.545145
31
0
39
0
210
0
220
0
230
1
0
LINE
5
17A
100
AcDbEntity
8
1
62
256
6
ByLayer
370
18
48
1
60
1
100
AcDbLine
10
764.499998
20
46.545145
30
0
11
768
21
46.084361
31
0
39
0
210
0
220
0
230
1
0
LINE
5
17B
100
AcDbEntity
8
1
62
256
6
ByLayer
370
18
48
1
60
1
100
AcDbLine
10
0
20
46.084361
30
0
11
3.499998
21
46.545145
31
0
39
0
210
0
220
0
230
1
0
LINE
5
17C
100
AcDbEntity
8
1
62
256
6
ByLayer
370
18
48
1
60
1
100
AcDbLine
10
3.499998
20
46.545145
30
0
11
3.500002
21
45.623577
31
0
39
0
210
0
220
0
230
1
0
LINE
5
17D
100
AcDbEntity
8
1
62
256
6
ByLayer
370
18
48
1
60
1
100
AcDbLine
10
3.500002
20
45.623577
30
0
11
0
21
46.084361
31
0
39
0
210
0
220
0
230
1
0
LINE
5
22C
100
AcDbEntity
8
1
62
256
6
ByLayer
370
13
48
0.05
60
0
100
AcDbLine
10
757.05
20
-29.899495
30
0
11
786.9
21
-29.899495
31
0
39
0
210
0
220
0
230
1
0
LINE
5
22D
100
AcDbEntity
8
1
62
256
6
ByLayer
370
13
48
0.05
60
0
100
AcDbLine
10
757.05
20
-10.100505
30
0
11
786.9
21
-10.100505
31
0
39
0
210
0
220
0
230
1
0
LINE
5
22E
100
AcDbEntity
8
1
62
256
6
ByLayer
370
13
48
0.05
60
0
100
AcDbLine
10
771.25
20
0
30
0
11
755.75
21
0
31
0
39
0
210
0
220
0
230
1
0
LINE
5
22F
100
AcDbEntity
8
1
62
256
6
ByLayer
370
13
48
0.05
60
0
100
AcDbLine
10
757.05
20
10.100505
30
0
11
786.9
21
10.100505
31
0
39
0
210
0
220
0
230
1
0
LINE
5
230
100
AcDbEntity
8
1
62
256
6
ByLayer
370
13
48
0.05
60
0
100
AcDbLine
10
757.05
20
29.899495
30
0
11
786.9
21
29.899495
31
0
39
0
210
0
220
0
230
1
0
LINE
5
235
100
AcDbEntity
8
1
62
256
6
ByLayer
370
18
48
1
60
1
100
AcDbLine
10
-54.6
20
40
30
0
11
-54.139216
21
36.500002
31
0
39
0
210
0
220
0
230
1
0
LINE
5
236
100
AcDbEntity
8
1
62
256
6
ByLayer
370
18
48
1
60
1
100
AcDbLine
10
-54.139216
20
36.500002
30
0
11
-55.060784
21
36.499998
31
0
39
0
210
0
220
0
230
1
0
LINE
5
237
100
AcDbEntity
8
1
62
256
6
ByLayer
370
18
48
1
60
1
100
AcDbLine
10
-55.060784
20
36.499998
30
0
11
-54.6
21
40
31
0
39
0
210
0
220
0
230
1
0
LINE
5
239
100
AcDbEntity
8
1
62
256
6
ByLayer
370
18
48
1
60
1
100
AcDbLine
10
-54.6
20
-40
30
0
11
-55.060784
21
-36.500002
31
0
39
0
210
0
220
0
230
1
0
LINE
5
23A
100
AcDbEntity
8
1
62
256
6
ByLayer
370
18
48
1
60
1
100
AcDbLine
10
-55.060784
20
-36.500002
30
0
11
-54.139216
21
-36.499998
31
0
39
0
210
0
220
0
230
1
0
LINE
5
23B
100
AcDbEntity
8
1
62
256
6
ByLayer
370
18
48
1
60
1
100
AcDbLine
10
-54.139216
20
-36.499998
30
0
11
-54.6
21
-40
31
0
39
0
210
0
220
0
230
1
0
LINE
5
23F
100
AcDbEntity
8
1
62
256
6
ByLayer
370
18
48
1
60
1
100
AcDbLine
10
792.748181
20
40
30
0
11
793.208964
21
36.500002
31
0
39
0
210
0
220
0
230
1
0
LINE
5
240
100
AcDbEntity
8
1
62
256
6
ByLayer
370
18
48
1
60
1
100
AcDbLine
10
793.208964
20
36.500002
30
0
11
792.287397
21
36.499998
31
0
39
0
210
0
220
0
230
1
0
LINE
5
241
100
AcDbEntity
8
1
62
256
6
ByLayer
370
18
48
1
60
1
100
AcDbLine
10
792.287397
20
36.499998
30
0
11
792.748181
21
40
31
0
39
0
210
0
220
0
230
1
0
LINE
5
243
100
AcDbEntity
8
1
62
256
6
ByLayer
370
18
48
1
60
1
100
AcDbLine
10
792.748181
20
-40
30
0
11
792.287397
21
-36.500002
31
0
39
0
210
0
220
0
230
1
0
LINE
5
244
100
AcDbEntity
8
1
62
256
6
ByLayer
370
18
48
1
60
1
100
AcDbLine
10
792.287397
20
-36.500002
30
0
11
793.208964
21
-36.499998
31
0
39
0
210
0
220
0
230
1
0
LINE
5
245
100
AcDbEntity
8
1
62
256
6
ByLayer
370
18
48
1
60
1
100
AcDbLine
10
793.208964
20
-36.499998
30
0
11
792.748181
21
-40
31
0
39
0
210
0
220
0
230
1
0
LINE
5
248
100
AcDbEntity
8
1
62
256
6
ByLayer
370
18
48
1
60
1
100
AcDbLine
10
768
20
46.084361
30
0
11
764.500002
21
45.623577
31
0
39
0
210
0
220
0
230
1
0
LINE
5
249
100
AcDbEntity
8
1
62
256
6
ByLayer
370
18
48
1
60
1
100
AcDbLine
10
764.500002
20
45.623577
30
0
11
764.499998
21
46.545145
31
0
39
0
210
0
220
0
230
1
0
LINE
5
24A
100
AcDbEntity
8
1
62
256
6
ByLayer
370
18
48
1
60
1
100
AcDbLine
10
764.499998
20
46.545145
30
0
11
768
21
46.084361
31
0
39
0
210
0
220
0
230
1
0
LINE
5
24C
100
AcDbEntity
8
1
62
256
6
ByLayer
370
18
48
1
60
1
100
AcDbLine
10
0
20
46.084361
30
0
11
3.499998
21
46.545145
31
0
39
0
210
0
220
0
230
1
0
LINE
5
24D
100
AcDbEntity
8
1
62
256
6
ByLayer
370
18
48
1
60
1
100
AcDbLine
10
3.499998
20
46.545145
30
0
11
3.500002
21
45.623577
31
0
39
0
210
0
220
0
230
1
0
LINE
5
24E
100
AcDbEntity
8
1
62
256
6
ByLayer
370
18
48
1
60
1
100
AcDbLine
10
3.500002
20
45.623577
30
0
11
0
21
46.084361
31
0
39
0
210
0
220
0
230
1
0
MTEXT
5
231
100
AcDbEntity
8
SK2
62
256
6
ByLayer
370
18
48
1
60
0
100
AcDbMText
10
-56.164634
20
-4.530622
30
0
210
0
220
0
230
1
1
%%c
40
3.5
41
0
44
1.084337
50
90
71
7
72
5
7
iso_b_vert
0
MTEXT
5
234
100
AcDbEntity
8
SK2
62
256
6
ByLayer
370
18
48
1
60
0
100
AcDbMText
10
-56.164634
20
2.442034
30
0
210
0
220
0
230
1
1
\W0.6740;80
40
3.5
41
0
44
1.084337
50
90
71
7
72
5
7
iso_b_vert
0
MTEXT
5
23D
100
AcDbEntity
8
SK2
62
256
6
ByLayer
370
18
48
1
60
0
100
AcDbMText
10
791.183547
20
-4.530622
30
0
210
0
220
0
230
1
1
%%c
40
3.5
41
0
44
1.084337
50
90
71
7
72
5
7
iso_b_vert
0
MTEXT
5
23E
100
AcDbEntity
8
SK2
62
256
6
ByLayer
370
18
48
1
60
0
100
AcDbMText
10
791.183547
20
2.442034
30
0
210
0
220
0
230
1
1
\W0.6740;80
40
3.5
41
0
44
1.084337
50
90
71
7
72
5
7
iso_b_vert
0
MTEXT
5
247
100
AcDbEntity
8
SK2
62
256
6
ByLayer
370
18
48
1
60
0
100
AcDbMText
10
380.787301
20
47.116995
30
0
210
0
220
0
230
1
1
\W0.7138;768
40
3.5
41
0
44
1.084337
50
0
71
7
72
5
7
iso_b_vert
0
MTEXT
5
250
100
AcDbEntity
8
SK6
62
256
6
ByLayer
370
18
48
1
60
0
100
AcDbMText
10
340.836694
20
-66.051728
30
0
210
0
220
0
230
1
1
\W0.7436;HT30D-C8 80 768-40-2
40
3.5
41
0
44
1.084337
50
0
71
7
72
5
7
iso_b_vert
0
HATCH
5
238
100
AcDbEntity
8
SK2
62
256
6
ByLayer
370
13
48
1
60
0
100
AcDbHatch
10
0
20
0
30
0
210
0
220
0
230
1
2
ANSI31
70
0
71
0
91
1
92
5
93
3
72
1
10
-54.6000000000003
20
39.9999999999972
11
-54.1392162584475
21
36.5000016925504
72
1
10
-54.1392162584475
20
36.5000016925504
11
-55.060783741553
21
36.499998307444
72
1
10
-55.060783741553
20
36.499998307444
11
-54.6000000000003
21
39.9999999999972
97
0
75
0
76
1
52
0
41
0.0062
77
0
78
1
53
45
43
0
44
0
45
-0.0139193969876572
46
0.0139193969876572
79
0
47
0
98
1
10
0
20
0
0
HATCH
5
23C
100
AcDbEntity
8
SK2
62
256
6
ByLayer
370
13
48
1
60
0
100
AcDbHatch
10
0
20
0
30
0
210
0
220
0
230
1
2
ANSI31
70
0
71
0
91
1
92
5
93
3
72
1
10
-54.6000000000003
20
-40.0000000000028
11
-55.060783741553
21
-36.500001692556
72
1
10
-55.060783741553
20
-36.500001692556
11
-54.1392162584475
21
-36.4999983074496
72
1
10
-54.1392162584475
20
-36.4999983074496
11
-54.6000000000003
21
-40.0000000000028
97
0
75
0
76
1
52
0
41
0.0062
77
0
78
1
53
45
43
0
44
0
45
-0.0139193969876572
46
0.0139193969876572
79
0
47
0
98
1
10
0
20
0
0
HATCH
5
242
100
AcDbEntity
8
SK2
62
256
6
ByLayer
370
13
48
1
60
0
100
AcDbHatch
10
0
20
0
30
0
210
0
220
0
230
1
2
ANSI31
70
0
71
0
91
1
92
5
93
3
72
1
10
792.748180566759
20
39.9999999999972
11
793.208964308312
21
36.5000016925504
72
1
10
793.208964308312
20
36.5000016925504
11
792.287396825206
21
36.499998307444
72
1
10
792.287396825206
20
36.499998307444
11
792.748180566759
21
39.9999999999972
97
0
75
0
76
1
52
0
41
0.0062
77
0
78
1
53
45
43
0
44
0
45
-0.0139193969876572
46
0.0139193969876572
79
0
47
0
98
1
10
0
20
0
0
HATCH
5
246
100
AcDbEntity
8
SK2
62
256
6
ByLayer
370
13
48
1
60
0
100
AcDbHatch
10
0
20
0
30
0
210
0
220
0
230
1
2
ANSI31
70
0
71
0
91
1
92
5
93
3
72
1
10
792.748180566759
20
-40.0000000000028
11
792.287396825206
21
-36.500001692556
72
1
10
792.287396825206
20
-36.500001692556
11
793.208964308312
21
-36.4999983074496
72
1
10
793.208964308312
20
-36.4999983074496
11
792.748180566759
21
-40.0000000000028
97
0
75
0
76
1
52
0
41
0.0062
77
0
78
1
53
45
43
0
44
0
45
-0.0139193969876572
46
0.0139193969876572
79
0
47
0
98
1
10
0
20
0
0
HATCH
5
24B
100
AcDbEntity
8
SK2
62
256
6
ByLayer
370
13
48
1
60
0
100
AcDbHatch
10
0
20
0
30
0
210
0
220
0
230
1
2
ANSI31
70
0
71
0
91
1
92
5
93
3
72
1
10
768
20
46.0843610878188
11
764.500001692553
21
45.623577346266
72
1
10
764.500001692553
20
45.623577346266
11
764.499998307447
21
46.5451448293716
72
1
10
764.499998307447
20
46.5451448293716
11
768
21
46.0843610878188
97
0
75
0
76
1
52
0
41
0.0062
77
0
78
1
53
45
43
0
44
0
45
-0.0139193969876572
46
0.0139193969876572
79
0
47
0
98
1
10
0
20
0
0
HATCH
5
24F
100
AcDbEntity
8
SK2
62
256
6
ByLayer
370
13
48
1
60
0
100
AcDbHatch
10
0
20
0
30
0
210
0
220
0
230
1
2
ANSI31
70
0
71
0
91
1
92
5
93
3
72
1
10
0
20
46.0843610878188
11
3.49999830744682
21
46.5451448293716
72
1
10
3.49999830744682
20
46.5451448293716
11
3.50000169255318
21
45.623577346266
72
1
10
3.50000169255318
20
45.623577346266
11
0
21
46.0843610878188
97
0
75
0
76
1
52
0
41
0.0062
77
0
78
1
53
45
43
0
44
0
45
-0.0139193969876572
46
0.0139193969876572
79
0
47
0
98
1
10
0
20
0
0
ENDSEC
0
SECTION
2
OBJECTS
0
DICTIONARY
5
2bf
330
0
100
AcDbDictionary
280
0
281
1
3
ACAD_GROUP
350
2c0
3
ACAD_MLINESTYLE
350
2c1
0
DICTIONARY
5
2c0
330
0
100
AcDbDictionary
280
0
281
1
0
DICTIONARY
5
2c1
330
0
100
AcDbDictionary
280
0
281
1
3
Standard
350
18
0
MLINESTYLE
5
18
330
2c1
100
AcDbMlineStyle
2
Standard
70
0
3

62
256
51
90
52
90
71
2
49
-0.5
62
256
6
ByLayer
49
0.5
62
256
6
ByLayer
0
RASTERVARIABLES
5
2ad
330

100
AcDbRasterVariables
90
0
70
1
71
1
72
1
0
ENDSEC
0
EOF
