0
SECTION
2
HEADER
9
$ACADVER
1
AC1015
9
$DWGCODEPAGE
3
ANSI_1252
9
$HANDSEED
5
2bf
9
$ANGBASE
50
0
9
$ANGDIR
70
0
9
$ATTMODE
70
1
9
$AUNITS
70
0
9
$AUPREC
70
0
9
$CECOLOR
62
256
9
$CELTSCALE
40
1
9
$CELTYPE
6
ByLayer
9
$CELWEIGHT
370
18
9
$CLAYER
8
0
9
$CMLJUST
70
0
9
$CMLSCALE
40
1
9
$CMLSTYLE
2
Standard
9
$DIMSTYLE
2
Standard
9
$TEXTSIZE
40
0.2
9
$TEXTSTYLE
7
Standard
9
$LUNITS
70
2
9
$LUPREC
70
4
9
$EXTNAMES
290
1
9
$INSUNITS
70
4
9
$LTSCALE
40
1
9
$LWDISPLAY
290
1
9
$PDMODE
70
0
9
$PDSIZE
40
0
9
$PLINEGEN
70
0
0
ENDSEC
0
SECTION
2
CLASSES
0
CLASS
1
RASTERVARIABLES
2
AcDbRasterVariables
3
ISM
90
0
280
0
281
0
0
ENDSEC
0
SECTION
2
TABLES
0
TABLE
2
VPORT
5
2b5
100
AcDbSymbolTable
0
VPORT
5
1
100
AcDbSymbolTableRecord
100
AcDbViewportTableRecord
2
*Active
70
0
10
0
20
0
11
1
21
1
12
-1
22
1
13
0
23
0
14
0.5
24
0.5
15
10
25
10
16
0
26
0
36
1
17
0
27
0
37
0
0
ENDTAB
0
TABLE
2
LTYPE
5
2b6
100
AcDbSymbolTable
0
LTYPE
5
14
100
AcDbSymbolTableRecord
100
AcDbLinetypeTableRecord
70
0
2
ByBlock
3

72
65
73
0
40
0
0
LTYPE
5
15
100
AcDbSymbolTableRecord
100
AcDbLinetypeTableRecord
70
0
2
ByLayer
3

72
65
73
0
40
0
0
LTYPE
5
16
100
AcDbSymbolTableRecord
100
AcDbLinetypeTableRecord
70
0
2
Continuous
3
Solid line
72
65
73
0
40
0
0
LTYPE
5
6E
100
AcDbSymbolTableRecord
100
AcDbLinetypeTableRecord
70
0
2
CENTER
3
____ _ ____ _ ____ _ ____
72
65
73
4
40
47.5
49
22
74
0
49
-8.5
74
0
49
8.5
74
0
49
-8.5
74
0
0
LTYPE
5
6F
100
AcDbSymbolTableRecord
100
AcDbLinetypeTableRecord
70
0
2
DASHED
3
__ __ __ __ __ __ __ __ __
72
65
73
2
40
25.72
49
12.86
74
0
49
-12.86
74
0
0
ENDTAB
0
TABLE
2
LAYER
5
2b7
100
AcDbSymbolTable
0
LAYER
5
10
100
AcDbSymbolTableRecord
100
AcDbLayerTableRecord
2
0
70
0
62
7
6
Continuous
290
1
370
-3
390
0
0
LAYER
5
71
100
AcDbSymbolTableRecord
100
AcDbLayerTableRecord
2
2
70
0
62
7
6
Continuous
290
1
370
-3
390
0
0
LAYER
5
82
100
AcDbSymbolTableRecord
100
AcDbLayerTableRecord
2
81
70
0
62
-3
6
Continuous
290
1
370
-3
390
0
0
LAYER
5
84
100
AcDbSymbolTableRecord
100
AcDbLayerTableRecord
2
80
70
0
62
-6
6
Continuous
290
1
370
-3
390
0
0
LAYER
5
89
100
AcDbSymbolTableRecord
100
AcDbLayerTableRecord
2
4
70
0
62
-2
6
CENTER
290
1
370
-3
390
0
0
LAYER
5
8C
100
AcDbSymbolTableRecord
100
AcDbLayerTableRecord
2
1
70
0
62
4
6
Continuous
290
1
370
-3
390
0
0
LAYER
5
2a1
100
AcDbSymbolTableRecord
100
AcDbLayerTableRecord
2
SK4
70
0
62
2
6
CENTER
290
1
370
-3
390
0
0
LAYER
5
2a2
100
AcDbSymbolTableRecord
100
AcDbLayerTableRecord
2
SK1
70
0
62
4
6
Continuous
290
1
370
-3
390
0
0
LAYER
5
2a3
100
AcDbSymbolTableRecord
100
AcDbLayerTableRecord
2
SK2
70
0
62
7
6
Continuous
290
1
370
-3
390
0
0
LAYER
5
2a4
100
AcDbSymbolTableRecord
100
AcDbLayerTableRecord
2
SK6
70
0
62
5
6
Continuous
290
1
370
-3
390
0
0
ENDTAB
0
TABLE
2
STYLE
5
2b8
100
AcDbSymbolTable
0
STYLE
5
11
100
AcDbSymbolTableRecord
100
AcDbTextStyleTableRecord
2
Standard
3
txt
70
0
71
0
40
0
41
1
42
0
50
0
0
STYLE
5
225
100
AcDbSymbolTableRecord
100
AcDbTextStyleTableRecord
2
iso_b_vert
3
simplex.shx
70
0
71
0
40
0
41
1
42
0
50
0
0
STYLE
5
226
100
AcDbSymbolTableRecord
100
AcDbTextStyleTableRecord
2
DWGDirectTextStyle
3
simplex
70
0
71
0
40
0
41
1
42
0
50
0
0
ENDTAB
0
TABLE
2
DIMSTYLE
5
2b9
100
AcDbSymbolTable
100
AcDbDimStyleTable
0
DIMSTYLE
105
27
100
AcDbSymbolTableRecord
100
AcDbDimStyleTableRecord
2
Standard
70
0
3
<>
41
0.18
42
0.0625
44
0.18
140
0.18
147
0.09
73
0
74
0
77
1
271
2
275
0
278
52
280
0
340
11
0
ENDTAB
0
TABLE
2
VIEW
5
2ba
100
AcDbSymbolTable
0
ENDTAB
0
TABLE
2
UCS
5
2bb
100
AcDbSymbolTable
0
ENDTAB
0
TABLE
2
APPID
5
2bc
100
AcDbSymbolTable
0
APPID
5
12
100
AcDbSymbolTableRecord
100
AcDbRegAppTableRecord
2
ACAD
70
0
0
APPID
5
29D
100
AcDbSymbolTableRecord
100
AcDbRegAppTableRecord
2
ACAD_MLEADERVER
70
0
0
ENDTAB
0
TABLE
2
BLOCK_RECORD
5
2bd
100
AcDbSymbolTable
0
BLOCK_RECORD
5
1F
100
AcDbSymbolTableRecord
100
AcDbBlockTableRecord
2
*Model_Space
340
0
70
0
0
BLOCK_RECORD
5
1B
100
AcDbSymbolTableRecord
100
AcDbBlockTableRecord
2
*Paper_Space
340
0
70
0
0
BLOCK_RECORD
5
23
100
AcDbSymbolTableRecord
100
AcDbBlockTableRecord
2
*Paper_Space0
340
0
70
0
0
ENDTAB
0
ENDSEC
0
SECTION
2
BLOCKS
0
BLOCK
5
20
100
AcDbEntity
8
0
100
AcDbBlockBegin
2
*Model_Space
70
0
10
0
20
0
30
0
3
*Model_Space
0
ENDBLK
5
21
100
AcDbEntity
8
0
100
AcDbBlockEnd
0
BLOCK
5
1C
100
AcDbEntity
8
0
100
AcDbBlockBegin
2
*Paper_Space
70
0
10
0
20
0
30
0
3
*Paper_Space
0
ENDBLK
5
1D
100
AcDbEntity
8
0
100
AcDbBlockEnd
0
BLOCK
5
24
100
AcDbEntity
8
0
100
AcDbBlockBegin
2
*Paper_Space0
70
0
10
0
20
0
30
0
3
*Paper_Space0
0
ENDBLK
5
25
100
AcDbEntity
8
0
100
AcDbBlockEnd
0
ENDSEC
0
SECTION
2
ENTITIES
0
ARC
5
176
100
AcDbEntity
8
1
62
256
6
ByLayer
370
18
48
1
60
0
100
AcDbCircle
39
0
10
441.8
20
-39.8
30
0
40
0.2
210
0
220
0
230
1
100
AcDbArc
50
270
51
360
0
ARC
5
177
100
AcDbEntity
8
1
62
256
6
ByLayer
370
18
48
1
60
0
100
AcDbCircle
39
0
10
441.8
20
39.8
30
0
40
0.2
210
0
220
0
230
1
100
AcDbArc
50
360
51
90
0
ARC
5
178
100
AcDbEntity
8
SK1
62
256
6
ByLayer
370
18
48
1
60
0
100
AcDbCircle
39
0
10
-0.6
20
29.6
30
0
40
0.999999999999994
210
0
220
0
230
1
100
AcDbArc
50
293.578178
51
306.869898
0
ARC
5
179
100
AcDbEntity
8
SK1
62
256
6
ByLayer
370
18
48
1
60
0
100
AcDbCircle
39
0
10
-0.6
20
-29.6
30
0
40
0.999999999999994
210
0
220
0
230
1
100
AcDbArc
50
53.130102
51
66.421822
0
ARC
5
17A
100
AcDbEntity
8
1
62
256
6
ByLayer
370
18
48
1
60
0
100
AcDbCircle
39
0
10
454.8
20
6.900505
30
0
40
0.2
210
0
220
0
230
1
100
AcDbArc
50
0
51
90
0
ARC
5
17B
100
AcDbEntity
8
1
62
256
6
ByLayer
370
18
48
1
60
0
100
AcDbCircle
39
0
10
454.8
20
13.300505
30
0
40
0.2
210
0
220
0
230
1
100
AcDbArc
50
270
51
0
0
ARC
5
17C
100
AcDbEntity
8
1
62
256
6
ByLayer
370
18
48
1
60
0
100
AcDbCircle
39
0
10
460.4
20
5.700505
30
0
40
0.6
210
0
220
0
230
1
100
AcDbArc
50
270
51
360
0
ARC
5
17D
100
AcDbEntity
8
1
62
256
6
ByLayer
370
18
48
1
60
0
100
AcDbCircle
39
0
10
460.4
20
14.500505
30
0
40
0.6
210
0
220
0
230
1
100
AcDbArc
50
360
51
90
0
ARC
5
17E
100
AcDbEntity
8
1
62
256
6
ByLayer
370
18
48
1
60
0
100
AcDbCircle
39
0
10
454.8
20
26.699495
30
0
40
0.2
210
0
220
0
230
1
100
AcDbArc
50
0
51
90
0
ARC
5
17F
100
AcDbEntity
8
1
62
256
6
ByLayer
370
18
48
1
60
0
100
AcDbCircle
39
0
10
454.8
20
33.099495
30
0
40
0.2
210
0
220
0
230
1
100
AcDbArc
50
270
51
0
0
ARC
5
180
100
AcDbEntity
8
1
62
256
6
ByLayer
370
18
48
1
60
0
100
AcDbCircle
39
0
10
460.4
20
25.499495
30
0
40
0.6
210
0
220
0
230
1
100
AcDbArc
50
270
51
360
0
ARC
5
181
100
AcDbEntity
8
1
62
256
6
ByLayer
370
18
48
1
60
0
100
AcDbCircle
39
0
10
460.4
20
34.299495
30
0
40
0.6
210
0
220
0
230
1
100
AcDbArc
50
360
51
90
0
ARC
5
182
100
AcDbEntity
8
1
62
256
6
ByLayer
370
18
48
1
60
0
100
AcDbCircle
39
0
10
442.25
20
-39.75
30
0
40
0.25
210
0
220
0
230
1
100
AcDbArc
50
180
51
270
0
ARC
5
183
100
AcDbEntity
8
1
62
256
6
ByLayer
370
18
48
1
60
0
100
AcDbCircle
39
0
10
442.25
20
39.75
30
0
40
0.25
210
0
220
0
230
1
100
AcDbArc
50
90
51
180
0
ARC
5
184
100
AcDbEntity
8
1
62
256
6
ByLayer
370
18
48
1
60
0
100
AcDbCircle
39
0
10
454.8
20
-33.099495
30
0
40
0.2
210
0
220
0
230
1
100
AcDbArc
50
0
51
90
0
ARC
5
185
100
AcDbEntity
8
1
62
256
6
ByLayer
370
18
48
1
60
0
100
AcDbCircle
39
0
10
454.8
20
-26.699495
30
0
40
0.2
210
0
220
0
230
1
100
AcDbArc
50
270
51
0
0
ARC
5
186
100
AcDbEntity
8
1
62
256
6
ByLayer
370
18
48
1
60
0
100
AcDbCircle
39
0
10
460.4
20
-34.299495
30
0
40
0.6
210
0
220
0
230
1
100
AcDbArc
50
270
51
360
0
ARC
5
187
100
AcDbEntity
8
1
62
256
6
ByLayer
370
18
48
1
60
0
100
AcDbCircle
39
0
10
460.4
20
-25.499495
30
0
40
0.6
210
0
220
0
230
1
100
AcDbArc
50
360
51
90
0
ARC
5
188
100
AcDbEntity
8
1
62
256
6
ByLayer
370
18
48
1
60
0
100
AcDbCircle
39
0
10
454.8
20
-13.300505
30
0
40
0.2
210
0
220
0
230
1
100
AcDbArc
50
0
51
90
0
ARC
5
189
100
AcDbEntity
8
1
62
256
6
ByLayer
370
18
48
1
60
0
100
AcDbCircle
39
0
10
454.8
20
-6.900505
30
0
40
0.2
210
0
220
0
230
1
100
AcDbArc
50
270
51
0
0
ARC
5
18A
100
AcDbEntity
8
1
62
256
6
ByLayer
370
18
48
1
60
0
100
AcDbCircle
39
0
10
460.4
20
-14.500505
30
0
40
0.6
210
0
220
0
230
1
100
AcDbArc
50
270
51
360
0
ARC
5
18B
100
AcDbEntity
8
1
62
256
6
ByLayer
370
18
48
1
60
0
100
AcDbCircle
39
0
10
460.4
20
-5.700505
30
0
40
0.6
210
0
220
0
230
1
100
AcDbArc
50
360
51
90
0
ELLIPSE
5
18C
100
AcDbEntity
8
1
62
256
6
ByLayer
370
18
48
1
60
0
100
AcDbEllipse
10
-6.763884
20
0
30
0
11
18.7348357595646
21
39.4834983055014
31
0
210
0
220
0
230
1
40
0.341999
41
-1.08794676716928
42
-0.161099005228948
0
ELLIPSE
5
18D
100
AcDbEntity
8
1
62
256
6
ByLayer
370
18
48
1
60
0
100
AcDbEllipse
10
30.763884
20
0
30
0
11
18.734835759564
21
-39.4834983055002
31
0
210
0
220
0
230
1
40
0.341999
41
-2.98049364836084
42
-2.0536458864205
0
ELLIPSE
5
18E
100
AcDbEntity
8
1
62
256
6
ByLayer
370
18
48
1
60
0
100
AcDbEllipse
10
30.763884
20
0
30
0
11
18.7348357595645
21
39.483498305501
31
0
210
0
220
0
230
1
40
0.341999
41
2.05364588642051
42
2.98049364836085
0
ELLIPSE
5
18F
100
AcDbEntity
8
1
62
256
6
ByLayer
370
18
48
1
60
0
100
AcDbEllipse
10
-6.763884
20
0
30
0
11
18.7348357595625
21
-39.4834983054988
31
0
210
0
220
0
230
1
40
0.341999
41
0.161099005228953
42
1.08794676716933
0
ELLIPSE
5
190
100
AcDbEntity
8
1
62
256
6
ByLayer
370
13
48
1
60
0
100
AcDbEllipse
10
445.5
20
38.995313
30
0
11
0.5
21
0
31
0
210
0
220
0
230
1
40
0.926601
41
3.14159265358979
42
-1.5707963267949
0
ELLIPSE
5
191
100
AcDbEntity
8
1
62
256
6
ByLayer
370
13
48
1
60
0
100
AcDbEllipse
10
445.5
20
6.557377
30
0
11
0.5
21
0
31
0
210
0
220
0
230
1
40
0.655738
41
1.5707963267949
42
3.14159265358979
0
ELLIPSE
5
192
100
AcDbEntity
8
1
62
256
6
ByLayer
370
13
48
1
60
0
100
AcDbEllipse
10
445.5
20
-6.557377
30
0
11
0.5
21
0
31
0
210
0
220
0
230
1
40
0.655738
41
3.14159265358979
42
-1.5707963267949
0
ELLIPSE
5
193
100
AcDbEntity
8
1
62
256
6
ByLayer
370
13
48
1
60
0
100
AcDbEllipse
10
445.5
20
-38.995312
30
0
11
0.5
21
0
31
0
210
0
220
0
230
1
40
0.926601
41
1.5707963267949
42
3.14159265358979
0
POINT
5
70
100
AcDbEntity
8
2
62
256
6
ByLayer
370
18
48
1
60
0
100
AcDbPoint
10
451
20
-10.100505
30
0
39
0
210
0
220
0
230
1
50
360
0
POINT
5
72
100
AcDbEntity
8
2
62
256
6
ByLayer
370
18
48
1
60
0
100
AcDbPoint
10
451
20
-29.899495
30
0
39
0
210
0
220
0
230
1
50
360
0
POINT
5
73
100
AcDbEntity
8
2
62
256
6
ByLayer
370
18
48
1
60
0
100
AcDbPoint
10
451
20
29.899495
30
0
39
0
210
0
220
0
230
1
50
360
0
POINT
5
74
100
AcDbEntity
8
2
62
256
6
ByLayer
370
18
48
1
60
0
100
AcDbPoint
10
451
20
10.100505
30
0
39
0
210
0
220
0
230
1
50
360
0
POINT
5
75
100
AcDbEntity
8
2
62
256
6
ByLayer
370
18
48
1
60
0
100
AcDbPoint
10
451
20
10.100505
30
0
39
0
210
0
220
0
230
1
50
360
0
POINT
5
76
100
AcDbEntity
8
2
62
256
6
ByLayer
370
18
48
1
60
0
100
AcDbPoint
10
455
20
29.899495
30
0
39
0
210
0
220
0
230
1
50
360
0
POINT
5
77
100
AcDbEntity
8
2
62
256
6
ByLayer
370
18
48
1
60
0
100
AcDbPoint
10
455
20
-10.100505
30
0
39
0
210
0
220
0
230
1
50
360
0
POINT
5
78
100
AcDbEntity
8
2
62
256
6
ByLayer
370
18
48
1
60
0
100
AcDbPoint
10
442
20
0
30
0
39
0
210
0
220
0
230
1
50
360
0
POINT
5
79
100
AcDbEntity
8
2
62
256
6
ByLayer
370
18
48
1
60
0
100
AcDbPoint
10
442
20
0
30
0
39
0
210
0
220
0
230
1
50
360
0
POINT
5
7A
100
AcDbEntity
8
2
62
256
6
ByLayer
370
18
48
1
60
0
100
AcDbPoint
10
442
20
0
30
0
39
0
210
0
220
0
230
1
50
360
0
POINT
5
7B
100
AcDbEntity
8
2
62
256
6
ByLayer
370
18
48
1
60
0
100
AcDbPoint
10
325.05
20
0
30
0
39
0
210
0
220
0
230
1
50
360
0
POINT
5
7C
100
AcDbEntity
8
2
62
256
6
ByLayer
370
18
48
1
60
0
100
AcDbPoint
10
451
20
-29.899495
30
0
39
0
210
0
220
0
230
1
50
360
0
POINT
5
7D
100
AcDbEntity
8
2
62
256
6
ByLayer
370
18
48
1
60
0
100
AcDbPoint
10
335.55
20
0
30
0
39
0
210
0
220
0
230
1
50
360
0
POINT
5
7E
100
AcDbEntity
8
2
62
256
6
ByLayer
370
18
48
1
60
0
100
AcDbPoint
10
401.55
20
0
30
0
39
0
210
0
220
0
230
1
50
360
0
POINT
5
7F
100
AcDbEntity
8
2
62
256
6
ByLayer
370
18
48
1
60
0
100
AcDbPoint
10
322.55
20
0
30
0
39
0
210
0
220
0
230
1
50
360
0
POINT
5
80
100
AcDbEntity
8
2
62
256
6
ByLayer
370
18
48
1
60
0
100
AcDbPoint
10
388.55
20
0
30
0
39
0
210
0
220
0
230
1
50
360
0
POINT
5
81
100
AcDbEntity
8
81
62
256
6
ByLayer
370
18
48
1
60
0
100
AcDbPoint
10
448
20
20
30
0
39
0
210
0
220
0
230
1
50
360
0
POINT
5
83
100
AcDbEntity
8
80
62
256
6
ByLayer
370
18
48
1
60
0
100
AcDbPoint
10
0
20
0
30
0
39
0
210
0
220
0
230
1
50
360
0
SPLINE
5
194
100
AcDbEntity
8
1
62
256
6
ByLayer
370
18
48
1
60
0
100
AcDbSpline
70
4
71
3
72
26
73
22
40
0
40
0
40
0
40
0
40
0.062500000000017
40
0.062500000000017
40
0.093750000000022
40
0.093750000000022
40
0.125000000000027
40
0.125000000000027
40
0.250000000000024
40
0.250000000000024
40
0.375000000000021
40
0.375000000000021
40
0.437500000000021
40
0.437500000000021
40
0.500000000000021
40
0.500000000000021
40
0.625000000000017
40
0.625000000000017
40
0.750000000000013
40
0.750000000000013
40
1
40
1
40
1
40
1
41
1
10
13.4613248654053
20
38.1154578595254
30
0
41
1
10
13.4771575420864
20
38.1154578595254
30
0
41
1
10
13.4926967829161
20
38.1149630443688
30
0
41
1
10
13.5156051329865
20
38.1135446782954
30
0
41
1
10
13.5231743077463
20
38.112958862986
30
0
41
1
10
13.5381834149645
20
38.1115687100728
30
0
41
1
10
13.5456561777208
20
38.1107596566993
30
0
41
1
10
13.5820585103619
20
38.1062685963605
30
0
41
1
10
13.6085397975368
20
38.1012604668279
30
0
41
1
10
13.6577471021954
20
38.0892687952497
30
0
41
1
10
13.6795828635241
20
38.0825033540054
30
0
41
1
10
13.7096051321546
20
38.0715750854946
30
0
41
1
10
13.7191444204646
20
38.0677988367432
30
0
41
1
10
13.7374189069212
20
38.0600136207932
30
0
41
1
10
13.7461680175131
20
38.0559959802045
30
0
41
1
10
13.7710680782538
20
38.0437782351316
30
0
41
1
10
13.7859982057654
20
38.035372109362
30
0
41
1
10
13.8133554924887
20
38.0181487945757
30
0
41
1
10
13.825773750339
20
38.0093303853474
30
0
41
1
10
13.8599678398713
20
37.9823481941391
30
0
41
1
10
13.8787504379153
20
37.9636126331775
30
0
41
1
10
13.8943375672975
20
37.944501011719
30
0
0
SPLINE
5
195
100
AcDbEntity
8
1
62
256
6
ByLayer
370
18
48
1
60
0
100
AcDbSpline
70
4
71
3
72
32
73
28
40
0
40
0
40
0
40
0
40
0.249999999999998
40
0.249999999999998
40
0.374999999999996
40
0.374999999999996
40
0.437499999999996
40
0.437499999999996
40
0.499999999999995
40
0.499999999999995
40
0.624999999999997
40
0.624999999999997
40
0.687499999999998
40
0.687499999999998
40
0.749999999999998
40
0.749999999999998
40
0.812499999999999
40
0.812499999999999
40
0.843749999999999
40
0.843749999999999
40
0.874999999999999
40
0.874999999999999
40
0.937499999999999
40
0.937499999999999
40
0.96875
40
0.96875
40
1
40
1
40
1
40
1
41
1
10
13.8943375672974
20
12.6576002058705
30
0
41
1
10
13.8787561873888
20
12.6003292036664
30
0
41
1
10
13.8601238798743
20
12.5441499637057
30
0
41
1
10
13.8260027135196
20
12.4621216159941
30
0
41
1
10
13.8135898550187
20
12.4351561290448
30
0
41
1
10
13.7930183318667
20
12.3954218364664
30
0
41
1
10
13.7858339393051
20
12.3822967529511
30
0
41
1
10
13.7707119348146
20
12.3563230389552
30
0
41
1
10
13.762764024215
20
12.3434618357382
30
0
41
1
10
13.7378358829827
20
12.3057192432198
30
0
41
1
10
13.7197379933358
20
12.2815531796603
30
0
41
1
10
13.6895137280946
20
12.2473838346622
30
0
41
1
10
13.6789130531145
20
12.2363474443952
30
0
41
1
10
13.6568189855007
20
12.2154741288524
30
0
41
1
10
13.6452904427559
20
12.2055929865225
30
0
41
1
10
13.6210819432586
20
12.1871605631487
30
0
41
1
10
13.6084039311046
20
12.1786070311295
30
0
41
1
10
13.5883100345542
20
12.1670216512238
30
0
41
1
10
13.5814016237712
20
12.1633555796795
30
0
41
1
10
13.567396336243
20
12.1566022540001
30
0
41
1
10
13.5602871584325
20
12.1535051719202
30
0
41
1
10
13.538618852768
20
12.1451084576005
30
0
41
1
10
13.5237210688637
20
12.1406978104912
30
0
41
1
10
13.5005803004527
20
12.1361671045752
30
0
41
1
10
13.492756294697
20
12.1350139079815
30
0
41
1
10
13.4770952538462
20
12.1334785049664
30
0
41
1
10
13.4692285817718
20
12.1330899674707
30
0
41
1
10
13.4613248654053
20
12.1330899674708
30
0
0
SPLINE
5
196
100
AcDbEntity
8
1
62
256
6
ByLayer
370
18
48
1
60
0
100
AcDbSpline
70
4
71
3
72
26
73
22
40
0
40
0
40
0
40
0
40
0.0625000000000085
40
0.0625000000000085
40
0.0937500000000087
40
0.0937500000000087
40
0.125000000000009
40
0.125000000000009
40
0.250000000000009
40
0.250000000000009
40
0.375000000000009
40
0.375000000000009
40
0.437500000000008
40
0.437500000000008
40
0.500000000000008
40
0.500000000000008
40
0.625000000000004
40
0.625000000000004
40
0.750000000000001
40
0.750000000000001
40
1
40
1
40
1
40
1
41
1
10
10.5386751345949
20
12.1330899674709
30
0
41
1
10
10.5228424579138
20
12.1330899674709
30
0
41
1
10
10.5073032170842
20
12.1346446934812
30
0
41
1
10
10.4843948670137
20
12.1390985861072
30
0
41
1
10
10.476825692254
20
12.1409378530104
30
0
41
1
10
10.4618165850357
20
12.1453009719697
30
0
41
1
10
10.4543438222794
20
12.1478396076278
30
0
41
1
10
10.4179414896384
20
12.1619255694048
30
0
41
1
10
10.3914602024634
20
12.1776162497591
30
0
41
1
10
10.3422528978048
20
12.2150722196261
30
0
41
1
10
10.3204171364762
20
12.2361555816481
30
0
41
1
10
10.2903948678457
20
12.2700982796013
30
0
41
1
10
10.2808555795356
20
12.2818098068952
30
0
41
1
10
10.262581093079
20
12.3059141713457
30
0
41
1
10
10.2538319824872
20
12.3183336732123
30
0
41
1
10
10.2289319217464
20
12.3560364080032
30
0
41
1
10
10.2140017942348
20
12.3818915830843
30
0
41
1
10
10.1866445075116
20
12.4346746200447
30
0
41
1
10
10.1742262496611
20
12.4616063758704
30
0
41
1
10
10.1400321601289
20
12.543705389465
30
0
41
1
10
10.1212495620849
20
12.6003080708705
30
0
41
1
10
10.1056624327026
20
12.6576002058704
30
0
0
SPLINE
5
197
100
AcDbEntity
8
1
62
256
6
ByLayer
370
18
48
1
60
0
100
AcDbSpline
70
4
71
3
72
32
73
28
40
0
40
0
40
0
40
0
40
0.249999999999974
40
0.249999999999974
40
0.374999999999964
40
0.374999999999964
40
0.437499999999963
40
0.437499999999963
40
0.499999999999961
40
0.499999999999961
40
0.624999999999959
40
0.624999999999959
40
0.687499999999959
40
0.687499999999959
40
0.749999999999959
40
0.749999999999959
40
0.812499999999959
40
0.812499999999959
40
0.843749999999962
40
0.843749999999962
40
0.874999999999965
40
0.874999999999965
40
0.937499999999983
40
0.937499999999983
40
0.968749999999992
40
0.968749999999992
40
1
40
1
40
1
40
1
41
1
10
10.1056624327028
20
37.944501011719
30
0
41
1
10
10.1212438126114
20
37.9636055836586
30
0
41
1
10
10.1398761201259
20
37.982201295386
30
0
41
1
10
10.1739972864806
20
38.0091614379608
30
0
41
1
10
10.1864101449815
20
38.0179913785432
30
0
41
1
10
10.2069816681335
20
38.0309572795535
30
0
41
1
10
10.2141660606952
20
38.0352325300314
30
0
41
1
10
10.2292880651856
20
38.0436784163767
30
0
41
1
10
10.2372359757852
20
38.0478530906642
30
0
41
1
10
10.2621641170175
20
38.0600837295902
30
0
41
1
10
10.2802620066644
20
38.0678870466103
30
0
41
1
10
10.3104862719056
20
38.0788882765901
30
0
41
1
10
10.3210869468857
20
38.0824358644267
30
0
41
1
10
10.3431810144995
20
38.0891364033823
30
0
41
1
10
10.3547095572443
20
38.0923035991791
30
0
41
1
10
10.3789180567417
20
38.0982048271662
30
0
41
1
10
10.3915960688956
20
38.1009395753101
30
0
41
1
10
10.411689965446
20
38.1046401449178
30
0
41
1
10
10.418598376229
20
38.1058104966307
30
0
41
1
10
10.4326036637572
20
38.1079654954301
30
0
41
1
10
10.4397128415677
20
38.1089532874668
30
0
41
1
10
10.4613811472322
20
38.1116304436585
30
0
41
1
10
10.4762789311365
20
38.1130353910943
30
0
41
1
10
10.4994196995475
20
38.114478227072
30
0
41
1
10
10.5072437053032
20
38.1148453768632
30
0
41
1
10
10.522904746154
20
38.1153341847952
30
0
41
1
10
10.5307714182284
20
38.1154578595254
30
0
41
1
10
10.538675134595
20
38.1154578595254
30
0
0
SPLINE
5
198
100
AcDbEntity
8
1
62
256
6
ByLayer
370
18
48
1
60
0
100
AcDbSpline
70
4
71
3
72
26
73
22
40
0
40
0
40
0
40
0
40
0.0624999999999986
40
0.0624999999999986
40
0.0937499999999979
40
0.0937499999999979
40
0.124999999999997
40
0.124999999999997
40
0.250000000000009
40
0.250000000000009
40
0.37500000000002
40
0.37500000000002
40
0.437500000000021
40
0.437500000000021
40
0.500000000000021
40
0.500000000000021
40
0.625000000000017
40
0.625000000000017
40
0.750000000000013
40
0.750000000000013
40
1
40
1
40
1
40
1
41
1
10
10.5386751345947
20
-38.1154578595255
30
0
41
1
10
10.5228424579137
20
-38.1154578595255
30
0
41
1
10
10.507303217084
20
-38.1149630443688
30
0
41
1
10
10.4843948670135
20
-38.1135446782956
30
0
41
1
10
10.4768256922537
20
-38.1129588629861
30
0
41
1
10
10.4618165850355
20
-38.1115687100729
30
0
41
1
10
10.4543438222792
20
-38.1107596566995
30
0
41
1
10
10.4179414896382
20
-38.1062685963607
30
0
41
1
10
10.3914602024632
20
-38.101260466828
30
0
41
1
10
10.3422528978046
20
-38.0892687952498
30
0
41
1
10
10.320417136476
20
-38.0825033540055
30
0
41
1
10
10.2903948678454
20
-38.0715750854947
30
0
41
1
10
10.2808555795354
20
-38.0677988367432
30
0
41
1
10
10.2625810930788
20
-38.0600136207933
30
0
41
1
10
10.253831982487
20
-38.0559959802046
30
0
41
1
10
10.2289319217462
20
-38.0437782351317
30
0
41
1
10
10.2140017942346
20
-38.0353721093621
30
0
41
1
10
10.1866445075114
20
-38.0181487945759
30
0
41
1
10
10.174226249661
20
-38.0093303853475
30
0
41
1
10
10.1400321601287
20
-37.9823481941392
30
0
41
1
10
10.1212495620847
20
-37.9636126331776
30
0
41
1
10
10.1056624327024
20
-37.9445010117191
30
0
0
SPLINE
5
199
100
AcDbEntity
8
1
62
256
6
ByLayer
370
18
48
1
60
0
100
AcDbSpline
70
4
71
3
72
32
73
28
40
0
40
0
40
0
40
0
40
0.249999999999994
40
0.249999999999994
40
0.374999999999988
40
0.374999999999988
40
0.437499999999983
40
0.437499999999983
40
0.499999999999979
40
0.499999999999979
40
0.624999999999977
40
0.624999999999977
40
0.687499999999981
40
0.687499999999981
40
0.749999999999986
40
0.749999999999986
40
0.812499999999991
40
0.812499999999991
40
0.84374999999999
40
0.84374999999999
40
0.87499999999999
40
0.87499999999999
40
0.937499999999998
40
0.937499999999998
40
0.968749999999999
40
0.968749999999999
40
1
40
1
40
1
40
1
41
1
10
10.1056624327026
20
-12.6576002058706
30
0
41
1
10
10.1212438126112
20
-12.6003292036665
30
0
41
1
10
10.1398761201257
20
-12.5441499637057
30
0
41
1
10
10.1739972864804
20
-12.4621216159941
30
0
41
1
10
10.1864101449813
20
-12.4351561290448
30
0
41
1
10
10.2069816681333
20
-12.3954218364664
30
0
41
1
10
10.214166060695
20
-12.3822967529511
30
0
41
1
10
10.2292880651854
20
-12.3563230389552
30
0
41
1
10
10.237235975785
20
-12.3434618357382
30
0
41
1
10
10.2621641170173
20
-12.3057192432198
30
0
41
1
10
10.2802620066642
20
-12.2815531796603
30
0
41
1
10
10.3104862719054
20
-12.2473838346622
30
0
41
1
10
10.3210869468855
20
-12.2363474443952
30
0
41
1
10
10.3431810144993
20
-12.2154741288524
30
0
41
1
10
10.3547095572442
20
-12.2055929865224
30
0
41
1
10
10.3789180567415
20
-12.1871605631487
30
0
41
1
10
10.3915960688954
20
-12.1786070311295
30
0
41
1
10
10.4116899654458
20
-12.1670216512238
30
0
41
1
10
10.4185983762288
20
-12.1633555796795
30
0
41
1
10
10.432603663757
20
-12.1566022540001
30
0
41
1
10
10.4397128415675
20
-12.1535051719202
30
0
41
1
10
10.461381147232
20
-12.1451084576005
30
0
41
1
10
10.4762789311363
20
-12.1406978104912
30
0
41
1
10
10.4994196995473
20
-12.1361671045752
30
0
41
1
10
10.507243705303
20
-12.1350139079815
30
0
41
1
10
10.5229047461539
20
-12.1334785049664
30
0
41
1
10
10.5307714182282
20
-12.1330899674707
30
0
41
1
10
10.5386751345948
20
-12.1330899674707
30
0
0
SPLINE
5
19A
100
AcDbEntity
8
1
62
256
6
ByLayer
370
18
48
1
60
0
100
AcDbSpline
70
4
71
3
72
26
73
22
40
0
40
0
40
0
40
0
40
0.0625000000000062
40
0.0625000000000062
40
0.0937500000000093
40
0.0937500000000093
40
0.125000000000012
40
0.125000000000012
40
0.250000000000006
40
0.250000000000006
40
0.375
40
0.375
40
0.437500000000003
40
0.437500000000003
40
0.500000000000006
40
0.500000000000006
40
0.625000000000006
40
0.625000000000006
40
0.750000000000006
40
0.750000000000006
40
1
40
1
40
1
40
1
41
1
10
13.4613248654051
20
-12.133089967471
30
0
41
1
10
13.4771575420862
20
-12.133089967471
30
0
41
1
10
13.4926967829158
20
-12.1346446934814
30
0
41
1
10
13.5156051329863
20
-12.1390985861073
30
0
41
1
10
13.5231743077461
20
-12.1409378530105
30
0
41
1
10
13.5381834149643
20
-12.1453009719698
30
0
41
1
10
13.5456561777206
20
-12.1478396076279
30
0
41
1
10
13.5820585103616
20
-12.161925569405
30
0
41
1
10
13.6085397975366
20
-12.1776162497592
30
0
41
1
10
13.6577471021952
20
-12.2150722196262
30
0
41
1
10
13.6795828635238
20
-12.2361555816482
30
0
41
1
10
13.7096051321543
20
-12.2700982796014
30
0
41
1
10
13.7191444204644
20
-12.2818098068953
30
0
41
1
10
13.737418906921
20
-12.3059141713458
30
0
41
1
10
13.7461680175129
20
-12.3183336732124
30
0
41
1
10
13.7710680782536
20
-12.3560364080033
30
0
41
1
10
13.7859982057652
20
-12.3818915830844
30
0
41
1
10
13.8133554924884
20
-12.4346746200448
30
0
41
1
10
13.8257737503388
20
-12.4616063758704
30
0
41
1
10
13.8599678398711
20
-12.5437053894651
30
0
41
1
10
13.8787504379151
20
-12.6003080708706
30
0
41
1
10
13.8943375672974
20
-12.6576002058705
30
0
0
SPLINE
5
19B
100
AcDbEntity
8
1
62
256
6
ByLayer
370
18
48
1
60
0
100
AcDbSpline
70
4
71
3
72
32
73
28
40
0
40
0
40
0
40
0
40
0.249999999999997
40
0.249999999999997
40
0.374999999999994
40
0.374999999999994
40
0.437499999999991
40
0.437499999999991
40
0.499999999999988
40
0.499999999999988
40
0.624999999999984
40
0.624999999999984
40
0.687499999999986
40
0.687499999999986
40
0.749999999999987
40
0.749999999999987
40
0.812499999999989
40
0.812499999999989
40
0.843749999999991
40
0.843749999999991
40
0.874999999999993
40
0.874999999999993
40
0.937499999999994
40
0.937499999999994
40
0.968749999999997
40
0.968749999999997
40
1
40
1
40
1
40
1
41
1
10
13.8943375672972
20
-37.9445010117191
30
0
41
1
10
13.8787561873886
20
-37.9636055836586
30
0
41
1
10
13.8601238798741
20
-37.9822012953861
30
0
41
1
10
13.8260027135194
20
-38.0091614379608
30
0
41
1
10
13.8135898550185
20
-38.0179913785433
30
0
41
1
10
13.7930183318665
20
-38.0309572795536
30
0
41
1
10
13.7858339393048
20
-38.0352325300315
30
0
41
1
10
13.7707119348144
20
-38.0436784163768
30
0
41
1
10
13.7627640242148
20
-38.0478530906643
30
0
41
1
10
13.7378358829825
20
-38.0600837295902
30
0
41
1
10
13.7197379933356
20
-38.0678870466104
30
0
41
1
10
13.6895137280944
20
-38.0788882765902
30
0
41
1
10
13.6789130531143
20
-38.0824358644267
30
0
41
1
10
13.6568189855005
20
-38.0891364033824
30
0
41
1
10
13.6452904427557
20
-38.0923035991792
30
0
41
1
10
13.6210819432584
20
-38.0982048271663
30
0
41
1
10
13.6084039311044
20
-38.1009395753102
30
0
41
1
10
13.5883100345541
20
-38.1046401449179
30
0
41
1
10
13.581401623771
20
-38.1058104966308
30
0
41
1
10
13.5673963362428
20
-38.1079654954302
30
0
41
1
10
13.5602871584324
20
-38.1089532874669
30
0
41
1
10
13.5386188527678
20
-38.1116304436586
30
0
41
1
10
13.5237210688635
20
-38.1130353910944
30
0
41
1
10
13.5005803004525
20
-38.1144782270721
30
0
41
1
10
13.4927562946968
20
-38.1148453768633
30
0
41
1
10
13.477095253846
20
-38.1153341847952
30
0
41
1
10
13.4692285817717
20
-38.1154578595255
30
0
41
1
10
13.4613248654051
20
-38.1154578595255
30
0
0
SPLINE
5
19C
100
AcDbEntity
8
SK1
62
256
6
ByLayer
370
18
48
1
60
0
100
AcDbSpline
70
4
71
3
72
53
73
49
40
0
40
0
40
0
40
0
40
0.0274824281021227
40
0.0552770738174808
40
0.0830717195328389
40
0.0969690423905181
40
0.110866365248197
40
0.138661010963555
40
0.166455656678913
40
0.194250302394271
40
0.222044948109629
40
0.249839593824988
40
0.277634239540346
40
0.305428885255704
40
0.333223530971062
40
0.36101817668642
40
0.388812822401778
40
0.416607468117136
40
0.430504790974815
40
0.444402113832494
40
0.458299436690173
40
0.472196759547853
40
0.486094082405532
40
0.493042743834371
40
0.499991405263211
40
0.50694006669205
40
0.51388872812089
40
0.527786050978569
40
0.541683373836248
40
0.555580696693927
40
0.569478019551606
40
0.583375342409285
40
0.611169988124643
40
0.638964633840001
40
0.666759279555359
40
0.694553925270717
40
0.722348570986075
40
0.750143216701434
40
0.777937862416792
40
0.80573250813215
40
0.833527153847508
40
0.861321799562866
40
0.889116445278224
40
0.903013768135903
40
0.916911090993582
40
0.94470573670894
40
0.972500382424298
40
1
40
1
40
1
40
1
41
1
10
-48.0000000000001
20
-25.5414480482729
30
0
41
1
10
-48.0000000000001
20
-25.5425618142404
30
0
41
1
10
-48.0000000000001
20
-25.4640636415075
30
0
41
1
10
-48.0000000000001
20
-25.1322425192966
30
0
41
1
10
-48.0000000000001
20
-24.6943789872258
30
0
41
1
10
-48.0000000000001
20
-24.2527507958701
30
0
41
1
10
-48.0000000000001
20
-23.7534965427188
30
0
41
1
10
-48.0000000000001
20
-23.030309772166
30
0
41
1
10
-48.0000000000001
20
-22.0048954887129
30
0
41
1
10
-48.0000000000001
20
-20.8328487199719
30
0
41
1
10
-48.0000000000001
20
-19.5200996220051
30
0
41
1
10
-48.0000000000001
20
-18.0723511216475
30
0
41
1
10
-48.0000000000001
20
-16.4949784354154
30
0
41
1
10
-48.0000000000001
20
-14.7914034442657
30
0
41
1
10
-48
20
-12.9663998685648
30
0
41
1
10
-48
20
-11.0239134221953
30
0
41
1
10
-48
20
-8.96950823728517
30
0
41
1
10
-48
20
-7.1768657739093
30
0
41
1
10
-48
20
-5.68399982568371
30
0
41
1
10
-48
20
-4.55359781560853
30
0
41
1
10
-48
20
-3.41075035191318
30
0
41
1
10
-48
20
-2.26472549180232
30
0
41
1
10
-48
20
-1.32161475247139
30
0
41
1
10
-48
20
-0.561042317499073
30
0
41
1
10
-48
20
5.827934615E-07
30
0
41
1
10
-48
20
0.561043122290187
30
0
41
1
10
-48
20
1.32161426869393
30
0
41
1
10
-48
20
2.26472380030242
30
0
41
1
10
-48
20
3.41075020779331
30
0
41
1
10
-48
20
4.55359888251658
30
0
41
1
10
-48
20
5.683999612619
30
0
41
1
10
-48
20
7.17686534047022
30
0
41
1
10
-48
20
8.96950825544081
30
0
41
1
10
-48
20
11.023913502029
30
0
41
1
10
-47.9999999999999
20
12.9663999896203
30
0
41
1
10
-47.9999999999999
20
14.7914038739655
30
0
41
1
10
-47.9999999999999
20
16.494978782605
30
0
41
1
10
-47.9999999999999
20
18.0723510721557
30
0
41
1
10
-47.9999999999999
20
19.5200990771866
30
0
41
1
10
-47.9999999999999
20
20.832848699864
30
0
41
1
10
-47.9999999999999
20
22.0048965474212
30
0
41
1
10
-47.9999999999999
20
23.0303087127376
30
0
41
1
10
-47.9999999999999
20
23.7534935831731
30
0
41
1
10
-47.9999999999999
20
24.2527492082179
30
0
41
1
10
-47.9999999999999
20
24.6943791914989
30
0
41
1
10
-47.9999999999999
20
25.1322422668057
30
0
41
1
10
-47.9999999999999
20
25.4641323750523
30
0
41
1
10
-47.9999999999999
20
25.5426108079758
30
0
41
1
10
-47.9999999999999
20
25.5414458987078
30
0
0
SPLINE
5
19D
100
AcDbEntity
8
SK1
62
256
6
ByLayer
370
18
48
1
60
0
100
AcDbSpline
70
4
71
3
72
34
73
30
40
0
40
0
40
0
40
0
40
0.249999999999998
40
0.249999999999998
40
0.374999999999997
40
0.374999999999997
40
0.499999999999996
40
0.499999999999996
40
0.624999999999995
40
0.624999999999995
40
0.687499999999994
40
0.687499999999994
40
0.749999999999992
40
0.749999999999992
40
0.812499999999991
40
0.812499999999991
40
0.843749999999992
40
0.843749999999992
40
0.874999999999993
40
0.874999999999993
40
0.906249999999993
40
0.906249999999993
40
0.921874999999994
40
0.921874999999994
40
0.937499999999995
40
0.937499999999995
40
0.968749999999998
40
0.968749999999998
40
1
40
1
40
1
40
1
41
1
10
-0.200000000000031
20
-6.55227712232445
30
0
41
1
10
-0.200337167165472
20
-6.48813612986319
30
0
41
1
10
-0.202001510499898
20
-6.42391230321689
30
0
41
1
10
-0.207302963817327
20
-6.32744107363968
30
0
41
1
10
-0.209543235203554
20
-6.29526142118763
30
0
41
1
10
-0.215252325213129
20
-6.23085553749721
30
0
41
1
10
-0.218714447593285
20
-6.19862926640158
30
0
41
1
10
-0.22737768518401
20
-6.1341297290364
30
0
41
1
10
-0.23254764290661
20
-6.10194739347932
30
0
41
1
10
-0.242355179803198
20
-6.05395477419671
30
0
41
1
10
-0.245978726317787
20
-6.03797456128368
30
0
41
1
10
-0.254174420408063
20
-6.00627164279575
30
0
41
1
10
-0.258730367644105
20
-5.99057839566021
30
0
41
1
10
-0.269245267236272
20
-5.95968016956073
30
0
41
1
10
-0.275173744753204
20
-5.94446441589309
30
0
41
1
10
-0.285980482524764
20
-5.92231143869844
30
0
41
1
10
-0.28990597898165
20
-5.91504038952888
30
0
41
1
10
-0.298797923187976
20
-5.90086426726452
30
0
41
1
10
-0.303674067400849
20
-5.89408804025425
30
0
41
1
10
-0.314848838487862
20
-5.88165454576182
30
0
41
1
10
-0.321040616956594
20
-5.87610899057313
30
0
41
1
10
-0.331681166148442
20
-5.86978149468354
30
0
41
1
10
-0.335493722016992
20
-5.86801034282462
30
0
41
1
10
-0.343284951652933
20
-5.86552288649176
30
0
41
1
10
-0.347371812910424
20
-5.86477563679688
30
0
41
1
10
-0.359534957572194
20
-5.86423711805912
30
0
41
1
10
-0.367571007865095
20
-5.86616228333767
30
0
41
1
10
-0.38210175002942
20
-5.87272803663089
30
0
41
1
10
-0.38879099572209
20
-5.87734923192875
30
0
41
1
10
-0.39491379981132
20
-5.8825856729909
30
0
0
SPLINE
5
19E
100
AcDbEntity
8
SK1
62
256
6
ByLayer
370
18
48
1
60
0
100
AcDbSpline
70
4
71
3
72
38
73
34
40
0
40
0
40
0
40
0
40
0.0156250000000004
40
0.0156250000000004
40
0.0312500000000008
40
0.0312500000000008
40
0.0468750000000012
40
0.0468750000000012
40
0.0625000000000016
40
0.0625000000000016
40
0.078125000000002
40
0.078125000000002
40
0.0937500000000024
40
0.0937500000000024
40
0.125000000000003
40
0.125000000000003
40
0.156250000000005
40
0.156250000000005
40
0.187500000000006
40
0.187500000000006
40
0.250000000000005
40
0.250000000000005
40
0.312500000000005
40
0.312500000000005
40
0.375000000000004
40
0.375000000000004
40
0.500000000000003
40
0.500000000000003
40
0.625000000000001
40
0.625000000000001
40
0.75
40
0.75
40
1
40
1
40
1
40
1
41
1
10
-0.394913799811263
20
5.88258733498483
30
0
41
1
10
-0.391855475614122
20
5.87997174517943
30
0
41
1
10
-0.388679953698329
20
5.87753166439154
30
0
41
1
10
-0.382023894922739
20
5.87310852950299
30
0
41
1
10
-0.378520660678461
20
5.87111352959076
30
0
41
1
10
-0.371204411524815
20
5.86780375001044
30
0
41
1
10
-0.367430305230243
20
5.86650268448452
30
0
41
1
10
-0.359586250878706
20
5.86480236632462
30
0
41
1
10
-0.355491062365772
20
5.86442041571942
30
0
41
1
10
-0.347419400494431
20
5.86477259204989
30
0
41
1
10
-0.343334353292761
20
5.86551178963006
30
0
41
1
10
-0.335509573653297
20
5.86800393240804
30
0
41
1
10
-0.331763154935786
20
5.86973798480321
30
0
41
1
10
-0.320994194999543
20
5.87613112177433
30
0
41
1
10
-0.314813212304699
20
5.88168816956647
30
0
41
1
10
-0.303617390374939
20
5.89416050242824
30
0
41
1
10
-0.298778631313553
20
5.90089959919388
30
0
41
1
10
-0.289962744453959
20
5.91494866899535
30
0
41
1
10
-0.285986366953224
20
5.92229535303804
30
0
41
1
10
-0.275047927333063
20
5.94473551098528
30
0
41
1
10
-0.269098119985145
20
5.96006824141071
30
0
41
1
10
-0.258566536361201
20
5.99110891560525
30
0
41
1
10
-0.254019815815326
20
6.00682672167969
30
0
41
1
10
-0.245851820113202
20
6.03851342290707
30
0
41
1
10
-0.242238444719121
20
6.05448453988899
30
0
41
1
10
-0.232418188950959
20
6.1026714064829
30
0
41
1
10
-0.227272492676306
20
6.13483454456443
30
0
41
1
10
-0.218659309075349
20
6.1991230906373
30
0
41
1
10
-0.215212061754883
20
6.23126348879413
30
0
41
1
10
-0.209524252435514
20
6.29552574618808
30
0
41
1
10
-0.207290131858258
20
6.3276477818182
30
0
41
1
10
-0.202001043985916
20
6.42397958323062
30
0
41
1
10
-0.200337078752142
20
6.48815453706823
30
0
41
1
10
-0.199999999999974
20
6.55227865789408
30
0
0
SPLINE
5
19F
100
AcDbEntity
8
SK1
62
256
6
ByLayer
370
13
48
1
60
0
100
AcDbSpline
70
4
71
3
72
25
73
21
40
0
40
0
40
0
40
0
40
0.0145587295661183
40
0.0464029852819555
40
0.11009149671363
40
0.173780008145305
40
0.237468519576979
40
0.301157031008653
40
0.364845542440328
40
0.428534053872002
40
0.492222565303677
40
0.555911076735352
40
0.619599588167026
40
0.6832880995987
40
0.746976611030375
40
0.778820866746212
40
0.810665122462049
40
0.874353633893724
40
0.938042145325398
40
1
40
1
40
1
40
1
41
1
10
-0.39491379981132
20
-5.88258567299192
30
0
41
1
10
-0.39491379981132
20
-6.07052405947675
30
0
41
1
10
-0.39491379981132
20
-6.66606717738506
30
0
41
1
10
-0.39491379981132
20
-8.05259623229938
30
0
41
1
10
-0.394913799811334
20
-9.97566753154939
30
0
41
1
10
-0.394913799811334
20
-12.1534974735354
30
0
41
1
10
-0.394913799811349
20
-14.2008618261791
30
0
41
1
10
-0.394913799811349
20
-16.1168447823444
30
0
41
1
10
-0.394913799811363
20
-17.9007381804523
30
0
41
1
10
-0.394913799811363
20
-19.549694005804
30
0
41
1
10
-0.394913799811377
20
-21.0615461829413
30
0
41
1
10
-0.394913799811377
20
-22.432052288855
30
0
41
1
10
-0.394913799811377
20
-23.6558233145232
30
0
41
1
10
-0.394913799811377
20
-24.7273078069339
30
0
41
1
10
-0.394913799811391
20
-25.4857549542384
30
0
41
1
10
-0.394913799811391
20
-26.0073865712911
30
0
41
1
10
-0.394913799811391
20
-26.4695479101472
30
0
41
1
10
-0.394913799811391
20
-26.9317121751432
30
0
41
1
10
-0.394913799811391
20
-27.2808223654308
30
0
41
1
10
-0.394913799811391
20
-27.365231338085
30
0
41
1
10
-0.394913799811377
20
-27.3654106729233
30
0
0
SPLINE
5
1A0
100
AcDbEntity
8
SK1
62
256
6
ByLayer
370
18
48
1
60
0
100
AcDbSpline
70
4
71
3
72
49
73
45
40
0
40
0
40
0
40
0
40
0.0312500000000038
40
0.0312500000000038
40
0.0468750000000048
40
0.0468750000000048
40
0.0625000000000058
40
0.0781250000000069
40
0.0781250000000069
40
0.0859375000000073
40
0.0859375000000073
40
0.0937500000000077
40
0.109375000000009
40
0.117187500000009
40
0.117187500000009
40
0.125000000000009
40
0.125000000000009
40
0.15625000000001
40
0.15625000000001
40
0.171875000000011
40
0.171875000000011
40
0.187500000000011
40
0.187500000000011
40
0.218750000000012
40
0.218750000000012
40
0.234375000000012
40
0.234375000000012
40
0.250000000000012
40
0.250000000000012
40
0.31250000000001
40
0.31250000000001
40
0.375000000000009
40
0.375000000000009
40
0.437500000000007
40
0.437500000000007
40
0.500000000000006
40
0.500000000000006
40
0.625000000000004
40
0.625000000000004
40
0.750000000000003
40
0.750000000000003
40
0.875000000000001
40
0.875000000000001
40
1
40
1
40
1
40
1
41
1
10
-0.39491379981132
20
-5.88258567299192
30
0
41
1
10
-0.411179767739867
20
-5.89649691057778
30
0
41
1
10
-0.428385528731525
20
-5.90924654958064
30
0
41
1
10
-0.456220231625195
20
-5.92587726264904
30
0
41
1
10
-0.465900558107379
20
-5.93102514312227
30
0
41
1
10
-0.485699188913244
20
-5.94009851027181
30
0
41
1
10
-0.50595990233073
20
-5.94797987906676
30
0
41
1
10
-0.52727632439516
20
-5.95314074745056
30
0
41
1
10
-0.543724271296682
20
-5.9558251558885
30
0
41
1
10
-0.549307626346618
20
-5.95652193855128
30
0
41
1
10
-0.56040225407024
20
-5.95747179112044
30
0
41
1
10
-0.577005048576765
20
-5.95824738974093
30
0
41
1
10
-0.598988113232082
20
-5.95672779936984
30
0
41
1
10
-0.615363151583253
20
-5.953726487664
30
0
41
1
10
-0.626255188472399
20
-5.95131675596099
30
0
41
1
10
-0.631686913413517
20
-5.94990548753631
30
0
41
1
10
-0.658283686674324
20
-5.94201343342041
30
0
41
1
10
-0.678213101083699
20
-5.93297784531563
30
0
41
1
10
-0.706655485452217
20
-5.91648780259627
30
0
41
1
10
-0.715834603579097
20
-5.91052268984234
30
0
41
1
10
-0.733450676613359
20
-5.89799413410989
30
0
41
1
10
-0.741931675642988
20
-5.89140462063131
30
0
41
1
10
-0.766568398283454
20
-5.87083261121123
30
0
41
1
10
-0.781926636665673
20
-5.85605532307281
30
0
41
1
10
-0.803808427400909
20
-5.8327319572052
30
0
41
1
10
-0.810909537595492
20
-5.82475689909123
30
0
41
1
10
-0.824642187820515
20
-5.80862406976092
30
0
41
1
10
-0.831293292074733
20
-5.8004459091575
30
0
41
1
10
-0.863632300216551
20
-5.75907701915665
30
0
41
1
10
-0.886653206455151
20
-5.72449384855278
30
0
41
1
10
-0.929268994496837
20
-5.65349793311387
30
0
41
1
10
-0.948821917963443
20
-5.61706391416035
30
0
41
1
10
-0.9854903268116
20
-5.54286169997806
30
0
41
1
10
-1.00262576586447
20
-5.50500475294339
30
0
41
1
10
-1.0348108500766
20
-5.42880990558518
30
0
41
1
10
-1.04987958840802
20
-5.39043436268409
30
0
41
1
10
-1.09271831790771
20
-5.27463055419162
30
0
41
1
10
-1.11815612697548
20
-5.1965332099478
30
0
41
1
10
-1.16484869971204
20
-5.03900155537229
30
0
41
1
10
-1.18607375956302
20
-4.95956033007349
30
0
41
1
10
-1.22537042104101
20
-4.79955772182797
30
0
41
1
10
-1.24343193354569
20
-4.71899405044132
30
0
41
1
10
-1.27704610356759
20
-4.55687629477117
30
0
41
1
10
-1.29259442759719
20
-4.47532122975804
30
0
41
1
10
-1.30710678118656
20
-4.39331221032487
30
0
0
SPLINE
5
1A1
100
AcDbEntity
8
SK1
62
256
6
ByLayer
370
18
48
1
60
0
100
AcDbSpline
70
4
71
3
72
36
73
32
40
0
40
0
40
0
40
0
40
0.0625000000000002
40
0.0625000000000002
40
0.125
40
0.125
40
0.250000000000001
40
0.250000000000001
40
0.312500000000001
40
0.312500000000001
40
0.343750000000001
40
0.343750000000001
40
0.375000000000001
40
0.375000000000001
40
0.437500000000001
40
0.437500000000001
40
0.500000000000001
40
0.5625
40
0.5625
40
0.625
40
0.625
40
0.6875
40
0.71875
40
0.71875
40
0.75
40
0.75
40
0.875
40
0.875
40
0.9375
40
0.9375
40
1
40
1
40
1
40
1
41
1
10
-1.30710678118656
20
-4.39331221032489
30
0
41
1
10
-1.33832612741193
20
-4.21689231016722
30
0
41
1
10
-1.36851092390376
20
-4.03973122982887
30
0
41
1
10
-1.42649811963089
20
-3.68381684447201
30
0
41
1
10
-1.45429466041942
20
-3.50506155058414
30
0
41
1
10
-1.53342175503582
20
-2.96616199669305
30
0
41
1
10
-1.58051371000481
20
-2.60339474516388
30
0
41
1
10
-1.63969017396079
20
-2.05289759168917
30
0
41
1
10
-1.65749856469556
20
-1.86833789193395
30
0
41
1
10
-1.68090524760893
20
-1.58974420341144
30
0
41
1
10
-1.68815609252624
20
-1.4965870997257
30
0
41
1
10
-1.70147805604537
20
-1.30965819488989
30
0
41
1
10
-1.70755165689623
20
-1.21581541728392
30
0
41
1
10
-1.72381183076918
20
-0.934723518861318
30
0
41
1
10
-1.73206493494847
20
-0.747501097942717
30
0
41
1
10
-1.7429848038179
20
-0.373418392454084
30
0
41
1
10
-1.748391829433
20
0.0003055804815801
30
0
41
1
10
-1.74297993884852
20
0.373323280942145
30
0
41
1
10
-1.73211744010526
20
0.745986303504452
30
0
41
1
10
-1.72392517749429
20
0.932138827990201
30
0
41
1
10
-1.70248074969007
20
1.30410713450161
30
0
41
1
10
-1.68260948363638
20
1.58283112758753
30
0
41
1
10
-1.65757931062798
20
1.86120029185437
30
0
41
1
10
-1.63980474419279
20
2.04670347397035
30
0
41
1
10
-1.63039580544411
20
2.1391828740305
30
0
41
1
10
-1.58095222331164
20
2.60000741581413
30
0
41
1
10
-1.53372925180183
20
2.96395482764058
30
0
41
1
10
-1.45444775249804
20
3.50406852662027
30
0
41
1
10
-1.42660609580413
20
3.68313524459486
30
0
41
1
10
-1.36854874276651
20
4.03950797751688
30
0
41
1
10
-1.33833886963824
20
4.21681617087032
30
0
41
1
10
-1.30710678118653
20
4.39330887788606
30
0
0
SPLINE
5
1A2
100
AcDbEntity
8
SK1
62
256
6
ByLayer
370
18
48
1
60
0
100
AcDbSpline
70
4
71
3
72
50
73
46
40
0
40
0
40
0
40
0
40
0.124999999999998
40
0.124999999999998
40
0.249999999999996
40
0.249999999999996
40
0.312499999999996
40
0.312499999999996
40
0.374999999999996
40
0.374999999999996
40
0.499999999999996
40
0.499999999999996
40
0.562499999999996
40
0.562499999999996
40
0.624999999999997
40
0.624999999999997
40
0.687499999999997
40
0.687499999999997
40
0.718749999999997
40
0.718749999999997
40
0.749999999999997
40
0.749999999999997
40
0.781249999999998
40
0.781249999999998
40
0.812499999999998
40
0.812499999999998
40
0.843749999999998
40
0.843749999999998
40
0.859374999999998
40
0.859374999999998
40
0.874999999999998
40
0.890624999999998
40
0.890624999999998
40
0.898437499999998
40
0.898437499999998
40
0.906249999999998
40
0.921874999999998
40
0.921874999999998
40
0.937499999999999
40
0.937499999999999
40
0.968749999999999
40
0.968749999999999
40
0.984375
40
0.984375
40
1
40
1
40
1
40
1
41
1
10
-1.30710678118652
20
4.39330887788606
30
0
41
1
10
-1.29259057630256
20
4.47534003310412
30
0
41
1
10
-1.27702923965072
20
4.55696714625805
30
0
41
1
10
-1.24335659670558
20
4.71934352683385
30
0
41
1
10
-1.22524991683203
20
4.80009364705947
30
0
41
1
10
-1.19566654622427
20
4.92047732721875
30
0
41
1
10
-1.18539939501377
20
4.96048124175471
30
0
41
1
10
-1.16392950861754
20
5.04022016000795
30
0
41
1
10
-1.15271909218826
20
5.07998178339514
30
0
41
1
10
-1.11752093416872
20
5.19855796010594
30
0
41
1
10
-1.09200642706725
20
5.27670114460136
30
0
41
1
10
-1.0492407274256
20
5.39208696039736
30
0
41
1
10
-1.03422852656959
20
5.43024134229668
30
0
41
1
10
-1.00227006366245
20
5.50579467647674
30
0
41
1
10
-0.985329895267597
20
5.54319570602496
30
0
41
1
10
-0.948842305699031
20
5.61701592648748
30
0
41
1
10
-0.929311633153432
20
5.65344083322157
30
0
41
1
10
-0.897134039200722
20
5.70702849131604
30
0
41
1
10
-0.885889244318051
20
5.72475996992927
30
0
41
1
10
-0.862388317867428
20
5.75943238422735
30
0
41
1
10
-0.850124764431285
20
5.77639487115229
30
0
41
1
10
-0.824286187770213
20
5.80937247929978
30
0
41
1
10
-0.810714993566975
20
5.82539030326046
30
0
41
1
10
-0.781810520162324
20
5.85616212382189
30
0
41
1
10
-0.766480020681499
20
5.87092930527115
30
0
41
1
10
-0.733280688453021
20
5.89860840862804
30
0
41
1
10
-0.715743791280261
20
5.91124847506274
30
0
41
1
10
-0.68741628460927
20
5.92762938506613
30
0
41
1
10
-0.677572371948386
20
5.93267724259607
30
0
41
1
10
-0.657498098822899
20
5.94150365482599
30
0
41
1
10
-0.636988070186447
20
5.94910381427817
30
0
41
1
10
-0.615487385337133
20
5.9539180373385
30
0
41
1
10
-0.598932162610765
20
5.95632074310808
30
0
41
1
10
-0.593335497469852
20
5.95691733339831
30
0
41
1
10
-0.58224137494102
20
5.95766809286985
30
0
41
1
10
-0.565657821584423
20
5.95814654054257
30
0
41
1
10
-0.54924370449001
20
5.95672090529089
30
0
41
1
10
-0.527503554619585
20
5.95318620141708
30
0
41
1
10
-0.516622342716403
20
5.95056688400257
30
0
41
1
10
-0.485210602129968
20
5.94070326229377
30
0
41
1
10
-0.465634608434925
20
5.93149511928672
30
0
41
1
10
-0.437740327393655
20
5.91484188421759
30
0
41
1
10
-0.428752255076858
20
5.90884528223492
30
0
41
1
10
-0.411413024584249
20
5.89619973179913
30
0
41
1
10
-0.403039329106406
20
5.88953658242153
30
0
41
1
10
-0.394913799811263
20
5.88258733498481
30
0
0
SPLINE
5
1A3
100
AcDbEntity
8
SK1
62
256
6
ByLayer
370
13
48
1
60
0
100
AcDbSpline
70
4
71
3
72
25
73
21
40
0
40
0
40
0
40
0
40
0.0621299289368519
40
0.12580676026982
40
0.189483591602789
40
0.221322007269273
40
0.253160422935758
40
0.316837254268726
40
0.380514085601695
40
0.444190916934663
40
0.507867748267632
40
0.5715445796006
40
0.635221410933569
40
0.698898242266538
40
0.762575073599506
40
0.826251904932475
40
0.889928736265443
40
0.953605567598412
40
0.985443983264896
40
1
40
1
40
1
40
1
41
1
10
-0.394913799811192
20
27.3654111757364
30
0
41
1
10
-0.394913799811192
20
27.3654777309173
30
0
41
1
10
-0.394913799811192
20
27.2811607187438
30
0
41
1
10
-0.394913799811192
20
26.931711914563
30
0
41
1
10
-0.394913799811192
20
26.4695479228793
30
0
41
1
10
-0.394913799811192
20
26.0073845707252
30
0
41
1
10
-0.394913799811192
20
25.4857521565205
30
0
41
1
10
-0.394913799811192
20
24.7273073402748
30
0
41
1
10
-0.394913799811206
20
23.6558244102428
30
0
41
1
10
-0.394913799811206
20
22.4320519750209
30
0
41
1
10
-0.394913799811206
20
21.061545739767
30
0
41
1
10
-0.394913799811221
20
19.5496941631405
30
0
41
1
10
-0.394913799811221
20
17.9007385657829
30
0
41
1
10
-0.394913799811235
20
16.116845123771
30
0
41
1
10
-0.394913799811235
20
14.2008618153781
30
0
41
1
10
-0.394913799811249
20
12.153497457354
30
0
41
1
10
-0.394913799811249
20
9.97566741413243
30
0
41
1
10
-0.394913799811263
20
8.05259596592001
30
0
41
1
10
-0.394913799811263
20
6.66606769858655
30
0
41
1
10
-0.394913799811263
20
6.07052516538181
30
0
41
1
10
-0.394913799811263
20
5.88258733498483
30
0
0
SPLINE
5
1A4
100
AcDbEntity
8
SK1
62
256
6
ByLayer
370
13
48
1
60
0
100
AcDbSpline
70
4
71
3
72
53
73
49
40
0
40
0
40
0
40
0
40
0.0270895961209028
40
0.0549066092947938
40
0.0827236224686848
40
0.0966321290556302
40
0.110540635642576
40
0.138357648816467
40
0.166174661990358
40
0.193991675164249
40
0.22180868833814
40
0.249625701512031
40
0.277442714685922
40
0.305259727859813
40
0.333076741033703
40
0.360893754207595
40
0.388710767381486
40
0.416527780555376
40
0.430436287142322
40
0.444344793729268
40
0.458253300316213
40
0.472161806903159
40
0.486070313490104
40
0.493024566783577
40
0.499978820077049
40
0.506933073370522
40
0.513887326663995
40
0.52779583325094
40
0.541704339837886
40
0.555612846424831
40
0.569521353011777
40
0.583429859598722
40
0.611246872772613
40
0.639063885946504
40
0.666880899120395
40
0.694697912294286
40
0.722514925468177
40
0.750331938642068
40
0.778148951815959
40
0.80596596498985
40
0.833782978163741
40
0.861599991337632
40
0.889417004511523
40
0.903325511098469
40
0.917234017685414
40
0.945051030859305
40
0.972868044033196
40
1
40
1
40
1
40
1
41
1
10
-1.9950399779392
20
27.3252179108184
30
0
41
1
10
-1.9950399779392
20
27.3251258435758
30
0
41
1
10
-1.9950399779392
20
27.2408685519871
30
0
41
1
10
-1.9950399779392
20
26.8920579638066
30
0
41
1
10
-1.9950399779392
20
26.4304294784276
30
0
41
1
10
-1.9950399779392
20
25.9687186091476
30
0
41
1
10
-1.9950399779392
20
25.4475793002846
30
0
41
1
10
-1.9950399779392
20
24.6899114886171
30
0
41
1
10
-1.99503997793921
20
23.619443795401
30
0
41
1
10
-1.99503997793921
20
22.3968111872691
30
0
41
1
10
-1.99503997793921
20
21.0275777036138
30
0
41
1
10
-1.99503997793923
20
19.5171387431293
30
0
41
1
10
-1.99503997793923
20
17.8697605888624
30
0
41
1
10
-1.99503997793924
20
16.0876370834377
30
0
41
1
10
-1.99503997793924
20
14.1736586399813
30
0
41
1
10
-1.99503997793926
20
12.1286054195275
30
0
41
1
10
-1.99503997793926
20
9.95349522257501
30
0
41
1
10
-1.99503997793927
20
8.03329795823163
30
0
41
1
10
-1.99503997793927
20
6.43152354524267
30
0
41
1
10
-1.99503997793928
20
5.19920324116256
30
0
41
1
10
-1.99503997793928
20
3.93622738701507
30
0
41
1
10
-1.99503997793928
20
2.64495367748941
30
0
41
1
10
-1.99503997793928
20
1.54951551889729
30
0
41
1
10
-1.9950399779393
20
0.6647912077417
30
0
41
1
10
-1.9950399779393
20
-1.48582728E-08
30
0
41
1
10
-1.9950399779393
20
-0.664791253601607
30
0
41
1
10
-1.9950399779393
20
-1.549515656636
30
0
41
1
10
-1.99503997793931
20
-2.64495403942521
30
0
41
1
10
-1.99503997793931
20
-3.93622781621519
30
0
41
1
10
-1.99503997793931
20
-5.19920320851571
30
0
41
1
10
-1.99503997793933
20
-6.43152352997811
30
0
41
1
10
-1.99503997793933
20
-8.03329822829241
30
0
41
1
10
-1.99503997793933
20
-9.95349533700443
30
0
41
1
10
-1.99503997793934
20
-12.1286054335931
30
0
41
1
10
-1.99503997793936
20
-14.1736586478766
30
0
41
1
10
-1.99503997793936
20
-16.0876367400659
30
0
41
1
10
-1.99503997793937
20
-17.8697602043723
30
0
41
1
10
-1.99503997793937
20
-19.5171385903506
30
0
41
1
10
-1.99503997793937
20
-21.027578149028
30
0
41
1
10
-1.99503997793939
20
-22.3968114946305
30
0
41
1
10
-1.99503997793939
20
-23.6194427004969
30
0
41
1
10
-1.99503997793939
20
-24.6899119683388
30
0
41
1
10
-1.9950399779394
20
-25.4475821015686
30
0
41
1
10
-1.9950399779394
20
-25.9687206006143
30
0
41
1
10
-1.9950399779394
20
-26.4304294614745
30
0
41
1
10
-1.9950399779394
20
-26.8920582242086
30
0
41
1
10
-1.99503997793941
20
-27.2410471091908
30
0
41
1
10
-1.9950399779394
20
-27.3252555669116
30
0
41
1
10
-1.99503997793941
20
-27.3252180382781
30
0
0
SPLINE
5
1A5
100
AcDbEntity
8
SK1
62
256
6
ByLayer
370
18
48
1
60
0
100
AcDbSpline
70
4
71
3
72
53
73
49
40
0
40
0
40
0
40
0
40
0.0183862523534559
40
0.0467164708210932
40
0.0750466892887304
40
0.0892117985225491
40
0.103376907756368
40
0.131707126224005
40
0.160037344691642
40
0.188367563159279
40
0.216697781626917
40
0.245028000094554
40
0.273358218562191
40
0.301688437029829
40
0.330018655497466
40
0.358348873965103
40
0.386679092432741
40
0.415009310900378
40
0.429174420134196
40
0.443339529368015
40
0.457504638601834
40
0.471669747835652
40
0.485834857069471
40
0.49291741168638
40
0.49999996630329
40
0.507082520920199
40
0.514165075537108
40
0.528330184770927
40
0.542495294004746
40
0.556660403238564
40
0.570825512472383
40
0.584990621706201
40
0.613320840173839
40
0.641651058641476
40
0.669981277109113
40
0.698311495576751
40
0.726641714044388
40
0.754971932512025
40
0.783302150979662
40
0.8116323694473
40
0.839962587914937
40
0.868292806382574
40
0.896623024850212
40
0.91078813408403
40
0.924953243317849
40
0.953283461785486
40
0.981613680253123
40
1
40
1
40
1
40
1
41
1
10
-2.19999999999989
20
27.5062744588374
30
0
41
1
10
-2.19999999999989
20
27.4880697257487
30
0
41
1
10
-2.19999999999989
20
27.3968430126444
30
0
41
1
10
-2.1999999999999
20
27.0843206529938
30
0
41
1
10
-2.1999999999999
20
26.6200957584238
30
0
41
1
10
-2.1999999999999
20
26.156191020121
30
0
41
1
10
-2.1999999999999
20
25.6326608836802
30
0
41
1
10
-2.1999999999999
20
24.8712257553423
30
0
41
1
10
-2.19999999999992
20
23.7958356733944
30
0
41
1
10
-2.19999999999992
20
22.5676765989873
30
0
41
1
10
-2.19999999999992
20
21.1922721628705
30
0
41
1
10
-2.19999999999993
20
19.6749841148914
30
0
41
1
10
-2.19999999999993
20
18.0199577075533
30
0
41
1
10
-2.19999999999995
20
16.229252641869
30
0
41
1
10
-2.19999999999995
20
14.3055535850363
30
0
41
1
10
-2.19999999999996
20
12.2492947844102
30
0
41
1
10
-2.19999999999996
20
10.0609973779136
30
0
41
1
10
-2.19999999999997
20
8.12686459619212
30
0
41
1
10
-2.19999999999997
20
6.51319173456665
30
0
41
1
10
-2.19999999999997
20
5.269736553461
30
0
41
1
10
-2.19999999999999
20
3.99363661217191
30
0
41
1
10
-2.19999999999999
20
2.68649440179473
30
0
41
1
10
-2.19999999999999
20
1.57441409623579
30
0
41
1
10
-2.2
20
0.676125852580327
30
0
41
1
10
-2.2
20
-8.01526596E-08
30
0
41
1
10
-2.2
20
-0.676125991375187
30
0
41
1
10
-2.2
20
-1.57441419616916
30
0
41
1
10
-2.20000000000002
20
-2.68649461847349
30
0
41
1
10
-2.20000000000002
20
-3.99363707251749
30
0
41
1
10
-2.20000000000002
20
-5.26973663380881
30
0
41
1
10
-2.20000000000003
20
-6.51319169435675
30
0
41
1
10
-2.20000000000003
20
-8.1268648484035
30
0
41
1
10
-2.20000000000003
20
-10.0609975068282
30
0
41
1
10
-2.20000000000005
20
-12.2492948087344
30
0
41
1
10
-2.20000000000006
20
-14.3055536070197
30
0
41
1
10
-2.20000000000006
20
-16.2292523079286
30
0
41
1
10
-2.20000000000007
20
-18.0199573189881
30
0
41
1
10
-2.20000000000007
20
-19.6749839400142
30
0
41
1
10
-2.20000000000007
20
-21.1922725974247
30
0
41
1
10
-2.20000000000009
20
-22.5676769377316
30
0
41
1
10
-2.20000000000009
20
-23.7958345745359
30
0
41
1
10
-2.20000000000009
20
-24.87122617173
30
0
41
1
10
-2.2000000000001
20
-25.6326636676739
30
0
41
1
10
-2.2000000000001
20
-26.156193055705
30
0
41
1
10
-2.2000000000001
20
-26.6200957619357
30
0
41
1
10
-2.2000000000001
20
-27.0843209142601
30
0
41
1
10
-2.2000000000001
20
-27.3968432731315
30
0
41
1
10
-2.2000000000001
20
-27.4880698405002
30
0
41
1
10
-2.2000000000001
20
-27.5062745412071
30
0
0
SPLINE
5
1A6
100
AcDbEntity
8
SK1
62
256
6
ByLayer
370
18
48
1
60
0
100
AcDbSpline
70
4
71
3
72
53
73
49
40
0
40
0
40
0
40
0
40
0.0184049971945341
40
0.0467338366993152
40
0.0750626762040963
40
0.0892270959564869
40
0.103391515708877
40
0.131720355213658
40
0.16004919471844
40
0.188378034223221
40
0.216706873728002
40
0.245035713232783
40
0.273364552737564
40
0.301693392242345
40
0.330022231747126
40
0.358351071251907
40
0.386679910756689
40
0.41500875026147
40
0.42917317001386
40
0.443337589766251
40
0.457502009518641
40
0.471666429271032
40
0.485830849023422
40
0.492913058899618
40
0.499995268775813
40
0.507077478652008
40
0.514159688528203
40
0.528324108280594
40
0.542488528032985
40
0.556652947785375
40
0.570817367537765
40
0.584981787290156
40
0.613310626794937
40
0.641639466299718
40
0.6699683058045
40
0.698297145309281
40
0.726625984814061
40
0.754954824318843
40
0.783283663823624
40
0.811612503328405
40
0.839941342833186
40
0.868270182337967
40
0.896599021842748
40
0.910763441595139
40
0.924927861347529
40
0.953256700852311
40
0.981585540357091
40
1
40
1
40
1
40
1
41
1
10
-46.4999999999999
20
26.39409106452
30
0
41
1
10
-46.4999999999999
20
26.3765864106677
30
0
41
1
10
-46.4999999999999
20
26.2887289432155
30
0
41
1
10
-46.4999999999999
20
25.9864884679326
30
0
41
1
10
-46.4999999999999
20
25.5370892350004
30
0
41
1
10
-46.4999999999999
20
25.0857116283693
30
0
41
1
10
-46.4999999999999
20
24.5758332694778
30
0
41
1
10
-46.4999999999999
20
23.835909758967
30
0
41
1
10
-46.4999999999999
20
22.7886268297895
30
0
41
1
10
-46.4999999999999
20
21.5920242293513
30
0
41
1
10
-46.4999999999999
20
20.2518563243234
30
0
41
1
10
-46.4999999999999
20
18.7736770016082
30
0
41
1
10
-46.4999999999999
20
17.1623226058106
30
0
41
1
10
-46.4999999999999
20
15.420618795081
30
0
41
1
10
-46.5
20
13.5524250589534
30
0
41
1
10
-46.5
20
11.5601508338968
30
0
41
1
10
-46.5
20
9.44715323273326
30
0
41
1
10
-46.5
20
7.59259314167733
30
0
41
1
10
-46.5
20
6.04686117862479
30
0
41
1
10
-46.5
20
4.86698685362302
30
0
41
1
10
-46.5
20
3.66582628473373
30
0
41
1
10
-46.5
20
2.44929422361187
30
0
41
1
10
-46.5
20
1.43224163583824
30
0
41
1
10
-46.5
20
0.611404309556747
30
0
41
1
10
-46.5
20
2.926826426E-07
30
0
41
1
10
-46.5
20
-0.611403917686772
30
0
41
1
10
-46.5
20
-1.43224195164211
30
0
41
1
10
-46.5
20
-2.44929526971728
30
0
41
1
10
-46.5
20
-3.66582656723654
30
0
41
1
10
-46.5
20
-4.86698628876383
30
0
41
1
10
-46.5
20
-6.04686128085422
30
0
41
1
10
-46.5
20
-7.5925934958095
30
0
41
1
10
-46.5
20
-9.44715327893661
30
0
41
1
10
-46.5
20
-11.5601507996433
30
0
41
1
10
-46.5000000000001
20
-13.5524250004929
30
0
41
1
10
-46.5000000000001
20
-15.4206184072862
30
0
41
1
10
-46.5000000000001
20
-17.1623222405145
30
0
41
1
10
-46.5000000000001
20
-18.7736769529141
30
0
41
1
10
-46.5000000000001
20
-20.2518568208891
30
0
41
1
10
-46.5000000000001
20
-21.5920243888971
30
0
41
1
10
-46.5000000000001
20
-22.7886257535109
30
0
41
1
10
-46.5000000000001
20
-23.8359105369951
30
0
41
1
10
-46.5000000000001
20
-24.5758361522003
30
0
41
1
10
-46.5000000000001
20
-25.0857134120401
30
0
41
1
10
-46.5000000000001
20
-25.5370891216556
30
0
41
1
10
-46.5000000000001
20
-25.9864887242635
30
0
41
1
10
-46.5000000000001
20
-26.2887670151803
30
0
41
1
10
-46.5000000000001
20
-26.3766218382146
30
0
41
1
10
-46.5000000000001
20
-26.3941179356088
30
0
0
SPLINE
5
1A7
100
AcDbEntity
8
1
62
256
6
ByLayer
370
18
48
1
60
0
100
AcDbSpline
70
4
71
3
72
8
73
4
40
0
40
0
40
0
40
0
40
1
40
1
40
1
40
1
41
1
10
448.325
20
7.64838937480351
30
0
41
1
10
448.151382100282
20
7.4984848874586
30
0
41
1
10
447.977644680543
20
7.34876540551141
30
0
41
1
10
447.80379947275
20
7.19921276901462
30
0
0
SPLINE
5
1A8
100
AcDbEntity
8
1
62
256
6
ByLayer
370
18
48
1
60
0
100
AcDbSpline
70
4
71
3
72
8
73
4
40
0
40
0
40
0
40
0
40
1
40
1
40
1
40
1
41
1
10
447.80379947275
20
-7.199212769018
30
0
41
1
10
447.977644680543
20
-7.3487654055148
30
0
41
1
10
448.151382100282
20
-7.49848488746196
30
0
41
1
10
448.325
20
-7.64838937480687
30
0
0
SPLINE
5
1A9
100
AcDbEntity
8
1
62
256
6
ByLayer
370
18
48
1
60
0
100
AcDbSpline
70
4
71
3
72
8
73
4
40
0
40
0
40
0
40
0
40
1
40
1
40
1
40
1
41
1
10
447.65725
20
-7.07303023420079
30
0
41
1
10
447.706084164562
20
-7.11511538453234
30
0
41
1
10
447.7549342535
20
-7.15717581864968
30
0
41
1
10
447.80379947275
20
-7.199212769018
30
0
0
SPLINE
5
1AA
100
AcDbEntity
8
1
62
256
6
ByLayer
370
18
48
1
60
0
100
AcDbSpline
70
4
71
3
72
8
73
4
40
0
40
0
40
0
40
0
40
1
40
1
40
1
40
1
41
1
10
448.325
20
-7.20327711016728
30
0
41
1
10
448.080255339592
20
-6.63669025436613
30
0
41
1
10
447.856117493986
20
-6.05952219002523
30
0
41
1
10
447.65725
20
-5.46937827944475
30
0
0
SPLINE
5
1AB
100
AcDbEntity
8
1
62
256
6
ByLayer
370
18
48
1
60
0
100
AcDbSpline
70
4
71
3
72
42
73
38
40
0
40
0
40
0
40
0
40
0.125
40
0.125
40
0.25
40
0.25
40
0.375
40
0.375
40
0.5
40
0.5
40
0.625
40
0.625
40
0.6875
40
0.6875
40
0.75
40
0.75
40
0.78125
40
0.78125
40
0.812500000000001
40
0.812500000000001
40
0.843750000000001
40
0.843750000000001
40
0.859375000000001
40
0.859375000000001
40
0.875000000000001
40
0.875000000000001
40
0.890625000000001
40
0.890625000000001
40
0.906250000000001
40
0.906250000000001
40
0.921875000000001
40
0.921875000000001
40
0.937500000000002
40
0.937500000000002
40
0.968750000000001
40
0.968750000000001
40
1
40
1
40
1
40
1
41
1
10
447.657249999999
20
-5.4693782794447
30
0
41
1
10
447.645842809892
20
-5.43552717767034
30
0
41
1
10
447.635376218753
20
-5.40168842627372
30
0
41
1
10
447.616159579328
20
-5.33401944632442
30
0
41
1
10
447.607410617599
20
-5.30018931105855
30
0
41
1
10
447.591630243532
20
-5.23253098208932
30
0
41
1
10
447.584597038584
20
-5.19870272955237
30
0
41
1
10
447.572416607621
20
-5.13105017447975
30
0
41
1
10
447.567257123168
20
-5.09714638781295
30
0
41
1
10
447.559350199227
20
-5.03008375541546
30
0
41
1
10
447.556563468565
20
-4.99685663760101
30
0
41
1
10
447.554934374754
20
-4.94772539067151
30
0
41
1
10
447.554825420221
20
-4.93146752873221
30
0
41
1
10
447.555768454577
20
-4.89960675209301
30
0
41
1
10
447.556807905361
20
-4.88396449991009
30
0
41
1
10
447.559669757845
20
-4.86118136084565
30
0
41
1
10
447.560848470003
20
-4.85368213416604
30
0
41
1
10
447.563768250598
20
-4.83914278707061
30
0
41
1
10
447.565506518077
20
-4.83209277964605
30
0
41
1
10
447.569762851032
20
-4.81861504057008
30
0
41
1
10
447.572290682967
20
-4.8121710582451
30
0
41
1
10
447.576847316763
20
-4.80347408704372
30
0
41
1
10
447.578497308551
20
-4.80072867399116
30
0
41
1
10
447.582126724826
20
-4.79562533189142
30
0
41
1
10
447.584120966475
20
-4.79325244299591
30
0
41
1
10
447.58846641644
20
-4.78908930635242
30
0
41
1
10
447.590800873116
20
-4.78730996752512
30
0
41
1
10
447.595857639166
20
-4.7844786108648
30
0
41
1
10
447.598615514316
20
-4.78342447607997
30
0
41
1
10
447.604356758172
20
-4.78225022356241
30
0
41
1
10
447.607348860968
20
-4.78211350771358
30
0
41
1
10
447.6135806722
20
-4.78276070817321
30
0
41
1
10
447.616835571824
20
-4.78356086776662
30
0
41
1
10
447.626509399883
20
-4.78714923422558
30
0
41
1
10
447.633049260233
20
-4.7911832254035
30
0
41
1
10
447.645463257178
20
-4.80093741125768
30
0
41
1
10
447.65147087267
20
-4.80672155313692
30
0
41
1
10
447.657250000009
20
-4.81300077610319
30
0
0
SPLINE
5
1AC
100
AcDbEntity
8
1
62
256
6
ByLayer
370
18
48
1
60
0
100
AcDbSpline
70
4
71
3
72
8
73
4
40
0
40
0
40
0
40
0
40
1
40
1
40
1
40
1
41
1
10
447.657250000009
20
-4.81300077610285
30
0
41
1
10
447.87689336472
20
-5.0516509353638
30
0
41
1
10
448.099787204791
20
-5.28619501268764
30
0
41
1
10
448.325
20
-5.51780972776493
30
0
0
SPLINE
5
1AD
100
AcDbEntity
8
1
62
256
6
ByLayer
370
18
48
1
60
0
100
AcDbSpline
70
4
71
3
72
22
73
18
40
0
40
0
40
0
40
0
40
0.25
40
0.25
40
0.375
40
0.375
40
0.5
40
0.5
40
0.5625
40
0.5625
40
0.578125
40
0.578125
40
0.59375
40
0.625
40
0.75
40
0.75
40
1
40
1
40
1
40
1
41
1
10
448.325
20
-4.76902621085378
30
0
41
1
10
448.113971460503
20
-3.99280922093732
30
0
41
1
10
447.949976506114
20
-3.2092195223843
30
0
41
1
10
447.783208603644
20
-2.02141620255017
30
0
41
1
10
447.74081351916
20
-1.62341351472403
30
0
41
1
10
447.683672378297
20
-0.823074039771768
30
0
41
1
10
447.668927961679
20
-0.420736995606205
30
0
41
1
10
447.668354981257
20
0.186145625857961
30
0
41
1
10
447.671752969564
20
0.389002420723386
30
0
41
1
10
447.680557089097
20
0.643287685519368
30
0
41
1
10
447.682546989575
20
0.69420811417595
30
0
41
1
10
447.686976564324
20
0.795957367613539
30
0
41
1
10
447.694294417818
20
0.94843963219364
30
0
41
1
10
447.728486671188
20
1.50599364976725
30
0
41
1
10
447.781591899428
20
2.00823048891942
30
0
41
1
10
447.948952865218
20
3.20520732746175
30
0
41
1
10
448.113751537206
20
3.99200028674864
30
0
41
1
10
448.325
20
4.76902621085046
30
0
0
SPLINE
5
1AE
100
AcDbEntity
8
1
62
256
6
ByLayer
370
18
48
1
60
0
100
AcDbSpline
70
4
71
3
72
8
73
4
40
0
40
0
40
0
40
0
40
1
40
1
40
1
40
1
41
1
10
448.325
20
5.51780972776157
30
0
41
1
10
448.099787204788
20
5.28619501268113
30
0
41
1
10
447.876893364714
20
5.05165093535405
30
0
41
1
10
447.65725
20
4.81300077608975
30
0
0
SPLINE
5
1AF
100
AcDbEntity
8
1
62
256
6
ByLayer
370
18
48
1
60
0
100
AcDbSpline
70
4
71
3
72
44
73
40
40
0
40
0
40
0
40
0
40
0.0312499999999937
40
0.0312499999999937
40
0.0468749999999902
40
0.0468749999999902
40
0.0624999999999867
40
0.0624999999999867
40
0.0781249999999833
40
0.0781249999999833
40
0.0937499999999798
40
0.0937499999999798
40
0.109374999999976
40
0.109374999999976
40
0.124999999999973
40
0.124999999999973
40
0.156249999999972
40
0.156249999999972
40
0.18749999999997
40
0.18749999999997
40
0.218749999999969
40
0.218749999999969
40
0.249999999999968
40
0.249999999999968
40
0.312499999999971
40
0.312499999999971
40
0.374999999999975
40
0.374999999999975
40
0.437499999999978
40
0.437499999999978
40
0.499999999999981
40
0.499999999999981
40
0.624999999999986
40
0.624999999999986
40
0.749999999999991
40
0.749999999999991
40
0.874999999999995
40
0.874999999999995
40
1
40
1
40
1
40
1
41
1
10
447.65725
20
4.81300077608972
30
0
41
1
10
447.651504019412
20
4.80675756822345
30
0
41
1
10
447.645562032547
20
4.80102052581896
30
0
41
1
10
447.636173868919
20
4.79363563790565
30
0
41
1
10
447.632934582796
20
4.79136619065392
30
0
41
1
10
447.626456423823
20
4.78751267870703
30
0
41
1
10
447.623206249598
20
4.78591444928401
30
0
41
1
10
447.616679007415
20
4.78351267102261
30
0
41
1
10
447.613410600665
20
4.78272604355374
30
0
41
1
10
447.607155609752
20
4.78211145607787
30
0
41
1
10
447.604130939752
20
4.7822669038778
30
0
41
1
10
447.598292350859
20
4.78352298597204
30
0
41
1
10
447.595566601946
20
4.78460575052543
30
0
41
1
10
447.590489278569
20
4.78752476103259
30
0
41
1
10
447.588112971955
20
4.78938265582963
30
0
41
1
10
447.581613884674
20
4.79575666611763
30
0
41
1
10
447.578062659975
20
4.80104449451431
30
0
41
1
10
447.571955848628
20
4.8129321558846
30
0
41
1
10
447.569468043213
20
4.81942538209015
30
0
41
1
10
447.565268240537
20
4.83298706326832
30
0
41
1
10
447.563550857928
20
4.84008594862726
30
0
41
1
10
447.560668544574
20
4.85473794324955
30
0
41
1
10
447.559504808488
20
4.86231333341732
30
0
41
1
10
447.556697322695
20
4.88525298841426
30
0
41
1
10
447.555698921823
20
4.90092232287631
30
0
41
1
10
447.554821291976
20
4.93272805589703
30
0
41
1
10
447.554953926447
20
4.94886985229994
30
0
41
1
10
447.556073942524
20
4.98150026908769
30
0
41
1
10
447.557064818986
20
4.99799047971706
30
0
41
1
10
447.559752365197
20
5.03125005406687
30
0
41
1
10
447.561454878509
20
5.04805085687201
30
0
41
1
10
447.567435104076
20
5.09841025140898
30
0
41
1
10
447.572578220577
20
5.1320302093236
30
0
41
1
10
447.58472571909
20
5.19933304682189
30
0
41
1
10
447.591737261913
20
5.23301648685967
30
0
41
1
10
447.607475405843
20
5.30044013411268
30
0
41
1
10
447.61620361901
20
5.33418044810065
30
0
41
1
10
447.635388443788
20
5.4017255362227
30
0
41
1
10
447.645843817015
20
5.4355301663301
30
0
41
1
10
447.657249999998
20
5.4693782794412
30
0
0
SPLINE
5
1B0
100
AcDbEntity
8
1
62
256
6
ByLayer
370
18
48
1
60
0
100
AcDbSpline
70
4
71
3
72
8
73
4
40
0
40
0
40
0
40
0
40
1
40
1
40
1
40
1
41
1
10
447.65725
20
5.4693782794414
30
0
41
1
10
447.856117493986
20
6.05952219002191
30
0
41
1
10
448.080255339592
20
6.63669025436278
30
0
41
1
10
448.325
20
7.20327711016392
30
0
0
SPLINE
5
1B1
100
AcDbEntity
8
1
62
256
6
ByLayer
370
18
48
1
60
0
100
AcDbSpline
70
4
71
3
72
8
73
4
40
0
40
0
40
0
40
0
40
1
40
1
40
1
40
1
41
1
10
447.80379947275
20
7.19921276901462
30
0
41
1
10
447.7549342535
20
7.15717581864632
30
0
41
1
10
447.706084164562
20
7.11511538452899
30
0
41
1
10
447.65725
20
7.07303023419743
30
0
0
SPLINE
5
1B2
100
AcDbEntity
8
1
62
256
6
ByLayer
370
18
48
1
60
0
100
AcDbSpline
70
4
71
3
72
16
73
12
40
0
40
0
40
0
40
0
40
0.125000000000004
40
0.125000000000004
40
0.250000000000008
40
0.250000000000008
40
0.500000000000006
40
0.500000000000006
40
0.750000000000003
40
0.750000000000003
40
1
40
1
40
1
40
1
41
1
10
447.575581557729
20
-7.04956167720059
30
0
41
1
10
447.577788864283
20
-7.04770013682526
30
0
41
1
10
447.580201347697
20
-7.04615211699053
30
0
41
1
10
447.585487407249
20
-7.04376336381404
30
0
41
1
10
447.588395235164
20
-7.04291957040587
30
0
41
1
10
447.597641280825
20
-7.0416437167282
30
0
41
1
10
447.604422860344
20
-7.04242852447203
30
0
41
1
10
447.61916877056
20
-7.04715090906916
30
0
41
1
10
447.626748455105
20
-7.0509570139524
30
0
41
1
10
447.642168070188
20
-7.06075084753985
30
0
41
1
10
447.649756918934
20
-7.06657271729674
30
0
41
1
10
447.65725
20
-7.07303023419948
30
0
0
SPLINE
5
1B3
100
AcDbEntity
8
1
62
256
6
ByLayer
370
18
48
1
60
0
100
AcDbSpline
70
4
71
3
72
20
73
16
40
0
40
0
40
0
40
0
40
0.125000000000008
40
0.125000000000008
40
0.250000000000016
40
0.250000000000016
40
0.500000000000026
40
0.500000000000026
40
0.62500000000002
40
0.62500000000002
40
0.750000000000013
40
0.750000000000013
40
0.875000000000007
40
0.875000000000007
40
1
40
1
40
1
40
1
41
1
10
447.65725
20
7.07303023419666
30
0
41
1
10
447.653503123974
20
7.06980118661832
30
0
41
1
10
447.649730570358
20
7.06673275441031
30
0
41
1
10
447.642124555343
20
7.06097576858323
30
0
41
1
10
447.638266964721
20
7.05827235095518
30
0
41
1
10
447.626793311327
20
7.05098689484822
30
0
41
1
10
447.619287945506
20
7.0472112647426
30
0
41
1
10
447.608312948675
20
7.04366362677305
30
0
41
1
10
447.604703178746
20
7.04284783169595
30
0
41
1
10
447.597883488655
20
7.04205613594326
30
0
41
1
10
447.59463556658
20
7.04206552388374
30
0
41
1
10
447.588467899626
20
7.0429026605448
30
0
41
1
10
447.585552526806
20
7.04373987183916
30
0
41
1
10
447.580237286306
20
7.04613005293299
30
0
41
1
10
447.57780711436
20
7.04768474555036
30
0
41
1
10
447.575581557729
20
7.04956167719732
30
0
0
SPLINE
5
1B4
100
AcDbEntity
8
1
62
256
6
ByLayer
370
13
48
1
60
0
100
AcDbSpline
70
4
71
3
72
26
73
22
40
0
40
0
40
0
40
0
40
0.125
40
0.125
40
0.187500000000001
40
0.187500000000001
40
0.250000000000001
40
0.250000000000001
40
0.375000000000001
40
0.375000000000001
40
0.500000000000001
40
0.500000000000001
40
0.625000000000001
40
0.625000000000001
40
0.75
40
0.75
40
0.875
40
0.875
40
0.9375
40
0.9375
40
1
40
1
40
1
40
1
41
1
10
445.5
20
-38.5320121951236
30
0
41
1
10
445.5
20
-38.6542634508812
30
0
41
1
10
445.492167463508
20
-38.7689746365692
30
0
41
1
10
445.472095585676
20
-38.9298318119352
30
0
41
1
10
445.463996918254
20
-38.9815813348795
30
0
41
1
10
445.445371596211
20
-39.0813441833175
30
0
41
1
10
445.434869742118
20
-39.1292222719942
30
0
41
1
10
445.400320933463
20
-39.2669275573605
30
0
41
1
10
445.373249546134
20
-39.3508399877027
30
0
41
1
10
445.3131222214
20
-39.5032701348081
30
0
41
1
10
445.280055843095
20
-39.5717867843744
30
0
41
1
10
445.209458265976
20
-39.6936467397812
30
0
41
1
10
445.171921382337
20
-39.746989520381
30
0
41
1
10
445.093593841874
20
-39.8385835033961
30
0
41
1
10
445.052799644428
20
-39.8768345145269
30
0
41
1
10
444.968989879582
20
-39.9381972119793
30
0
41
1
10
444.925971759453
20
-39.9613089611837
30
0
41
1
10
444.860484536773
20
-39.9844904107256
30
0
41
1
10
444.838494204388
20
-39.9903023252962
30
0
41
1
10
444.79431086058
20
-39.99806051521
30
0
41
1
10
444.772159482537
20
-40.0000000000016
30
0
41
1
10
444.75
20
-40.0000000000016
30
0
0
SPLINE
5
1B5
100
AcDbEntity
8
1
62
256
6
ByLayer
370
18
48
1
60
0
100
AcDbSpline
70
4
71
3
72
10
73
6
40
0
40
0
40
0
40
0
40
0.5
40
0.5
40
1
40
1
40
1
40
1
41
1
10
448.325
20
18.4585929893899
30
0
41
1
10
448.254077218736
20
18.0874393421946
30
0
41
1
10
448.160083064707
20
17.7259489143737
30
0
41
1
10
447.934818787514
20
17.0185807347
30
0
41
1
10
447.803545178726
20
16.6727044427673
30
0
41
1
10
447.657249999994
20
16.3331197888393
30
0
0
SPLINE
5
1B6
100
AcDbEntity
8
1
62
256
6
ByLayer
370
18
48
1
60
0
100
AcDbSpline
70
4
71
3
72
103
73
99
40
0
40
0
40
0
40
0
40
0.0039062500000028
40
0.0039062500000028
40
0.0058593750000042
40
0.0058593750000042
40
0.0078125000000056
40
0.0078125000000056
40
0.008789062500006
40
0.008789062500006
40
0.0097656250000063
40
0.0097656250000063
40
0.0107421875000067
40
0.0107421875000067
40
0.011718750000007
40
0.011718750000007
40
0.013671875000007
40
0.013671875000007
40
0.015625000000007
40
0.015625000000007
40
0.017578125000007
40
0.017578125000007
40
0.0195312500000069
40
0.0195312500000069
40
0.0234375000000069
40
0.0234375000000069
40
0.0273437500000069
40
0.0273437500000069
40
0.0312500000000068
40
0.0312500000000068
40
0.0390625000000064
40
0.0390625000000064
40
0.046875000000006
40
0.046875000000006
40
0.0625000000000065
40
0.0625000000000065
40
0.078125000000007
40
0.078125000000007
40
0.0937500000000075
40
0.0937500000000075
40
0.125000000000007
40
0.125000000000007
40
0.156250000000007
40
0.156250000000007
40
0.187500000000007
40
0.187500000000007
40
0.250000000000007
40
0.250000000000007
40
0.312500000000006
40
0.312500000000006
40
0.375000000000006
40
0.437500000000005
40
0.437500000000005
40
0.500000000000005
40
0.562500000000005
40
0.562500000000005
40
0.625000000000004
40
0.687500000000004
40
0.687500000000004
40
0.750000000000003
40
0.750000000000003
40
0.812500000000003
40
0.812500000000003
40
0.843750000000003
40
0.843750000000003
40
0.875000000000003
40
0.875000000000003
40
0.906250000000002
40
0.906250000000002
40
0.937500000000002
40
0.937500000000002
40
0.953125000000002
40
0.953125000000002
40
0.960937500000001
40
0.960937500000001
40
0.968750000000001
40
0.968750000000001
40
0.9765625
40
0.9765625
40
0.980468749999999
40
0.980468749999999
40
0.984374999999998
40
0.984374999999998
40
0.986328124999998
40
0.986328124999998
40
0.988281249999998
40
0.988281249999998
40
0.989257812499998
40
0.989257812499998
40
0.990234374999998
40
0.990234374999998
40
0.992187499999998
40
0.992187499999998
40
0.994140624999998
40
0.994140624999998
40
0.996093749999999
40
0.996093749999999
40
1
40
1
40
1
40
1
41
1
10
447.657249999995
20
16.3331197888394
30
0
41
1
10
447.653301423677
20
16.3239542378355
30
0
41
1
10
447.649062278602
20
16.3149998399252
30
0
41
1
10
447.641890292587
20
16.3023824627661
30
0
41
1
10
447.639344045072
20
16.2982876871026
30
0
41
1
10
447.633862944294
20
16.2906704770643
30
0
41
1
10
447.630905631629
20
16.2871104422318
30
0
41
1
10
447.626096575471
20
16.2827202993833
30
0
41
1
10
447.624438975238
20
16.2814237818065
30
0
41
1
10
447.620973923811
20
16.2792892659044
30
0
41
1
10
447.619165204414
20
16.2784618927673
30
0
41
1
10
447.615556785188
20
16.277494367525
30
0
41
1
10
447.61370867895
20
16.2773488210605
30
0
41
1
10
447.610180584916
20
16.2777857364239
30
0
41
1
10
447.60846829005
20
16.2783624395577
30
0
41
1
10
447.60363068392
20
16.2809647486456
30
0
41
1
10
447.600854969398
20
16.2837884527658
30
0
41
1
10
447.596024565015
20
16.290339266431
30
0
41
1
10
447.593965623419
20
16.2940542278271
30
0
41
1
10
447.590246483775
20
16.3019775369555
30
0
41
1
10
447.588612584204
20
16.3061521710453
30
0
41
1
10
447.585658623901
20
16.3146641163262
30
0
41
1
10
447.584332664393
20
16.3190233585173
30
0
41
1
10
447.580665021383
20
16.3323140567858
30
0
41
1
10
447.578627539057
20
16.3414543933442
30
0
41
1
10
447.575020258094
20
16.3600592765806
30
0
41
1
10
447.573458990612
20
16.3695258214688
30
0
41
1
10
447.570681498253
20
16.3885053145548
30
0
41
1
10
447.569461933954
20
16.3980474248409
30
0
41
1
10
447.566164724209
20
16.4267872215075
30
0
41
1
10
447.564441871258
20
16.4460963751813
30
0
41
1
10
447.561565262987
20
16.4848993521633
30
0
41
1
10
447.560418250916
20
16.5043951900501
30
0
41
1
10
447.557575244483
20
16.563083417458
30
0
41
1
10
447.556465663615
20
16.602473052581
30
0
41
1
10
447.555135765611
20
16.6815771273833
30
0
41
1
10
447.5549295177
20
16.7212583231023
30
0
41
1
10
447.555109823879
20
16.8006259198078
30
0
41
1
10
447.555499793026
20
16.8403457294032
30
0
41
1
10
447.557293455112
20
16.9595919780091
30
0
41
1
10
447.559308234818
20
17.0392042586671
30
0
41
1
10
447.564196181932
20
17.1985984506373
30
0
41
1
10
447.56708109708
20
17.2783812662443
30
0
41
1
10
447.573316966476
20
17.4380864886331
30
0
41
1
10
447.576671708505
20
17.5180091875515
30
0
41
1
10
447.587049936215
20
17.7579573823323
30
0
41
1
10
447.594374358784
20
17.9182360785502
30
0
41
1
10
447.608485845607
20
18.2387123301417
30
0
41
1
10
447.615286090069
20
18.3989234241585
30
0
41
1
10
447.627532712957
20
18.7192985521061
30
0
41
1
10
447.638431938168
20
19.0396265628974
30
0
41
1
10
447.645462457192
20
19.3598699455478
30
0
41
1
10
447.650191912683
20
19.6800739979369
30
0
41
1
10
447.652618523692
20
20.0002387320264
30
0
41
1
10
447.650187524562
20
20.3203269223292
30
0
41
1
10
447.645457290144
20
20.6403758493437
30
0
41
1
10
447.638429381582
20
20.9603855006108
30
0
41
1
10
447.62754588067
20
21.2803107722919
30
0
41
1
10
447.615321771864
20
21.6001891502439
30
0
41
1
10
447.608536385057
20
21.760104919938
30
0
41
1
10
447.594458716991
20
22.0798827704295
30
0
41
1
10
447.587153622499
20
22.2397449609451
30
0
41
1
10
447.576777768777
20
22.4794899901431
30
0
41
1
10
447.573420214871
20
22.5593969217915
30
0
41
1
10
447.56717100212
20
22.7191924148699
30
0
41
1
10
447.564275469638
20
22.7990810088291
30
0
41
1
10
447.559360408876
20
22.9588363731554
30
0
41
1
10
447.557331970261
20
23.0386675244841
30
0
41
1
10
447.554915618715
20
23.197688920566
30
0
41
1
10
447.554474000375
20
23.2769449256325
30
0
41
1
10
447.556408527631
20
23.3951416853342
30
0
41
1
10
447.557490962645
20
23.4344250564933
30
0
41
1
10
447.56027893944
20
23.4930695492694
30
0
41
1
10
447.561405199969
20
23.5125703442797
30
0
41
1
10
447.56423493603
20
23.5514384747206
30
0
41
1
10
447.565931575081
20
23.570807254325
30
0
41
1
10
447.5702707399
20
23.609333483704
30
0
41
1
10
447.572876911364
20
23.6284986132865
30
0
41
1
10
447.578280301633
20
23.6569220490982
30
0
41
1
10
447.580322520626
20
23.6662675322809
30
0
41
1
10
447.585238144679
20
23.6844129311118
30
0
41
1
10
447.588077516882
20
23.6932127309473
30
0
41
1
10
447.59358496363
20
23.7052161685018
30
0
41
1
10
447.595658717637
20
23.7090581612405
30
0
41
1
10
447.600477568669
20
23.7157909426866
30
0
41
1
10
447.603260702252
20
23.7187147664835
30
0
41
1
10
447.608034973336
20
23.7214541328535
30
0
41
1
10
447.609764356208
20
23.7221008805338
30
0
41
1
10
447.613312362299
20
23.7226512478316
30
0
41
1
10
447.615150048834
20
23.7225628925144
30
0
41
1
10
447.620665102832
20
23.7212252532127
30
0
41
1
10
447.624234052256
20
23.7189366016325
30
0
41
1
10
447.630712654505
20
23.7131061781799
30
0
41
1
10
447.633714095519
20
23.7095172477666
30
0
41
1
10
447.639223963314
20
23.7018974155214
30
0
41
1
10
447.641766744744
20
23.6978234406928
30
0
41
1
10
447.64900699551
20
23.6851196132771
30
0
41
1
10
447.653288339034
20
23.6760761346177
30
0
41
1
10
447.65725
20
23.666880211143
30
0
0
SPLINE
5
1B7
100
AcDbEntity
8
1
62
256
6
ByLayer
370
18
48
1
60
0
100
AcDbSpline
70
4
71
3
72
10
73
6
40
0
40
0
40
0
40
0
40
0.5
40
0.5
40
1
40
1
40
1
40
1
41
1
10
447.65725
20
23.6668802111429
30
0
41
1
10
447.803545178731
20
23.3272955572172
30
0
41
1
10
447.934818787517
20
22.9814192652868
30
0
41
1
10
448.160083064708
20
22.2740510856179
30
0
41
1
10
448.254077218737
20
21.9125606577995
30
0
41
1
10
448.325
20
21.5414070106068
30
0
0
SPLINE
5
1B8
100
AcDbEntity
8
1
62
256
6
ByLayer
370
18
48
1
60
0
100
AcDbSpline
70
4
71
3
72
8
73
4
40
0
40
0
40
0
40
0
40
1
40
1
40
1
40
1
41
1
10
448.325
20
24.0532515062531
30
0
41
1
10
448.165581223845
20
25.22205876926
30
0
41
1
10
447.940369761457
20
26.3739255107617
30
0
41
1
10
447.65725
20
27.5108818292073
30
0
0
SPLINE
5
1B9
100
AcDbEntity
8
1
62
256
6
ByLayer
370
18
48
1
60
0
100
AcDbSpline
70
4
71
3
72
38
73
34
40
0
40
0
40
0
40
0
40
0.250000000000003
40
0.250000000000003
40
0.375000000000004
40
0.375000000000004
40
0.500000000000005
40
0.500000000000005
40
0.625000000000005
40
0.625000000000005
40
0.687500000000001
40
0.687500000000001
40
0.749999999999996
40
0.749999999999996
40
0.812499999999992
40
0.812499999999992
40
0.843749999999994
40
0.843749999999994
40
0.874999999999996
40
0.874999999999996
40
0.890624999999997
40
0.890624999999997
40
0.906249999999998
40
0.906249999999998
40
0.921874999999999
40
0.921874999999999
40
0.9375
40
0.9375
40
0.953125000000001
40
0.953125000000001
40
0.968750000000002
40
0.968750000000002
40
1
40
1
40
1
40
1
41
1
10
447.65725
20
27.5108818292072
30
0
41
1
10
447.63716054397
20
27.5915573491718
30
0
41
1
10
447.619450956248
20
27.672141031771
30
0
41
1
10
447.596561035942
20
27.7928680077293
30
0
41
1
10
447.589551068575
20
27.8331181043118
30
0
41
1
10
447.57702566488
20
27.9134280274965
30
0
41
1
10
447.571531729368
20
27.9533145620412
30
0
41
1
10
447.562511855498
20
28.0324242113655
30
0
41
1
10
447.558965882088
20
28.071653190885
30
0
41
1
10
447.555852527797
20
28.1297850500835
30
0
41
1
10
447.555186994494
20
28.1490423724772
30
0
41
1
10
447.554879827929
20
28.1872352288618
30
0
41
1
10
447.555228028269
20
28.2061737359703
30
0
41
1
10
447.557508733814
20
28.2435648887797
30
0
41
1
10
447.559446424528
20
28.262168542374
30
0
41
1
10
447.564397741791
20
28.2882186991995
30
0
41
1
10
447.566393256596
20
28.2966210940728
30
0
41
1
10
447.571427719528
20
28.3125823953407
30
0
41
1
10
447.574462350045
20
28.3201862189142
30
0
41
1
10
447.580359838197
20
28.3303812819866
30
0
41
1
10
447.582518143518
20
28.3335070255015
30
0
41
1
10
447.587336978513
20
28.3390490514103
30
0
41
1
10
447.590030958628
20
28.3414861799528
30
0
41
1
10
447.595913788946
20
28.3452619074821
30
0
41
1
10
447.599092314855
20
28.3466090579648
30
0
41
1
10
447.606024814214
20
28.3479936140624
30
0
41
1
10
447.60966234777
20
28.3479959168815
30
0
41
1
10
447.617139507211
20
28.3466707159455
30
0
41
1
10
447.62103524075
20
28.3453168047241
30
0
41
1
10
447.628645050975
20
28.3415903478715
30
0
41
1
10
447.63240740058
20
28.3392196334819
30
0
41
1
10
447.64359324305
20
28.3309037559723
30
0
41
1
10
447.650578102513
20
28.3240551738909
30
0
41
1
10
447.65725
20
28.3165319633735
30
0
0
SPLINE
5
1BA
100
AcDbEntity
8
1
62
256
6
ByLayer
370
18
48
1
60
0
100
AcDbSpline
70
4
71
3
72
8
73
4
40
0
40
0
40
0
40
0
40
1
40
1
40
1
40
1
41
1
10
447.657249999996
20
28.3165319633669
30
0
41
1
10
447.882439703317
20
28.062608765693
30
0
41
1
10
448.105220267216
20
27.8059028330097
30
0
41
1
10
448.325
20
27.5457307174555
30
0
0
SPLINE
5
1BB
100
AcDbEntity
8
1
62
256
6
ByLayer
370
18
48
1
60
0
100
AcDbSpline
70
4
71
3
72
8
73
4
40
0
40
0
40
0
40
0
40
1
40
1
40
1
40
1
41
1
10
448.325
20
28.3586321419778
30
0
41
1
10
448.122833855469
20
29.0564398856445
30
0
41
1
10
447.899443492048
20
29.7451058155132
30
0
41
1
10
447.65725
20
30.4256727570707
30
0
0
SPLINE
5
1BC
100
AcDbEntity
8
1
62
256
6
ByLayer
370
18
48
1
60
0
100
AcDbSpline
70
4
71
3
72
39
73
35
40
0
40
0
40
0
40
0
40
0.124999999999983
40
0.249999999999966
40
0.249999999999966
40
0.374999999999949
40
0.374999999999949
40
0.499999999999932
40
0.499999999999932
40
0.624999999999916
40
0.624999999999916
40
0.687499999999916
40
0.687499999999916
40
0.71874999999992
40
0.71874999999992
40
0.749999999999925
40
0.749999999999925
40
0.781249999999929
40
0.781249999999929
40
0.812499999999933
40
0.812499999999933
40
0.843749999999937
40
0.843749999999937
40
0.874999999999941
40
0.874999999999941
40
0.906249999999946
40
0.906249999999946
40
0.921874999999953
40
0.921874999999953
40
0.937499999999961
40
0.937499999999961
40
0.96874999999998
40
0.96874999999998
40
1
40
1
40
1
40
1
41
1
10
447.65725
20
30.4256727570707
30
0
41
1
10
447.646580757253
20
30.4556534714304
30
0
41
1
10
447.626666964634
20
30.5154524870283
30
0
41
1
10
447.609474495294
20
30.5749319116973
30
0
41
1
10
447.593723142902
20
30.6342413573186
30
0
41
1
10
447.586565111271
20
30.6638113724741
30
0
41
1
10
447.573950192746
20
30.7227548066851
30
0
41
1
10
447.568478888485
20
30.7521542599799
30
0
41
1
10
447.559868126885
20
30.8105946104149
30
0
41
1
10
447.556764204021
20
30.8392257050371
30
0
41
1
10
447.554929433022
20
30.880820455852
30
0
41
1
10
447.55479395776
20
30.8944573349888
30
0
41
1
10
447.555616302648
20
30.914427614843
30
0
41
1
10
447.55606606811
20
30.9210179727058
30
0
41
1
10
447.557381723674
20
30.933816332341
30
0
41
1
10
447.558246925812
20
30.9400427332863
30
0
41
1
10
447.560494611393
20
30.9520666294963
30
0
41
1
10
447.561875643601
20
30.9578653069919
30
0
41
1
10
447.565318935334
20
30.9689003930926
30
0
41
1
10
447.567398569345
20
30.9741766482552
30
0
41
1
10
447.572430566598
20
30.9837365091126
30
0
41
1
10
447.575359520263
20
30.9879983330613
30
0
41
1
10
447.582352105876
20
30.995103697521
30
0
41
1
10
447.586358027436
20
30.9978576113891
30
0
41
1
10
447.595394612178
20
31.0012627949592
30
0
41
1
10
447.600550748122
20
31.0019022096197
30
0
41
1
10
447.608635032293
20
31.0010852451287
30
0
41
1
10
447.611401776354
20
31.0005305785556
30
0
41
1
10
447.617073916069
20
30.9988780653429
30
0
41
1
10
447.619995357271
20
30.997769819083
30
0
41
1
10
447.628690733007
20
30.9937944544226
30
0
41
1
10
447.634474936355
20
30.9902721402708
30
0
41
1
10
447.646023948476
20
30.9819041255773
30
0
41
1
10
447.651713152806
20
30.9771061699163
30
0
41
1
10
447.65725
20
30.9719368077128
30
0
0
SPLINE
5
1BD
100
AcDbEntity
8
1
62
256
6
ByLayer
370
18
48
1
60
0
100
AcDbSpline
70
4
71
3
72
8
73
4
40
0
40
0
40
0
40
0
40
1
40
1
40
1
40
1
41
1
10
447.65725
20
30.9719368077111
30
0
41
1
10
447.880459452193
20
30.7635419459535
30
0
41
1
10
448.103076961139
20
30.5543076667796
30
0
41
1
10
448.325
20
30.3440885798782
30
0
0
SPLINE
5
1BE
100
AcDbEntity
8
1
62
256
6
ByLayer
370
18
48
1
60
0
100
AcDbSpline
70
4
71
3
72
8
73
4
40
0
40
0
40
0
40
0
40
1
40
1
40
1
40
1
41
1
10
448.325
20
30.8997529695343
30
0
41
1
10
448.11364948325
20
31.4423948710278
30
0
41
1
10
447.890641792267
20
31.9785874716303
30
0
41
1
10
447.65725
20
32.5090350955916
30
0
0
SPLINE
5
1BF
100
AcDbEntity
8
1
62
256
6
ByLayer
370
18
48
1
60
0
100
AcDbSpline
70
4
71
3
72
39
73
35
40
0
40
0
40
0
40
0
40
0.125000000000012
40
0.250000000000024
40
0.250000000000024
40
0.375000000000037
40
0.375000000000037
40
0.437500000000041
40
0.437500000000041
40
0.500000000000045
40
0.500000000000045
40
0.625000000000058
40
0.625000000000058
40
0.687500000000053
40
0.687500000000053
40
0.718750000000048
40
0.718750000000048
40
0.750000000000042
40
0.750000000000042
40
0.781250000000037
40
0.781250000000037
40
0.812500000000032
40
0.812500000000032
40
0.843750000000026
40
0.843750000000026
40
0.875000000000021
40
0.875000000000021
40
0.906250000000016
40
0.906250000000016
40
0.937500000000011
40
0.937500000000011
40
0.968750000000005
40
0.968750000000005
40
1
40
1
40
1
40
1
41
1
10
447.65725
20
32.5090350955916
30
0
41
1
10
447.646225164343
20
32.5340920944774
30
0
41
1
10
447.62566280359
20
32.5839966544914
30
0
41
1
10
447.607968252586
20
32.6334872058807
30
0
41
1
10
447.591816858937
20
32.6827532154645
30
0
41
1
10
447.584508407246
20
32.7072745173265
30
0
41
1
10
447.574949499611
20
32.7438541457829
30
0
41
1
10
447.571999129151
20
32.7560133838966
30
0
41
1
10
447.566652232336
20
32.7802530319987
30
0
41
1
10
447.564261614681
20
32.7923165856269
30
0
41
1
10
447.558188988546
20
32.8278077286573
30
0
41
1
10
447.555502694857
20
32.8507348092161
30
0
41
1
10
447.554840261364
20
32.8833405981018
30
0
41
1
10
447.555202488621
20
32.8939611874149
30
0
41
1
10
447.556973345991
20
32.9088301673444
30
0
41
1
10
447.557768449191
20
32.9136195907067
30
0
41
1
10
447.559861553343
20
32.9227900961046
30
0
41
1
10
447.561164570343
20
32.9271744902948
30
0
41
1
10
447.564334883021
20
32.9352565259827
30
0
41
1
10
447.566205229861
20
32.9389775709386
30
0
41
1
10
447.570649829865
20
32.9456323698418
30
0
41
1
10
447.573254028099
20
32.9485904737503
30
0
41
1
10
447.579220243512
20
32.9533632895355
30
0
41
1
10
447.582554449094
20
32.9551710720563
30
0
41
1
10
447.590023947377
20
32.9574699819818
30
0
41
1
10
447.594177796039
20
32.9579372222951
30
0
41
1
10
447.602907259085
20
32.9574332577464
30
0
41
1
10
447.607543497602
20
32.9564786691516
30
0
41
1
10
447.617256085205
20
32.953234012844
30
0
41
1
10
447.622195531083
20
32.950995872115
30
0
41
1
10
447.632212550562
20
32.9454995925685
30
0
41
1
10
447.63731316436
20
32.9422185261588
30
0
41
1
10
447.647347757395
20
32.9349952927329
30
0
41
1
10
447.652317900228
20
32.9310362092872
30
0
41
1
10
447.65725
20
32.9267973886506
30
0
0
SPLINE
5
1C0
100
AcDbEntity
8
1
62
256
6
ByLayer
370
18
48
1
60
0
100
AcDbSpline
70
4
71
3
72
8
73
4
40
0
40
0
40
0
40
0
40
1
40
1
40
1
40
1
41
1
10
447.65725
20
32.9267973886488
30
0
41
1
10
447.880013178354
20
32.7353468501409
30
0
41
1
10
448.102604575939
20
32.543630411667
30
0
41
1
10
448.325
20
32.3516106251931
30
0
0
SPLINE
5
1C1
100
AcDbEntity
8
1
62
256
6
ByLayer
370
18
48
1
60
0
100
AcDbSpline
70
4
71
3
72
8
73
4
40
0
40
0
40
0
40
0
40
1
40
1
40
1
40
1
41
1
10
448.325
20
32.7766387719479
30
0
41
1
10
448.109664772761
20
33.2336986822655
30
0
41
1
10
447.886818670973
20
33.6858303643854
30
0
41
1
10
447.65725
20
34.1335510614975
30
0
0
SPLINE
5
1C2
100
AcDbEntity
8
1
62
256
6
ByLayer
370
18
48
1
60
0
100
AcDbSpline
70
4
71
3
72
34
73
30
40
0
40
0
40
0
40
0
40
0.125000000000009
40
0.125000000000009
40
0.250000000000017
40
0.250000000000017
40
0.375000000000026
40
0.375000000000026
40
0.500000000000034
40
0.500000000000034
40
0.562500000000036
40
0.562500000000036
40
0.625000000000037
40
0.625000000000037
40
0.687500000000039
40
0.687500000000039
40
0.718750000000034
40
0.718750000000034
40
0.750000000000029
40
0.750000000000029
40
0.812500000000026
40
0.812500000000026
40
0.875000000000022
40
0.875000000000022
40
0.906250000000019
40
0.906250000000019
40
0.937500000000016
40
0.937500000000016
40
1
40
1
40
1
40
1
41
1
10
447.65725
20
34.1335510614975
30
0
41
1
10
447.645947569855
20
34.1555938423456
30
0
41
1
10
447.635390176449
20
34.177524206641
30
0
41
1
10
447.615742019619
20
34.2211582295497
30
0
41
1
10
447.60665006824
20
34.2428620850208
30
0
41
1
10
447.590085510798
20
34.2860169256376
30
0
41
1
10
447.582606227346
20
34.3074688857768
30
0
41
1
10
447.569694945613
20
34.3500545638425
30
0
41
1
10
447.564359427979
20
34.3708411368204
30
0
41
1
10
447.55870490209
20
34.4009045021142
30
0
41
1
10
447.557224027691
20
34.4107172130496
30
0
41
1
10
447.555295929659
20
34.4295732544319
30
0
41
1
10
447.554838459604
20
34.438651686137
30
0
41
1
10
447.555262619244
20
34.4558895857248
30
0
41
1
10
447.556158911307
20
34.4640906829786
30
0
41
1
10
447.558858420318
20
34.4750092570394
30
0
41
1
10
447.559984533795
20
34.4784317834445
30
0
41
1
10
447.562777789928
20
34.4847593715451
30
0
41
1
10
447.564455662166
20
34.4876686534026
30
0
41
1
10
447.570292459914
20
34.495227962219
30
0
41
1
10
447.575288908285
20
34.4988325026123
30
0
41
1
10
447.5880517706
20
34.5022237571312
30
0
41
1
10
447.595399596579
20
34.5018954890115
30
0
41
1
10
447.607827631657
20
34.498471129043
30
0
41
1
10
447.612142497256
20
34.4968503871705
30
0
41
1
10
447.620909687214
20
34.4928277405413
30
0
41
1
10
447.62538989515
20
34.4904177404306
30
0
41
1
10
447.639082848681
20
34.4821267221176
30
0
41
1
10
447.64817805849
20
34.4754318597342
30
0
41
1
10
447.65725
20
34.4679225924794
30
0
0
SPLINE
5
1C3
100
AcDbEntity
8
1
62
256
6
ByLayer
370
18
48
1
60
0
100
AcDbSpline
70
4
71
3
72
8
73
4
40
0
40
0
40
0
40
0
40
1
40
1
40
1
40
1
41
1
10
447.65725
20
34.4679225924785
30
0
41
1
10
447.879873851596
20
34.2836464926948
30
0
41
1
10
448.10245879482
20
34.0993076990639
30
0
41
1
10
448.325
20
33.9148985452429
30
0
0
SPLINE
5
1C4
100
AcDbEntity
8
1
62
256
6
ByLayer
370
18
48
1
60
0
100
AcDbSpline
70
4
71
3
72
8
73
4
40
0
40
0
40
0
40
0
40
1
40
1
40
1
40
1
41
1
10
448.325
20
34.254135604126
30
0
41
1
10
448.107474410812
20
34.6547707183893
30
0
41
1
10
447.884714477839
20
35.0514914448458
30
0
41
1
10
447.65725
20
35.4446939818559
30
0
0
SPLINE
5
1C5
100
AcDbEntity
8
1
62
256
6
ByLayer
370
18
48
1
60
0
100
AcDbSpline
70
4
71
3
72
38
73
34
40
0
40
0
40
0
40
0
40
0.125000000000012
40
0.125000000000012
40
0.250000000000023
40
0.250000000000023
40
0.312500000000029
40
0.312500000000029
40
0.375000000000035
40
0.375000000000035
40
0.437500000000041
40
0.437500000000041
40
0.500000000000047
40
0.500000000000047
40
0.562500000000053
40
0.562500000000053
40
0.625000000000059
40
0.625000000000059
40
0.687500000000064
40
0.687500000000064
40
0.718750000000064
40
0.718750000000064
40
0.750000000000063
40
0.750000000000063
40
0.812500000000046
40
0.812500000000046
40
0.875000000000028
40
0.875000000000028
40
0.906250000000017
40
0.906250000000017
40
0.937500000000007
40
0.937500000000007
40
1
40
1
40
1
40
1
41
1
10
447.65725
20
35.4446939818559
30
0
41
1
10
447.645729252828
20
35.4646091222749
30
0
41
1
10
447.6349441526
20
35.4843931058624
30
0
41
1
10
447.61485300466
20
35.5236915973056
30
0
41
1
10
447.605544881582
20
35.5432064967498
30
0
41
1
10
447.592841568741
20
35.5722469414052
30
0
41
1
10
447.588818547236
20
35.5818881626826
30
0
41
1
10
447.581249401669
20
35.6010827081521
30
0
41
1
10
447.577714050631
20
35.6106127680019
30
0
41
1
10
447.571284863397
20
35.6293031574144
30
0
41
1
10
447.568378653118
20
35.6384929493807
30
0
41
1
10
447.563283976012
20
35.6565116752616
30
0
41
1
10
447.561087923277
20
35.6653728259455
30
0
41
1
10
447.557609873028
20
35.6825080141116
30
0
41
1
10
447.556338551274
20
35.6907145969882
30
0
41
1
10
447.554922968103
20
35.7062608793269
30
0
41
1
10
447.554774658789
20
35.713603635599
30
0
41
1
10
447.555949855096
20
35.7271617803762
30
0
41
1
10
447.557306821874
20
35.7334360179703
30
0
41
1
10
447.560756288818
20
35.7412410707156
30
0
41
1
10
447.56214022622
20
35.7435888070653
30
0
41
1
10
447.565441932077
20
35.7477064700683
30
0
41
1
10
447.567378919058
20
35.7494845025546
30
0
41
1
10
447.573920712582
20
35.753692454751
30
0
41
1
10
447.57926021677
20
35.75506056345
30
0
41
1
10
447.592119843747
20
35.754606469626
30
0
41
1
10
447.599334569386
20
35.7527819659476
30
0
41
1
10
447.611057643272
20
35.7479670519963
30
0
41
1
10
447.615118993722
20
35.7460099259309
30
0
41
1
10
447.623294279305
20
35.7415799100333
30
0
41
1
10
447.627438854406
20
35.7390951994897
30
0
41
1
10
447.640022299474
20
35.7309333792188
30
0
41
1
10
447.648662924757
20
35.7245055162584
30
0
41
1
10
447.65725
20
35.7174895437129
30
0
0
SPLINE
5
1C6
100
AcDbEntity
8
1
62
256
6
ByLayer
370
18
48
1
60
0
100
AcDbSpline
70
4
71
3
72
8
73
4
40
0
40
0
40
0
40
0
40
1
40
1
40
1
40
1
41
1
10
447.65725
20
35.7174895437129
30
0
41
1
10
447.879835104504
20
35.5356289057241
30
0
41
1
10
448.102418501529
20
35.3537654812463
30
0
41
1
10
448.325
20
35.1718989586809
30
0
0
SPLINE
5
1C7
100
AcDbEntity
8
1
62
256
6
ByLayer
370
18
48
1
60
0
100
AcDbSpline
70
4
71
3
72
8
73
4
40
0
40
0
40
0
40
0
40
1
40
1
40
1
40
1
41
1
10
448.325
20
35.4472737184522
30
0
41
1
10
448.106110862472
20
35.8070097520384
30
0
41
1
10
447.883402868273
20
36.1635681246846
30
0
41
1
10
447.65725
20
36.5172600263601
30
0
0
SPLINE
5
1C8
100
AcDbEntity
8
1
62
256
6
ByLayer
370
18
48
1
60
0
100
AcDbSpline
70
4
71
3
72
39
73
35
40
0
40
0
40
0
40
0
40
0.125000000000034
40
0.125000000000034
40
0.250000000000068
40
0.250000000000068
40
0.375000000000102
40
0.375000000000102
40
0.437500000000102
40
0.437500000000102
40
0.500000000000103
40
0.500000000000103
40
0.562500000000103
40
0.562500000000103
40
0.593750000000103
40
0.593750000000103
40
0.625000000000103
40
0.625000000000103
40
0.687500000000086
40
0.687500000000086
40
0.718750000000077
40
0.718750000000077
40
0.750000000000069
40
0.78125000000006
40
0.78125000000006
40
0.812500000000052
40
0.812500000000052
40
0.843750000000043
40
0.843750000000043
40
0.875000000000034
40
0.875000000000034
40
0.937500000000017
40
0.937500000000017
40
1
40
1
40
1
40
1
41
1
10
447.65725
20
36.5172600263601
30
0
41
1
10
447.645519386215
20
36.5356061261869
30
0
41
1
10
447.634521551363
20
36.5537784214983
30
0
41
1
10
447.614024223821
20
36.5897612937997
30
0
41
1
10
447.604521780148
20
36.6075726015423
30
0
41
1
10
447.587257567992
20
36.6427706443728
30
0
41
1
10
447.579448823553
20
36.6602823687222
30
0
41
1
10
447.569812155719
20
36.6852814028843
30
0
41
1
10
447.566934654513
20
36.6934255439757
30
0
41
1
10
447.561968416092
20
36.7092694132284
30
0
41
1
10
447.559870904248
20
36.7170117988949
30
0
41
1
10
447.556719179233
20
36.7316638736283
30
0
41
1
10
447.55565509052
20
36.7385864295509
30
0
41
1
10
447.555000694993
20
36.7482299330822
30
0
41
1
10
447.554940457173
20
36.7513203192808
30
0
41
1
10
447.555181959873
20
36.7572170347633
30
0
41
1
10
447.555487031506
20
36.7600307863673
30
0
41
1
10
447.5570001528
20
36.7678184648537
30
0
41
1
10
447.558794940162
20
36.7722016600449
30
0
41
1
10
447.562952677586
20
36.7772742758442
30
0
41
1
10
447.564589139932
20
36.7787057040748
30
0
41
1
10
447.568291601871
20
36.7809356659749
30
0
41
1
10
447.572442699817
20
36.7825611717265
30
0
41
1
10
447.577519317192
20
36.782942032338
30
0
41
1
10
447.583084020541
20
36.7826676901889
30
0
41
1
10
447.586091614629
20
36.7821985079433
30
0
41
1
10
447.592388092761
20
36.7806511214597
30
0
41
1
10
447.595697643422
20
36.7795724469595
30
0
41
1
10
447.602621795316
20
36.7768394676771
30
0
41
1
10
447.606262068668
20
36.775171044712
30
0
41
1
10
447.61739864662
20
36.7694541063572
30
0
41
1
10
447.625099764707
20
36.7647223175542
30
0
41
1
10
447.640942426848
20
36.7537999933531
30
0
41
1
10
447.649106107275
20
36.747581482278
30
0
41
1
10
447.65725
20
36.7409130865523
30
0
0
SPLINE
5
1C9
100
AcDbEntity
8
1
62
256
6
ByLayer
370
18
48
1
60
0
100
AcDbSpline
70
4
71
3
72
8
73
4
40
0
40
0
40
0
40
0
40
1
40
1
40
1
40
1
41
1
10
447.65725
20
36.7409130865523
30
0
41
1
10
447.879840463616
20
36.558651194564
30
0
41
1
10
448.102424037713
20
36.3763780833524
30
0
41
1
10
448.325
20
36.1940925803345
30
0
0
SPLINE
5
1CA
100
AcDbEntity
8
1
62
256
6
ByLayer
370
18
48
1
60
0
100
AcDbSpline
70
4
71
3
72
8
73
4
40
0
40
0
40
0
40
0
40
1
40
1
40
1
40
1
41
1
10
448.325
20
36.4181652094488
30
0
41
1
10
448.105193688956
20
36.7464520401291
30
0
41
1
10
447.882519487208
20
37.0721261063079
30
0
41
1
10
447.65725
20
37.395435762395
30
0
0
SPLINE
5
1CB
100
AcDbEntity
8
1
62
256
6
ByLayer
370
18
48
1
60
0
100
AcDbSpline
70
4
71
3
72
39
73
35
40
0
40
0
40
0
40
0
40
0.124999999999991
40
0.124999999999991
40
0.249999999999981
40
0.249999999999981
40
0.31249999999998
40
0.31249999999998
40
0.374999999999979
40
0.374999999999979
40
0.437499999999978
40
0.437499999999978
40
0.499999999999977
40
0.499999999999977
40
0.562499999999976
40
0.562499999999976
40
0.593749999999976
40
0.593749999999976
40
0.624999999999975
40
0.656249999999974
40
0.656249999999974
40
0.687499999999974
40
0.687499999999974
40
0.749999999999978
40
0.749999999999978
40
0.78124999999998
40
0.78124999999998
40
0.812499999999983
40
0.812499999999983
40
0.874999999999988
40
0.874999999999988
40
0.937499999999994
40
0.937499999999994
40
1
40
1
40
1
40
1
41
1
10
447.65725
20
37.395435762395
30
0
41
1
10
447.645324701891
20
37.4125511031288
30
0
41
1
10
447.634118740494
20
37.4294552571399
30
0
41
1
10
447.613209011872
20
37.4628156427129
30
0
41
1
10
447.603501112796
20
37.4792731330022
30
0
41
1
10
447.590286631662
20
37.5035535488261
30
0
41
1
10
447.586092554181
20
37.5116131784911
30
0
41
1
10
447.5783577017
20
37.5273171615478
30
0
41
1
10
447.57480576526
20
37.5349781858882
30
0
41
1
10
447.56841768522
20
37.5498668770484
30
0
41
1
10
447.565580397059
20
37.5570952276238
30
0
41
1
10
447.560764477946
20
37.5710325164204
30
0
41
1
10
447.558804524416
20
37.5776998844257
30
0
41
1
10
447.556019272251
20
37.5900627954504
30
0
41
1
10
447.555178204018
20
37.5957968346108
30
0
41
1
10
447.554948466163
20
37.6035628121318
30
0
41
1
10
447.55504774884
20
37.6060190500389
30
0
41
1
10
447.555629984416
20
37.6105215882278
30
0
41
1
10
447.55659262905
20
37.6146362625035
30
0
41
1
10
447.558374363258
20
37.6179169552547
30
0
41
1
10
447.560607203658
20
37.6207390298849
30
0
41
1
10
447.561960358768
20
37.6219230297101
30
0
41
1
10
447.566634579588
20
37.6246393517243
30
0
41
1
10
447.570581849336
20
37.6253836917227
30
0
41
1
10
447.577798497833
20
37.6248429403179
30
0
41
1
10
447.580440569971
20
37.6243776519349
30
0
41
1
10
447.586012659557
20
37.6229183955866
30
0
41
1
10
447.58895339239
20
37.6219268677555
30
0
41
1
10
447.598210098366
20
37.6182180089007
30
0
41
1
10
447.605040761242
20
37.6147145099879
30
0
41
1
10
447.61918299044
20
37.6062798321379
30
0
41
1
10
447.626524213264
20
37.6013513944219
30
0
41
1
10
447.641654445612
20
37.5903201751856
30
0
41
1
10
447.649445016527
20
37.5842089256631
30
0
41
1
10
447.65725
20
37.5777377493884
30
0
0
SPLINE
5
1CC
100
AcDbEntity
8
1
62
256
6
ByLayer
370
18
48
1
60
0
100
AcDbSpline
70
4
71
3
72
8
73
4
40
0
40
0
40
0
40
0
40
1
40
1
40
1
40
1
41
1
10
447.65725
20
37.5777377493884
30
0
41
1
10
447.87987051103
20
37.3931612446306
30
0
41
1
10
448.102455053618
20
37.2085268805228
30
0
41
1
10
448.325
20
37.0238289167997
30
0
0
SPLINE
5
1CD
100
AcDbEntity
8
1
62
256
6
ByLayer
370
18
48
1
60
0
100
AcDbSpline
70
4
71
3
72
8
73
4
40
0
40
0
40
0
40
0
40
1
40
1
40
1
40
1
41
1
10
448.325
20
37.2044771021014
30
0
41
1
10
448.104543176151
20
37.5075899137593
30
0
41
1
10
447.88189214863
20
37.808539417827
30
0
41
1
10
447.65725
20
38.1075258373095
30
0
0
SPLINE
5
1CE
100
AcDbEntity
8
1
62
256
6
ByLayer
370
18
48
1
60
0
100
AcDbSpline
70
4
71
3
72
41
73
37
40
0
40
0
40
0
40
0
40
0.125000000000032
40
0.125000000000032
40
0.250000000000065
40
0.250000000000065
40
0.312500000000067
40
0.312500000000067
40
0.375000000000068
40
0.375000000000068
40
0.43750000000007
40
0.43750000000007
40
0.500000000000072
40
0.500000000000072
40
0.53125000000007
40
0.53125000000007
40
0.562500000000068
40
0.562500000000068
40
0.625000000000055
40
0.625000000000055
40
0.656250000000048
40
0.656250000000048
40
0.687500000000042
40
0.718750000000035
40
0.718750000000035
40
0.750000000000028
40
0.750000000000028
40
0.812500000000022
40
0.812500000000022
40
0.843750000000014
40
0.843750000000014
40
0.875000000000006
40
0.875000000000006
40
0.937500000000003
40
0.937500000000003
40
1
40
1
40
1
40
1
41
1
10
447.65725
20
38.1075258373095
30
0
41
1
10
447.645133612854
20
38.1236520862441
30
0
41
1
10
447.633721354956
20
38.1395227357351
30
0
41
1
10
447.61239933665
20
38.1707110616782
30
0
41
1
10
447.602484034729
20
38.1860308189385
30
0
41
1
10
447.589000608029
20
38.208494052288
30
0
41
1
10
447.584764161257
20
38.2158585816857
30
0
41
1
10
447.576991896134
20
38.2300942064261
30
0
41
1
10
447.573436872586
20
38.2369962555001
30
0
41
1
10
447.567090720929
20
38.2503022726341
30
0
41
1
10
447.564285222121
20
38.2567425091322
30
0
41
1
10
447.559676075155
20
38.2688376663259
30
0
41
1
10
447.557880787462
20
38.2744596070188
30
0
41
1
10
447.55608161498
20
38.2821463882747
30
0
41
1
10
447.555631576596
20
38.2845836947052
30
0
41
1
10
447.555064878203
20
38.2891802464904
30
0
41
1
10
447.554949380238
20
38.2913489762617
30
0
41
1
10
447.555163437305
20
38.2972779330224
30
0
41
1
10
447.556039062514
20
38.3004892015322
30
0
41
1
10
447.558608393519
20
38.3040386442926
30
0
41
1
10
447.559685167868
20
38.3050136940443
30
0
41
1
10
447.562248039143
20
38.3064699500965
30
0
41
1
10
447.565209750923
20
38.3074386097824
30
0
41
1
10
447.568962971665
20
38.3074409983103
30
0
41
1
10
447.573116175665
20
38.3069558074696
30
0
41
1
10
447.575406894814
20
38.306464974173
30
0
41
1
10
447.582795550642
20
38.3042722195542
30
0
41
1
10
447.588325129078
20
38.3018896485211
30
0
41
1
10
447.597417129716
20
38.2971037349185
30
0
41
1
10
447.600599370303
20
38.2952937657272
30
0
41
1
10
447.607106219725
20
38.2913540555679
30
0
41
1
10
447.610434173347
20
38.2892241879288
30
0
41
1
10
447.620618706119
20
38.2824046773781
30
0
41
1
10
447.627674624594
20
38.2772880411616
30
0
41
1
10
447.642242551995
20
38.2660812759409
30
0
41
1
10
447.649723591615
20
38.2600112789886
30
0
41
1
10
447.65725
20
38.2536450551951
30
0
0
SPLINE
5
1CF
100
AcDbEntity
8
1
62
256
6
ByLayer
370
18
48
1
60
0
100
AcDbSpline
70
4
71
3
72
8
73
4
40
0
40
0
40
0
40
0
40
1
40
1
40
1
40
1
41
1
10
447.65725
20
38.2536450551951
30
0
41
1
10
447.879918034686
20
38.0653009648996
30
0
41
1
10
448.1025040081
20
37.8768276604178
30
0
41
1
10
448.325
20
37.6882126704901
30
0
0
SPLINE
5
1D0
100
AcDbEntity
8
1
62
256
6
ByLayer
370
18
48
1
60
0
100
AcDbSpline
70
4
71
3
72
8
73
4
40
0
40
0
40
0
40
0
40
1
40
1
40
1
40
1
41
1
10
448.325
20
37.8306454136888
30
0
41
1
10
448.104063620198
20
38.113019083865
30
0
41
1
10
447.881429112876
20
38.3935969271673
30
0
41
1
10
447.65725
20
38.6725412982286
30
0
0
SPLINE
5
1D1
100
AcDbEntity
8
1
62
256
6
ByLayer
370
18
48
1
60
0
100
AcDbSpline
70
4
71
3
72
32
73
28
40
0
40
0
40
0
40
0
40
0.124999999999975
40
0.124999999999975
40
0.187499999999977
40
0.187499999999977
40
0.249999999999979
40
0.249999999999979
40
0.374999999999984
40
0.374999999999984
40
0.437499999999986
40
0.437499999999986
40
0.499999999999987
40
0.499999999999987
40
0.562499999999989
40
0.562499999999989
40
0.62499999999999
40
0.62499999999999
40
0.687499999999992
40
0.687499999999992
40
0.749999999999994
40
0.749999999999994
40
0.812499999999995
40
0.812499999999995
40
0.874999999999997
40
0.874999999999997
40
1
40
1
40
1
40
1
41
1
10
447.65725
20
38.6725412982286
30
0
41
1
10
447.64494057418
20
38.6878578234813
30
0
41
1
10
447.633318873656
20
38.7028671310328
30
0
41
1
10
447.617011628257
20
38.7248721403029
30
0
41
1
10
447.611764913676
20
38.7321216506208
30
0
41
1
10
447.601689781501
20
38.7464304999091
30
0
41
1
10
447.596845051518
20
38.7535142415106
30
0
41
1
10
447.583145933226
20
38.7742692173085
30
0
41
1
10
447.575242776462
20
38.7872409577659
30
0
41
1
10
447.565799614548
20
38.8049975713251
30
0
41
1
10
447.563060350952
20
38.8106387643548
30
0
41
1
10
447.558712460972
20
38.8209046751612
30
0
41
1
10
447.55707817739
20
38.825572608146
30
0
41
1
10
447.555090762479
20
38.8338053543467
30
0
41
1
10
447.554755261167
20
38.8373636261805
30
0
41
1
10
447.555617055609
20
38.8428777977832
30
0
41
1
10
447.556803731201
20
38.8448870541018
30
0
41
1
10
447.560865190671
20
38.8471669635158
30
0
41
1
10
447.563668877089
20
38.8474044435786
30
0
41
1
10
447.570780971869
20
38.8461268671375
30
0
41
1
10
447.575153344153
20
38.8445732349172
30
0
41
1
10
447.584978642165
20
38.8399063272737
30
0
41
1
10
447.590446879234
20
38.8368052788273
30
0
41
1
10
447.602385796368
20
38.8292226370554
30
0
41
1
10
447.608690809114
20
38.8248466880591
30
0
41
1
10
447.628372566574
20
38.8103276564972
30
0
41
1
10
447.642665907693
20
38.7986708283649
30
0
41
1
10
447.65725
20
38.7860121158224
30
0
0
SPLINE
5
1D2
100
AcDbEntity
8
1
62
256
6
ByLayer
370
18
48
1
60
0
100
AcDbSpline
70
4
71
3
72
8
73
4
40
0
40
0
40
0
40
0
40
1
40
1
40
1
40
1
41
1
10
447.65725
20
38.7860121158224
30
0
41
1
10
447.87998075361
20
38.5926860914831
30
0
41
1
10
448.102568584439
20
38.3991409204054
30
0
41
1
10
448.325
20
38.2053559142498
30
0
0
SPLINE
5
1D3
100
AcDbEntity
8
1
62
256
6
ByLayer
370
18
48
1
60
0
100
AcDbSpline
70
4
71
3
72
8
73
4
40
0
40
0
40
0
40
0
40
1
40
1
40
1
40
1
41
1
10
448.325
20
38.3131045806187
30
0
41
1
10
448.103699542003
20
38.5780268881125
30
0
41
1
10
447.881077169411
20
38.8414602064867
30
0
41
1
10
447.65725
20
39.1035364558312
30
0
0
SPLINE
5
1D4
100
AcDbEntity
8
1
62
256
6
ByLayer
370
18
48
1
60
0
100
AcDbSpline
70
4
71
3
72
39
73
35
40
0
40
0
40
0
40
0
40
0.125000000000001
40
0.125000000000001
40
0.187500000000001
40
0.187500000000001
40
0.25
40
0.25
40
0.312499999999999
40
0.312499999999999
40
0.374999999999998
40
0.374999999999998
40
0.437499999999998
40
0.437499999999998
40
0.499999999999997
40
0.499999999999997
40
0.562499999999996
40
0.562499999999996
40
0.593749999999996
40
0.593749999999996
40
0.624999999999996
40
0.656249999999995
40
0.656249999999995
40
0.687499999999995
40
0.687499999999995
40
0.749999999999996
40
0.749999999999996
40
0.812499999999997
40
0.812499999999997
40
0.874999999999998
40
0.874999999999998
40
0.937499999999999
40
0.937499999999999
40
1
40
1
40
1
40
1
41
1
10
447.65725
20
39.1035364558312
30
0
41
1
10
447.644720301885
20
39.1182073123501
30
0
41
1
10
447.632831620295
20
39.1325470880645
30
0
41
1
10
447.616089807214
20
39.1534861827591
30
0
41
1
10
447.610673127516
20
39.1603955852265
30
0
41
1
10
447.600350782586
20
39.1738715592386
30
0
41
1
10
447.595467318582
20
39.1804078556142
30
0
41
1
10
447.586309842178
20
39.1930365817112
30
0
41
1
10
447.582035169825
20
39.1991294935478
30
0
41
1
10
447.57418926886
20
39.2108018981872
30
0
41
1
10
447.570602612509
20
39.2164099354911
30
0
41
1
10
447.564448553245
20
39.2267218792941
30
0
41
1
10
447.561857320965
20
39.2314574894813
30
0
41
1
10
447.557802629483
20
39.2399525505435
30
0
41
1
10
447.556337441899
20
39.2437366023558
30
0
41
1
10
447.554842247904
20
39.2498809876637
30
0
41
1
10
447.554789161882
20
39.2522748174123
30
0
41
1
10
447.555879548972
20
39.254723997163
30
0
41
1
10
447.556443906822
20
39.2553477788198
30
0
41
1
10
447.557950612297
20
39.2561677683262
30
0
41
1
10
447.559837032911
20
39.2565727869568
30
0
41
1
10
447.562474123868
20
39.2561581820748
30
0
41
1
10
447.565488600722
20
39.2553319492461
30
0
41
1
10
447.56719588308
20
39.25470774561
30
0
41
1
10
447.572808138481
20
39.2522449741254
30
0
41
1
10
447.577166551717
20
39.2498423561844
30
0
41
1
10
447.586979316917
20
39.2436893768493
30
0
41
1
10
447.592462904165
20
39.2399118777485
30
0
41
1
10
447.604001675492
20
39.2314436069555
30
0
41
1
10
447.610103027308
20
39.2267258026824
30
0
41
1
10
447.622880118554
20
39.2164563338441
30
0
41
1
10
447.629588591916
20
39.2108748441123
30
0
41
1
10
447.643220612098
20
39.1992199386364
30
0
41
1
10
447.650174656779
20
39.1931232278188
30
0
41
1
10
447.65725
20
39.1867908893229
30
0
0
SPLINE
5
1D5
100
AcDbEntity
8
1
62
256
6
ByLayer
370
18
48
1
60
0
100
AcDbSpline
70
4
71
3
72
8
73
4
40
0
40
0
40
0
40
0
40
1
40
1
40
1
40
1
41
1
10
447.65725
20
39.1867908893229
30
0
41
1
10
447.880058917021
20
38.9873798588599
30
0
41
1
10
448.102649044268
20
38.7876437561681
30
0
41
1
10
448.325
20
38.5875522985823
30
0
0
SPLINE
5
1D6
100
AcDbEntity
8
1
62
256
6
ByLayer
370
18
48
1
60
0
100
AcDbSpline
70
4
71
3
72
8
73
4
40
0
40
0
40
0
40
0
40
1
40
1
40
1
40
1
41
1
10
448.325
20
38.6630030512952
30
0
41
1
10
448.10341668238
20
38.9130085961617
30
0
41
1
10
447.880803440279
20
39.1617856723702
30
0
41
1
10
447.65725
20
39.4094413032548
30
0
0
SPLINE
5
1D7
100
AcDbEntity
8
1
62
256
6
ByLayer
370
18
48
1
60
0
100
AcDbSpline
70
4
71
3
72
38
73
34
40
0
40
0
40
0
40
0
40
0.124999999999994
40
0.124999999999994
40
0.18749999999999
40
0.18749999999999
40
0.249999999999987
40
0.249999999999987
40
0.312499999999984
40
0.312499999999984
40
0.374999999999981
40
0.374999999999981
40
0.437499999999978
40
0.437499999999978
40
0.468749999999978
40
0.468749999999978
40
0.499999999999978
40
0.499999999999978
40
0.56249999999998
40
0.56249999999998
40
0.624999999999983
40
0.624999999999983
40
0.687499999999986
40
0.687499999999986
40
0.749999999999989
40
0.749999999999989
40
0.812499999999992
40
0.812499999999992
40
0.874999999999994
40
0.874999999999994
40
0.937499999999997
40
0.937499999999997
40
1
40
1
40
1
40
1
41
1
10
447.65725
20
39.4094413032548
30
0
41
1
10
447.644516424558
20
39.4235477363989
30
0
41
1
10
447.632415757924
20
39.4372414059818
30
0
41
1
10
447.615362180513
20
39.457058368813
30
0
41
1
10
447.609843681088
20
39.4635646186625
30
0
41
1
10
447.599315823628
20
39.4761942960823
30
0
41
1
10
447.59434635102
20
39.4822691112961
30
0
41
1
10
447.585057088003
20
39.4938876558984
30
0
41
1
10
447.58073649483
20
39.4994320447134
30
0
41
1
10
447.572851885821
20
39.5099009413212
30
0
41
1
10
447.569289806118
20
39.5148271517452
30
0
41
1
10
447.563275020147
20
39.5236417442507
30
0
41
1
10
447.560789116349
20
39.5275724498682
30
0
41
1
10
447.557970403979
20
39.5326362507634
30
0
41
1
10
447.5571807071
20
39.534191542927
30
0
41
1
10
447.555958387771
20
39.5369474349407
30
0
41
1
10
447.555522888384
20
39.5381514278971
30
0
41
1
10
447.554757589445
20
39.5412275521602
30
0
41
1
10
447.554968098834
20
39.542569420241
30
0
41
1
10
447.556970634973
20
39.543668795631
30
0
41
1
10
447.558727151058
20
39.5434132125539
30
0
41
1
10
447.563678010358
20
39.5413711947671
30
0
41
1
10
447.566920781158
20
39.5395498832672
30
0
41
1
10
447.574553372275
20
39.5345708990523
30
0
41
1
10
447.578939391943
20
39.531425308325
30
0
41
1
10
447.588732659253
20
39.5239611087661
30
0
41
1
10
447.594093655634
20
39.5196751489225
30
0
41
1
10
447.60536971005
20
39.5103549017177
30
0
41
1
10
447.611321002803
20
39.5052926490166
30
0
41
1
10
447.623774439075
20
39.4944635289521
30
0
41
1
10
447.630297453056
20
39.4886766426168
30
0
41
1
10
447.643565991622
20
39.4767145394135
30
0
41
1
10
447.650343891601
20
39.4705116283919
30
0
41
1
10
447.65725
20
39.4641115400981
30
0
0
SPLINE
5
1D8
100
AcDbEntity
8
1
62
256
6
ByLayer
370
18
48
1
60
0
100
AcDbSpline
70
4
71
3
72
8
73
4
40
0
40
0
40
0
40
0
40
1
40
1
40
1
40
1
41
1
10
447.65725
20
39.4641115400981
30
0
41
1
10
447.880154410722
20
39.2575396435552
30
0
41
1
10
448.102747357519
20
39.0505212677346
30
0
41
1
10
448.325
20
38.8430150703266
30
0
0
SPLINE
5
1D9
100
AcDbEntity
8
1
62
256
6
ByLayer
370
18
48
1
60
0
100
AcDbSpline
70
4
71
3
72
8
73
4
40
0
40
0
40
0
40
0
40
1
40
1
40
1
40
1
41
1
10
448.325
20
38.8877094006824
30
0
41
1
10
448.103192833685
20
39.1248200564506
30
0
41
1
10
447.880586600134
20
39.360926434076
30
0
41
1
10
447.65725
20
39.5961148774372
30
0
0
SPLINE
5
1DA
100
AcDbEntity
8
1
62
256
6
ByLayer
370
18
48
1
60
0
100
AcDbSpline
70
4
71
3
72
36
73
32
40
0
40
0
40
0
40
0
40
0.125000000000001
40
0.125000000000001
40
0.187500000000001
40
0.187500000000001
40
0.250000000000001
40
0.250000000000001
40
0.3125
40
0.3125
40
0.375
40
0.375
40
0.4375
40
0.4375
40
0.5
40
0.5
40
0.5625
40
0.5625
40
0.625
40
0.625
40
0.6875
40
0.6875
40
0.75
40
0.75
40
0.8125
40
0.8125
40
0.875
40
0.875
40
0.9375
40
0.9375
40
1
40
1
40
1
40
1
41
1
10
447.65725
20
39.5961148774372
30
0
41
1
10
447.644297810296
20
39.6097544033049
30
0
41
1
10
447.631971469554
20
39.6228889373611
30
0
41
1
10
447.614587766373
20
39.6416896233647
30
0
41
1
10
447.608962437992
20
39.6478234161388
30
0
41
1
10
447.598219744535
20
39.6596542662095
30
0
41
1
10
447.593162452165
20
39.6652848393086
30
0
41
1
10
447.583744054987
20
39.6759127204244
30
0
41
1
10
447.579381977264
20
39.6809109190331
30
0
41
1
10
447.571475424566
20
39.6901618127102
30
0
41
1
10
447.56796393266
20
39.6943779115583
30
0
41
1
10
447.562123476241
20
39.7016606312726
30
0
41
1
10
447.559763016764
20
39.704763522486
30
0
41
1
10
447.556345506592
20
39.7097144686073
30
0
41
1
10
447.555339389409
20
39.7114932513513
30
0
41
1
10
447.554805792477
20
39.713557416981
30
0
41
1
10
447.555270373726
20
39.7138564274244
30
0
41
1
10
447.557760513605
20
39.7128814024553
30
0
41
1
10
447.559738775618
20
39.7116279658254
30
0
41
1
10
447.565035279268
20
39.7077230059361
30
0
41
1
10
447.568396074916
20
39.7050343713417
30
0
41
1
10
447.576150554507
20
39.6985299248096
30
0
41
1
10
447.580543608829
20
39.6947184183933
30
0
41
1
10
447.590239294518
20
39.6861116252262
30
0
41
1
10
447.595524602478
20
39.6813303234833
30
0
41
1
10
447.60658470537
20
39.6711876616576
30
0
41
1
10
447.612396656112
20
39.6657932777164
30
0
41
1
10
447.624514642587
20
39.6544403903464
30
0
41
1
10
447.630846485558
20
39.6484571722604
30
0
41
1
10
447.643842245097
20
39.636089750197
30
0
41
1
10
447.650482231385
20
39.6297287148542
30
0
41
1
10
447.65725
20
39.6232090000631
30
0
0
SPLINE
5
1DB
100
AcDbEntity
8
1
62
256
6
ByLayer
370
18
48
1
60
0
100
AcDbSpline
70
4
71
3
72
8
73
4
40
0
40
0
40
0
40
0
40
1
40
1
40
1
40
1
41
1
10
447.65725
20
39.6232090000631
30
0
41
1
10
447.880270558999
20
39.4083626422765
30
0
41
1
10
448.10286698483
20
39.1929320464154
30
0
41
1
10
448.325
20
38.9768631082321
30
0
0
SPLINE
5
1DC
100
AcDbEntity
8
1
62
256
6
ByLayer
370
18
48
1
60
0
100
AcDbSpline
70
4
71
3
72
8
73
4
40
0
40
0
40
0
40
0
40
1
40
1
40
1
40
1
41
1
10
448.325
20
38.9916679077064
30
0
41
1
10
448.103013049401
20
39.2175491122091
30
0
41
1
10
447.880412287865
20
39.4426210338981
30
0
41
1
10
447.65725
20
39.6669526077361
30
0
0
SPLINE
5
1DD
100
AcDbEntity
8
1
62
256
6
ByLayer
370
18
48
1
60
0
100
AcDbSpline
70
4
71
3
72
34
73
30
40
0
40
0
40
0
40
0
40
0.178898807746473
40
0.178898807746473
40
0.268348211619707
40
0.268348211619707
40
0.357797615492942
40
0.357797615492942
40
0.447247019366176
40
0.447247019366176
40
0.53669642323941
40
0.53669642323941
40
0.581421125176029
40
0.581421125176029
40
0.626145827112647
40
0.626145827112647
40
0.715595230985883
40
0.715595230985883
40
0.760319932922501
40
0.760319932922501
40
0.80504463485912
40
0.80504463485912
40
0.894494038732356
40
0.894494038732356
40
0.939218740668965
40
0.939218740668965
40
0.983943442605573
40
0.983943442605573
40
1
40
1
40
1
40
1
41
1
10
447.65725
20
39.6669526077361
30
0
41
1
10
447.644065127169
20
39.6802065643133
30
0
41
1
10
447.631499690005
20
39.6928510008159
30
0
41
1
10
447.613767488913
20
39.7107095352674
30
0
41
1
10
447.608029628151
20
39.7164909170952
30
0
41
1
10
447.597063181624
20
39.7275448800852
30
0
41
1
10
447.591917003684
20
39.7327343768108
30
0
41
1
10
447.582374604036
20
39.7423602519269
30
0
41
1
10
447.577977210357
20
39.7467978161461
30
0
41
1
10
447.570069925254
20
39.754779432462
30
0
41
1
10
447.566638932007
20
39.7582438358022
30
0
41
1
10
447.562418282626
20
39.7625062972605
30
0
41
1
10
447.561162433678
20
39.7637747334409
30
0
41
1
10
447.558973145788
20
39.7659861174869
30
0
41
1
10
447.558035604914
20
39.7669332091899
30
0
41
1
10
447.555782453196
20
39.7692094124116
30
0
41
1
10
447.55502129948
20
39.7699784801976
30
0
41
1
10
447.554990007903
20
39.770010095453
30
0
41
1
10
447.555165390467
20
39.7698328961034
30
0
41
1
10
447.555896933859
20
39.7690938049059
30
0
41
1
10
447.556455981111
20
39.7685289974835
30
0
41
1
10
447.558654369785
20
39.7663081071419
30
0
41
1
10
447.560818210051
20
39.7641222501479
30
0
41
1
10
447.565025639673
20
39.7598730972592
30
0
41
1
10
447.566596637724
20
39.7582866679004
30
0
41
1
10
447.569995938923
20
39.7548544454193
30
0
41
1
10
447.57182715684
20
39.7530057074175
30
0
41
1
10
447.574480734081
20
39.7503271534939
30
0
41
1
10
447.575197483873
20
39.7496036938765
30
0
41
1
10
447.575929600266
20
39.7488647646151
30
0
0
SPLINE
5
1DE
100
AcDbEntity
8
1
62
256
6
ByLayer
370
18
48
1
60
0
100
AcDbSpline
70
4
71
3
72
26
73
22
40
0
40
0
40
0
40
0
40
0.0312499999999967
40
0.0312499999999967
40
0.0624999999999934
40
0.0624999999999934
40
0.124999999999995
40
0.124999999999995
40
0.187499999999996
40
0.187499999999996
40
0.249999999999997
40
0.249999999999997
40
0.374999999999996
40
0.374999999999996
40
0.499999999999996
40
0.499999999999996
40
0.624999999999996
40
0.624999999999996
40
0.749999999999996
40
0.749999999999996
40
1
40
1
40
1
40
1
41
1
10
447.575581557729
20
7.04956167719729
30
0
41
1
10
447.573216063351
20
7.05155662587484
30
0
41
1
10
447.571088293822
20
7.05392702949726
30
0
41
1
10
447.567350219928
20
7.05916849260311
30
0
41
1
10
447.565720043643
20
7.06205474319296
30
0
41
1
10
447.561427389436
20
7.07137975180234
30
0
41
1
10
447.559352272886
20
7.07854151623297
30
0
41
1
10
447.556470119346
20
7.09371267051719
30
0
41
1
10
447.555638746509
20
7.1017598294099
30
0
41
1
10
447.554868824112
20
7.11853412016467
30
0
41
1
10
447.55493499286
20
7.12728257092556
30
0
41
1
10
447.556204534297
20
7.15423338952772
30
0
41
1
10
447.558429036056
20
7.17280740204751
30
0
41
1
10
447.564679172283
20
7.21075976427741
30
0
41
1
10
447.568724162297
20
7.23014637985361
30
0
41
1
10
447.578247140337
20
7.26956540854852
30
0
41
1
10
447.583735326925
20
7.28959739876095
30
0
41
1
10
447.595755071577
20
7.32960007544003
30
0
41
1
10
447.602308270639
20
7.34965644339991
30
0
41
1
10
447.623417068591
20
7.40997257872175
30
0
41
1
10
447.639391730636
20
7.45037703085507
30
0
41
1
10
447.65725
20
7.49096490440508
30
0
0
SPLINE
5
1DF
100
AcDbEntity
8
1
62
256
6
ByLayer
370
18
48
1
60
0
100
AcDbSpline
70
4
71
3
72
8
73
4
40
0
40
0
40
0
40
0
40
1
40
1
40
1
40
1
41
1
10
447.65725
20
7.49096490440508
30
0
41
1
10
447.890641792267
20
8.02141252836634
30
0
41
1
10
448.11364948325
20
8.55760512896885
30
0
41
1
10
448.325
20
9.10024703046236
30
0
0
SPLINE
5
1E0
100
AcDbEntity
8
1
62
256
6
ByLayer
370
18
48
1
60
0
100
AcDbSpline
70
4
71
3
72
8
73
4
40
0
40
0
40
0
40
0
40
1
40
1
40
1
40
1
41
1
10
448.325
20
9.65591142011846
30
0
41
1
10
448.103076961139
20
9.44569233321704
30
0
41
1
10
447.880459452193
20
9.23645805404314
30
0
41
1
10
447.65725
20
9.02806319228563
30
0
0
SPLINE
5
1E1
100
AcDbEntity
8
1
62
256
6
ByLayer
370
18
48
1
60
0
100
AcDbSpline
70
4
71
3
72
40
73
36
40
0
40
0
40
0
40
0
40
0.0312500000000096
40
0.0312500000000096
40
0.0625000000000192
40
0.0625000000000192
40
0.0781250000000228
40
0.0781250000000228
40
0.0937500000000265
40
0.0937500000000265
40
0.125000000000024
40
0.125000000000024
40
0.156250000000021
40
0.156250000000021
40
0.187500000000019
40
0.187500000000019
40
0.218750000000016
40
0.218750000000016
40
0.250000000000013
40
0.250000000000013
40
0.312500000000012
40
0.312500000000012
40
0.375000000000011
40
0.375000000000011
40
0.437500000000011
40
0.437500000000011
40
0.50000000000001
40
0.50000000000001
40
0.625000000000007
40
0.625000000000007
40
0.750000000000005
40
0.750000000000005
40
0.875000000000003
40
0.875000000000003
40
1
40
1
40
1
40
1
41
1
10
447.65725
20
9.02806319228378
30
0
41
1
10
447.651733704436
20
9.02291301768156
30
0
41
1
10
447.646066107437
20
9.01813149461725
30
0
41
1
10
447.634562152208
20
9.00978603678621
30
0
41
1
10
447.62880897781
20
9.00627610314746
30
0
41
1
10
447.62017698217
20
9.00230530784606
30
0
41
1
10
447.61727725566
20
9.00119308694065
30
0
41
1
10
447.61158738497
20
8.99951237264207
30
0
41
1
10
447.608815785729
20
8.99894563005972
30
0
41
1
10
447.600727543927
20
8.9980916577656
30
0
41
1
10
447.595584332522
20
8.99869683582187
30
0
41
1
10
447.586503060931
20
9.00205774283918
30
0
41
1
10
447.582444136122
20
9.00483097077108
30
0
41
1
10
447.575492380429
20
9.01183937929605
30
0
41
1
10
447.572565250109
20
9.01605426988769
30
0
41
1
10
447.567523949783
20
9.02554085043849
30
0
41
1
10
447.565433449283
20
9.03078924091596
30
0
41
1
10
447.561966014372
20
9.04179170223492
30
0
41
1
10
447.560571634746
20
9.04758487306884
30
0
41
1
10
447.557163017579
20
9.06563380756859
30
0
41
1
10
447.555916890592
20
9.07860889752794
30
0
41
1
10
447.554799530385
20
9.10508079225934
30
0
41
1
10
447.554919462331
20
9.11866885626193
30
0
41
1
10
447.556115737512
20
9.14634722039696
30
0
41
1
10
447.557197457677
20
9.16044022926621
30
0
41
1
10
447.5601156044
20
9.18902680543087
30
0
41
1
10
447.561958590354
20
9.20354250511937
30
0
41
1
10
447.568358916547
20
9.24712995081512
30
0
41
1
10
447.573786247854
20
9.27639908301498
30
0
41
1
10
447.586349200078
20
9.33525747247933
30
0
41
1
10
447.593494825445
20
9.36484835724355
30
0
41
1
10
447.609260086472
20
9.42430995223208
30
0
41
1
10
447.617882392817
20
9.45418110574948
30
0
41
1
10
447.636537462532
20
9.51419028828241
30
0
41
1
10
447.646566260774
20
9.54430579326589
30
0
41
1
10
447.65725
20
9.57432724292593
30
0
0
SPLINE
5
1E2
100
AcDbEntity
8
1
62
256
6
ByLayer
370
18
48
1
60
0
100
AcDbSpline
70
4
71
3
72
8
73
4
40
0
40
0
40
0
40
0
40
1
40
1
40
1
40
1
41
1
10
447.65725
20
9.57432724292593
30
0
41
1
10
447.899443492047
20
10.2548941844835
30
0
41
1
10
448.122833855469
20
10.9435601143522
30
0
41
1
10
448.325
20
11.6413678580189
30
0
0
SPLINE
5
1E3
100
AcDbEntity
8
1
62
256
6
ByLayer
370
18
48
1
60
0
100
AcDbSpline
70
4
71
3
72
8
73
4
40
0
40
0
40
0
40
0
40
1
40
1
40
1
40
1
41
1
10
448.325
20
12.4542692825411
30
0
41
1
10
448.105220267217
20
12.1940971669884
30
0
41
1
10
447.88243970332
20
11.9373912343065
30
0
41
1
10
447.65725
20
11.6834680366339
30
0
0
SPLINE
5
1E4
100
AcDbEntity
8
1
62
256
6
ByLayer
370
18
48
1
60
0
100
AcDbSpline
70
4
71
3
72
40
73
36
40
0
40
0
40
0
40
0
40
0.031249999999997
40
0.031249999999997
40
0.0468749999999955
40
0.0468749999999955
40
0.062499999999994
40
0.062499999999994
40
0.0781249999999925
40
0.0781249999999925
40
0.093749999999991
40
0.093749999999991
40
0.10937499999999
40
0.10937499999999
40
0.124999999999988
40
0.124999999999988
40
0.140624999999987
40
0.140624999999987
40
0.156249999999985
40
0.156249999999985
40
0.187499999999982
40
0.187499999999982
40
0.249999999999986
40
0.249999999999986
40
0.312499999999989
40
0.312499999999989
40
0.374999999999992
40
0.374999999999992
40
0.499999999999994
40
0.499999999999994
40
0.624999999999996
40
0.624999999999996
40
0.749999999999998
40
0.749999999999998
40
1
40
1
40
1
40
1
41
1
10
447.65725
20
11.6834680366338
30
0
41
1
10
447.650694943635
20
11.6760765757964
30
0
41
1
10
447.643856307002
20
11.669348921425
30
0
41
1
10
447.632828000437
20
11.6610665922053
30
0
41
1
10
447.629054327816
20
11.6586530424362
30
0
41
1
10
447.621506084283
20
11.6548755320831
30
0
41
1
10
447.61764714495
20
11.6534830716405
30
0
41
1
10
447.610209805759
20
11.6520457621435
30
0
41
1
10
447.606618079863
20
11.6519769072309
30
0
41
1
10
447.599698960658
20
11.6531950148278
30
0
41
1
10
447.596491641376
20
11.6544651334368
30
0
41
1
10
447.590590250106
20
11.6580741984273
30
0
41
1
10
447.587881583886
20
11.660430382922
30
0
41
1
10
447.58304075593
20
11.6658072397997
30
0
41
1
10
447.580873840228
20
11.6688474163038
30
0
41
1
10
447.576925875258
20
11.6754645489873
30
0
41
1
10
447.575146203238
20
11.6790491512278
30
0
41
1
10
447.571958100518
20
11.6864812331394
30
0
41
1
10
447.57053716708
20
11.6903495933453
30
0
41
1
10
447.566674588752
20
11.702307922967
30
0
41
1
10
447.56462720792
20
11.7107459519735
30
0
41
1
10
447.559543929198
20
11.7370015104447
30
0
41
1
10
447.557615467712
20
11.7552964549227
30
0
41
1
10
447.555271978326
20
11.7925330920075
30
0
41
1
10
447.554890029935
20
11.8115355970086
30
0
41
1
10
447.555160723138
20
11.8500543733511
30
0
41
1
10
447.555822177156
20
11.8695747639096
30
0
41
1
10
447.558978582122
20
11.9287292523228
30
0
41
1
10
447.562586786564
20
11.9683683464676
30
0
41
1
10
447.571676507638
20
12.0478165419809
30
0
41
1
10
447.577183669213
20
12.0876506103408
30
0
41
1
10
447.589657597443
20
12.1674979755176
30
0
41
1
10
447.596630654187
20
12.2075118088035
30
0
41
1
10
447.619443660266
20
12.3277951113572
30
0
41
1
10
447.637125569122
20
12.4083021983431
30
0
41
1
10
447.65725
20
12.4891181707894
30
0
0
SPLINE
5
1E5
100
AcDbEntity
8
1
62
256
6
ByLayer
370
18
48
1
60
0
100
AcDbSpline
70
4
71
3
72
8
73
4
40
0
40
0
40
0
40
0
40
1
40
1
40
1
40
1
41
1
10
447.65725
20
12.4891181707894
30
0
41
1
10
447.940369761457
20
13.626074489235
30
0
41
1
10
448.165581223845
20
14.7779412307366
30
0
41
1
10
448.325
20
15.9467484937436
30
0
0
SPLINE
5
1E6
100
AcDbEntity
8
1
62
256
6
ByLayer
370
18
48
1
60
0
100
AcDbSpline
70
4
71
3
72
10
73
6
40
0
40
0
40
0
40
0
40
0.5
40
0.5
40
1
40
1
40
1
40
1
41
1
10
448.325
20
-21.5414070106101
30
0
41
1
10
448.254077218736
20
-21.912560657805
30
0
41
1
10
448.160083064707
20
-22.2740510856256
30
0
41
1
10
447.934818787514
20
-22.9814192652986
30
0
41
1
10
447.803545178726
20
-23.327295557231
30
0
41
1
10
447.657249999994
20
-23.6668802111587
30
0
0
SPLINE
5
1E7
100
AcDbEntity
8
1
62
256
6
ByLayer
370
18
48
1
60
0
100
AcDbSpline
70
4
71
3
72
103
73
99
40
0
40
0
40
0
40
0
40
0.0039062500000055
40
0.0039062500000055
40
0.0058593750000077
40
0.0058593750000077
40
0.00781250000001
40
0.00781250000001
40
0.0087890625000104
40
0.0087890625000104
40
0.0097656250000109
40
0.0097656250000109
40
0.0107421875000114
40
0.0107421875000114
40
0.0117187500000119
40
0.0117187500000119
40
0.0136718750000126
40
0.0136718750000126
40
0.0156250000000134
40
0.0156250000000134
40
0.0175781250000142
40
0.0175781250000142
40
0.0195312500000149
40
0.0195312500000149
40
0.0234375000000146
40
0.0234375000000146
40
0.0273437500000143
40
0.0273437500000143
40
0.031250000000014
40
0.031250000000014
40
0.0390625000000143
40
0.0390625000000143
40
0.0468750000000145
40
0.0468750000000145
40
0.0625000000000153
40
0.0625000000000153
40
0.0781250000000161
40
0.0781250000000161
40
0.0937500000000169
40
0.0937500000000169
40
0.125000000000017
40
0.125000000000017
40
0.156250000000018
40
0.156250000000018
40
0.187500000000018
40
0.187500000000018
40
0.250000000000018
40
0.250000000000018
40
0.312500000000018
40
0.312500000000018
40
0.375000000000019
40
0.437500000000019
40
0.437500000000019
40
0.50000000000002
40
0.56250000000002
40
0.56250000000002
40
0.625000000000021
40
0.687500000000021
40
0.687500000000021
40
0.750000000000021
40
0.750000000000021
40
0.812500000000022
40
0.812500000000022
40
0.843750000000023
40
0.843750000000023
40
0.875000000000024
40
0.875000000000024
40
0.906250000000025
40
0.906250000000025
40
0.937500000000025
40
0.937500000000025
40
0.953125000000025
40
0.953125000000025
40
0.960937500000025
40
0.960937500000025
40
0.968750000000025
40
0.968750000000025
40
0.976562500000025
40
0.976562500000025
40
0.980468750000024
40
0.980468750000024
40
0.984375000000023
40
0.984375000000023
40
0.986328125000022
40
0.986328125000022
40
0.988281250000021
40
0.988281250000021
40
0.98925781250002
40
0.98925781250002
40
0.990234375000019
40
0.990234375000019
40
0.992187500000015
40
0.992187500000015
40
0.994140625000012
40
0.994140625000012
40
0.996093750000008
40
0.996093750000008
40
1
40
1
40
1
40
1
41
1
10
447.657249999995
20
-23.6668802111586
30
0
41
1
10
447.653301423677
20
-23.6760457621626
30
0
41
1
10
447.649062278602
20
-23.6850001600729
30
0
41
1
10
447.641890292588
20
-23.6976175372323
30
0
41
1
10
447.639344045073
20
-23.7017123128957
30
0
41
1
10
447.633862944294
20
-23.7093295229342
30
0
41
1
10
447.63090563163
20
-23.7128895577668
30
0
41
1
10
447.626096575472
20
-23.7172797006156
30
0
41
1
10
447.624438975239
20
-23.7185762181924
30
0
41
1
10
447.620973923812
20
-23.7207107340948
30
0
41
1
10
447.619165204416
20
-23.7215381072321
30
0
41
1
10
447.615556785189
20
-23.7225056324747
30
0
41
1
10
447.613708678951
20
-23.7226511789395
30
0
41
1
10
447.610180584917
20
-23.7222142635765
30
0
41
1
10
447.608468290051
20
-23.7216375604429
30
0
41
1
10
447.603630683921
20
-23.7190352513554
30
0
41
1
10
447.600854969399
20
-23.7162115472354
30
0
41
1
10
447.596024565016
20
-23.7096607335706
30
0
41
1
10
447.59396562342
20
-23.7059457721745
30
0
41
1
10
447.590246483776
20
-23.6980224630462
30
0
41
1
10
447.588612584205
20
-23.6938478289564
30
0
41
1
10
447.585658623901
20
-23.6853358836756
30
0
41
1
10
447.584332664394
20
-23.6809766414845
30
0
41
1
10
447.580665021383
20
-23.667685943216
30
0
41
1
10
447.578627539058
20
-23.6585456066578
30
0
41
1
10
447.575020258095
20
-23.6399407234214
30
0
41
1
10
447.573458990612
20
-23.6304741785332
30
0
41
1
10
447.570681498253
20
-23.6114946854472
30
0
41
1
10
447.569461933954
20
-23.601952575161
30
0
41
1
10
447.566164724209
20
-23.5732127784945
30
0
41
1
10
447.564441871258
20
-23.5539036248207
30
0
41
1
10
447.561565262987
20
-23.5151006478387
30
0
41
1
10
447.560418250916
20
-23.4956048099519
30
0
41
1
10
447.557575244483
20
-23.436916582544
30
0
41
1
10
447.556465663615
20
-23.397526947421
30
0
41
1
10
447.555135765611
20
-23.3184228726186
30
0
41
1
10
447.554929517699
20
-23.2787416768997
30
0
41
1
10
447.555109823879
20
-23.1993740801942
30
0
41
1
10
447.555499793026
20
-23.1596542705987
30
0
41
1
10
447.557293455112
20
-23.0404080219928
30
0
41
1
10
447.559308234817
20
-22.9607957413348
30
0
41
1
10
447.564196181931
20
-22.8014015493646
30
0
41
1
10
447.56708109708
20
-22.7216187337574
30
0
41
1
10
447.573316966476
20
-22.5619135113687
30
0
41
1
10
447.576671708505
20
-22.4819908124503
30
0
41
1
10
447.587049936215
20
-22.2420426176694
30
0
41
1
10
447.594374358784
20
-22.0817639214514
30
0
41
1
10
447.608485845607
20
-21.7612876698599
30
0
41
1
10
447.615286090069
20
-21.6010765758431
30
0
41
1
10
447.627532712957
20
-21.2807014478953
30
0
41
1
10
447.638431938167
20
-20.960373437104
30
0
41
1
10
447.645462457192
20
-20.6401300544534
30
0
41
1
10
447.650191912682
20
-20.3199260020643
30
0
41
1
10
447.652618507706
20
-19.9997612677253
30
0
41
1
10
447.650187524562
20
-19.6796730776719
30
0
41
1
10
447.645457290143
20
-19.3596241506572
30
0
41
1
10
447.638429381582
20
-19.03961449939
30
0
41
1
10
447.62754588067
20
-18.7196892277089
30
0
41
1
10
447.615321771864
20
-18.3998108497568
30
0
41
1
10
447.608536385057
20
-18.2398950800627
30
0
41
1
10
447.594458716991
20
-17.9201172295711
30
0
41
1
10
447.587153622499
20
-17.7602550390555
30
0
41
1
10
447.576777768777
20
-17.5205100098574
30
0
41
1
10
447.573420214871
20
-17.4406030782089
30
0
41
1
10
447.56717100212
20
-17.2808075851305
30
0
41
1
10
447.564275469638
20
-17.2009189911713
30
0
41
1
10
447.559360408876
20
-17.0411636268451
30
0
41
1
10
447.557331970261
20
-16.9613324755162
30
0
41
1
10
447.554915618715
20
-16.8023110794342
30
0
41
1
10
447.554474000374
20
-16.7230550743678
30
0
41
1
10
447.556408527631
20
-16.604858314666
30
0
41
1
10
447.557490962645
20
-16.5655749435068
30
0
41
1
10
447.560278939439
20
-16.5069304507307
30
0
41
1
10
447.561405199968
20
-16.4874296557204
30
0
41
1
10
447.56423493603
20
-16.4485615252795
30
0
41
1
10
447.565931575081
20
-16.4291927456751
30
0
41
1
10
447.5702707399
20
-16.3906665162961
30
0
41
1
10
447.572876911364
20
-16.3715013867137
30
0
41
1
10
447.578280301633
20
-16.3430779509019
30
0
41
1
10
447.580322520626
20
-16.3337324677192
30
0
41
1
10
447.585238144679
20
-16.3155870688884
30
0
41
1
10
447.588077516882
20
-16.3067872690528
30
0
41
1
10
447.59358496363
20
-16.2947838314983
30
0
41
1
10
447.595658717637
20
-16.2909418387596
30
0
41
1
10
447.600477568669
20
-16.2842090573135
30
0
41
1
10
447.603260702252
20
-16.2812852335166
30
0
41
1
10
447.608034973336
20
-16.2785458671465
30
0
41
1
10
447.609764356208
20
-16.2778991194663
30
0
41
1
10
447.613312362299
20
-16.2773487521684
30
0
41
1
10
447.615150048834
20
-16.2774371074856
30
0
41
1
10
447.620665102831
20
-16.2787747467873
30
0
41
1
10
447.624234052256
20
-16.2810633983675
30
0
41
1
10
447.630712654505
20
-16.28689382182
30
0
41
1
10
447.633714095518
20
-16.2904827522334
30
0
41
1
10
447.639223963314
20
-16.2981025844786
30
0
41
1
10
447.641766744743
20
-16.3021765593071
30
0
41
1
10
447.64900699551
20
-16.3148803867228
30
0
41
1
10
447.653288339033
20
-16.3239238653822
30
0
41
1
10
447.65725
20
-16.333119788857
30
0
0
SPLINE
5
1E8
100
AcDbEntity
8
1
62
256
6
ByLayer
370
18
48
1
60
0
100
AcDbSpline
70
4
71
3
72
10
73
6
40
0
40
0
40
0
40
0
40
0.5
40
0.5
40
1
40
1
40
1
40
1
41
1
10
447.65725
20
-16.3331197888571
30
0
41
1
10
447.80354517873
20
-16.6727044427828
30
0
41
1
10
447.934818787517
20
-17.0185807347133
30
0
41
1
10
448.160083064708
20
-17.7259489143822
30
0
41
1
10
448.254077218737
20
-18.0874393422006
30
0
41
1
10
448.325
20
-18.4585929893932
30
0
0
SPLINE
5
1E9
100
AcDbEntity
8
1
62
256
6
ByLayer
370
18
48
1
60
0
100
AcDbSpline
70
4
71
3
72
8
73
4
40
0
40
0
40
0
40
0
40
1
40
1
40
1
40
1
41
1
10
448.325
20
-15.946748493747
30
0
41
1
10
448.165581223844
20
-14.77794123074
30
0
41
1
10
447.940369761457
20
-13.6260744892383
30
0
41
1
10
447.65725
20
-12.4891181707928
30
0
0
SPLINE
5
1EA
100
AcDbEntity
8
1
62
256
6
ByLayer
370
18
48
1
60
0
100
AcDbSpline
70
4
71
3
72
38
73
34
40
0
40
0
40
0
40
0
40
0.250000000000001
40
0.250000000000001
40
0.374999999999997
40
0.374999999999997
40
0.499999999999994
40
0.499999999999994
40
0.624999999999991
40
0.624999999999991
40
0.687499999999989
40
0.687499999999989
40
0.749999999999987
40
0.749999999999987
40
0.812499999999986
40
0.812499999999986
40
0.843749999999987
40
0.843749999999987
40
0.874999999999988
40
0.874999999999988
40
0.89062499999999
40
0.89062499999999
40
0.906249999999991
40
0.906249999999991
40
0.921874999999992
40
0.921874999999992
40
0.937499999999993
40
0.937499999999993
40
0.953124999999994
40
0.953124999999994
40
0.968749999999995
40
0.968749999999995
40
1
40
1
40
1
40
1
41
1
10
447.65725
20
-12.4891181707928
30
0
41
1
10
447.63716054397
20
-12.4084426508282
30
0
41
1
10
447.619450956248
20
-12.327858968229
30
0
41
1
10
447.596561035942
20
-12.2071319922707
30
0
41
1
10
447.589551068575
20
-12.1668818956882
30
0
41
1
10
447.57702566488
20
-12.0865719725036
30
0
41
1
10
447.571531729368
20
-12.0466854379589
30
0
41
1
10
447.562511855497
20
-11.9675757886345
30
0
41
1
10
447.558965882088
20
-11.928346809115
30
0
41
1
10
447.555852527796
20
-11.8702149499165
30
0
41
1
10
447.555186994494
20
-11.8509576275228
30
0
41
1
10
447.554879827929
20
-11.8127647711382
30
0
41
1
10
447.555228028269
20
-11.7938262640297
30
0
41
1
10
447.557508733814
20
-11.7564351112203
30
0
41
1
10
447.559446424528
20
-11.737831457626
30
0
41
1
10
447.56439774179
20
-11.7117813008005
30
0
41
1
10
447.566393256596
20
-11.7033789059272
30
0
41
1
10
447.571427719528
20
-11.6874176046593
30
0
41
1
10
447.574462350045
20
-11.6798137810859
30
0
41
1
10
447.580359838196
20
-11.6696187180134
30
0
41
1
10
447.582518143517
20
-11.6664929744985
30
0
41
1
10
447.587336978513
20
-11.6609509485897
30
0
41
1
10
447.590030958628
20
-11.6585138200472
30
0
41
1
10
447.595913788946
20
-11.6547380925179
30
0
41
1
10
447.599092314855
20
-11.6533909420352
30
0
41
1
10
447.606024814214
20
-11.6520063859377
30
0
41
1
10
447.60966234777
20
-11.6520040831185
30
0
41
1
10
447.61713950721
20
-11.6533292840545
30
0
41
1
10
447.621035240749
20
-11.6546831952759
30
0
41
1
10
447.628645050974
20
-11.6584096521285
30
0
41
1
10
447.63240740058
20
-11.6607803665181
30
0
41
1
10
447.64359324305
20
-11.6690962440277
30
0
41
1
10
447.650578102513
20
-11.6759448261091
30
0
41
1
10
447.657249999999
20
-11.6834680366266
30
0
0
SPLINE
5
1EB
100
AcDbEntity
8
1
62
256
6
ByLayer
370
18
48
1
60
0
100
AcDbSpline
70
4
71
3
72
8
73
4
40
0
40
0
40
0
40
0
40
1
40
1
40
1
40
1
41
1
10
447.657249999996
20
-11.6834680366331
30
0
41
1
10
447.882439703317
20
-11.937391234307
30
0
41
1
10
448.105220267216
20
-12.1940971669903
30
0
41
1
10
448.325
20
-12.4542692825445
30
0
0
SPLINE
5
1EC
100
AcDbEntity
8
1
62
256
6
ByLayer
370
18
48
1
60
0
100
AcDbSpline
70
4
71
3
72
8
73
4
40
0
40
0
40
0
40
0
40
1
40
1
40
1
40
1
41
1
10
448.325
20
-11.6413678580222
30
0
41
1
10
448.122833855469
20
-10.9435601143555
30
0
41
1
10
447.899443492047
20
-10.2548941844868
30
0
41
1
10
447.65725
20
-9.57432724292926
30
0
0
SPLINE
5
1ED
100
AcDbEntity
8
1
62
256
6
ByLayer
370
18
48
1
60
0
100
AcDbSpline
70
4
71
3
72
39
73
35
40
0
40
0
40
0
40
0
40
0.124999999999991
40
0.249999999999982
40
0.249999999999982
40
0.374999999999972
40
0.374999999999972
40
0.499999999999963
40
0.499999999999963
40
0.624999999999954
40
0.624999999999954
40
0.68749999999995
40
0.68749999999995
40
0.718749999999952
40
0.718749999999952
40
0.749999999999953
40
0.749999999999953
40
0.781249999999955
40
0.781249999999955
40
0.812499999999957
40
0.812499999999957
40
0.843749999999959
40
0.843749999999959
40
0.874999999999961
40
0.874999999999961
40
0.906249999999962
40
0.906249999999962
40
0.921874999999969
40
0.921874999999969
40
0.937499999999976
40
0.937499999999976
40
0.968749999999988
40
0.968749999999988
40
1
40
1
40
1
40
1
41
1
10
447.65725
20
-9.57432724292926
30
0
41
1
10
447.646580757253
20
-9.54434652856961
30
0
41
1
10
447.626666964633
20
-9.48454751297174
30
0
41
1
10
447.609474495294
20
-9.42506808830271
30
0
41
1
10
447.593723142902
20
-9.36575864268141
30
0
41
1
10
447.586565111271
20
-9.33618862752587
30
0
41
1
10
447.573950192745
20
-9.27724519331485
30
0
41
1
10
447.568478888485
20
-9.2478457400201
30
0
41
1
10
447.559868126884
20
-9.18940538958506
30
0
41
1
10
447.556764204021
20
-9.16077429496286
30
0
41
1
10
447.554929433022
20
-9.11917954414795
30
0
41
1
10
447.55479395776
20
-9.10554266501117
30
0
41
1
10
447.555616302648
20
-9.08557238515704
30
0
41
1
10
447.55606606811
20
-9.07898202729416
30
0
41
1
10
447.557381723674
20
-9.06618366765898
30
0
41
1
10
447.558246925811
20
-9.05995726671367
30
0
41
1
10
447.560494611393
20
-9.04793337050373
30
0
41
1
10
447.5618756436
20
-9.04213469300805
30
0
41
1
10
447.565318935333
20
-9.03109960690742
30
0
41
1
10
447.567398569345
20
-9.02582335174483
30
0
41
1
10
447.572430566598
20
-9.01626349088735
30
0
41
1
10
447.575359520263
20
-9.01200166693872
30
0
41
1
10
447.582352105876
20
-9.00489630247904
30
0
41
1
10
447.586358027436
20
-9.00214238861091
30
0
41
1
10
447.595394612178
20
-8.99873720504084
30
0
41
1
10
447.600550748122
20
-8.99809779038031
30
0
41
1
10
447.608635032293
20
-8.99891475487135
30
0
41
1
10
447.611401776354
20
-8.99946942144436
30
0
41
1
10
447.617073916069
20
-9.00112193465714
30
0
41
1
10
447.619995357271
20
-9.00223018091705
30
0
41
1
10
447.628690733006
20
-9.00620554557742
30
0
41
1
10
447.634474936354
20
-9.0097278597292
30
0
41
1
10
447.646023948476
20
-9.01809587442273
30
0
41
1
10
447.651713152806
20
-9.02289383008366
30
0
41
1
10
447.65725
20
-9.02806319228719
30
0
0
SPLINE
5
1EE
100
AcDbEntity
8
1
62
256
6
ByLayer
370
18
48
1
60
0
100
AcDbSpline
70
4
71
3
72
8
73
4
40
0
40
0
40
0
40
0
40
1
40
1
40
1
40
1
41
1
10
447.65725
20
-9.02806319228895
30
0
41
1
10
447.880459452193
20
-9.23645805404649
30
0
41
1
10
448.103076961139
20
-9.44569233322039
30
0
41
1
10
448.325
20
-9.65591142012181
30
0
0
SPLINE
5
1EF
100
AcDbEntity
8
1
62
256
6
ByLayer
370
18
48
1
60
0
100
AcDbSpline
70
4
71
3
72
8
73
4
40
0
40
0
40
0
40
0
40
1
40
1
40
1
40
1
41
1
10
448.325
20
-9.10024703046571
30
0
41
1
10
448.11364948325
20
-8.5576051289722
30
0
41
1
10
447.890641792267
20
-8.02141252836969
30
0
41
1
10
447.65725
20
-7.49096490440843
30
0
0
SPLINE
5
1F0
100
AcDbEntity
8
1
62
256
6
ByLayer
370
18
48
1
60
0
100
AcDbSpline
70
4
71
3
72
26
73
22
40
0
40
0
40
0
40
0
40
0.249999999999994
40
0.249999999999994
40
0.374999999999995
40
0.374999999999995
40
0.499999999999996
40
0.499999999999996
40
0.624999999999997
40
0.624999999999997
40
0.749999999999998
40
0.749999999999998
40
0.812499999999998
40
0.812499999999998
40
0.874999999999998
40
0.874999999999998
40
0.937499999999999
40
0.937499999999999
40
0.968749999999999
40
0.968749999999999
40
1
40
1
40
1
40
1
41
1
10
447.65725
20
-7.49096490440843
30
0
41
1
10
447.63938556211
20
-7.45036301117062
30
0
41
1
10
447.623444884246
20
-7.41003253726532
30
0
41
1
10
447.602409682671
20
-7.34995589824118
30
0
41
1
10
447.595884951571
20
-7.33000112434064
30
0
41
1
10
447.583922074761
20
-7.29024929685676
30
0
41
1
10
447.578481318458
20
-7.27045190530873
30
0
41
1
10
447.568922546761
20
-7.23104673886638
30
0
41
1
10
447.564790193128
20
-7.21134775706088
30
0
41
1
10
447.558469436634
20
-7.17313683216437
30
0
41
1
10
447.55623859578
20
-7.15453127157798
30
0
41
1
10
447.554945596996
20
-7.12771345739222
30
0
41
1
10
447.554861290552
20
-7.11895019185056
30
0
41
1
10
447.555619078087
20
-7.10194517112888
30
0
41
1
10
447.556454082057
20
-7.09381565088074
30
0
41
1
10
447.559347005157
20
-7.0785508178424
30
0
41
1
10
447.561423866673
20
-7.0713894827729
30
0
41
1
10
447.565716732368
20
-7.06206089896509
30
0
41
1
10
447.567346689904
20
-7.05917441981345
30
0
41
1
10
447.571082754909
20
-7.0539338209546
30
0
41
1
10
447.573206751966
20
-7.05156447866992
30
0
41
1
10
447.575581557729
20
-7.04956167720064
30
0
0
SPLINE
5
1F1
100
AcDbEntity
8
1
62
256
6
ByLayer
370
18
48
1
60
0
100
AcDbSpline
70
4
71
3
72
32
73
28
40
0
40
0
40
0
40
0
40
0.039063900327529
40
0.039063900327529
40
0.0871107053111616
40
0.0871107053111616
40
0.135157510294794
40
0.135157510294794
40
0.231251120262059
40
0.231251120262059
40
0.279297925245692
40
0.279297925245692
40
0.327344730229324
40
0.327344730229324
40
0.423438340196589
40
0.423438340196589
40
0.471485145180212
40
0.471485145180212
40
0.519531950163834
40
0.519531950163834
40
0.615625560131056
40
0.615625560131056
40
0.807812780065528
40
0.807812780065528
40
0.903906390032764
40
0.903906390032764
40
1
40
1
40
1
40
1
41
1
10
447.567556367129
20
-39.7573176558533
30
0
41
1
10
447.566214867561
20
-39.7586721969867
30
0
41
1
10
447.564969015843
20
-39.7599302950779
30
0
41
1
10
447.562418282625
20
-39.7625062972638
30
0
41
1
10
447.561162433677
20
-39.7637747334442
30
0
41
1
10
447.558973145788
20
-39.7659861174902
30
0
41
1
10
447.558035604913
20
-39.7669332091932
30
0
41
1
10
447.555782453195
20
-39.769209412415
30
0
41
1
10
447.55502129948
20
-39.7699784802009
30
0
41
1
10
447.554990007903
20
-39.7700100954563
30
0
41
1
10
447.555165390467
20
-39.7698328961067
30
0
41
1
10
447.555896933859
20
-39.7690938049093
30
0
41
1
10
447.556455981111
20
-39.7685289974869
30
0
41
1
10
447.558654369785
20
-39.7663081071453
30
0
41
1
10
447.560818210051
20
-39.7641222501512
30
0
41
1
10
447.565025639673
20
-39.7598730972625
30
0
41
1
10
447.566596637724
20
-39.7582866679037
30
0
41
1
10
447.569995938922
20
-39.7548544454226
30
0
41
1
10
447.57182715684
20
-39.7530057074208
30
0
41
1
10
447.577684905715
20
-39.7470928227339
30
0
41
1
10
447.582079041942
20
-39.7426584612635
30
0
41
1
10
447.596526643567
20
-39.7280842937849
30
0
41
1
10
447.60743414722
20
-39.7170882304561
30
0
41
1
10
447.625224277074
20
-39.6991710128168
30
0
41
1
10
447.631425107864
20
-39.6929285571755
30
0
41
1
10
447.644122351883
20
-39.6801523609372
30
0
41
1
10
447.650618768128
20
-39.6736185847573
30
0
41
1
10
447.65725
20
-39.6669526077394
30
0
0
SPLINE
5
1F2
100
AcDbEntity
8
1
62
256
6
ByLayer
370
18
48
1
60
0
100
AcDbSpline
70
4
71
3
72
8
73
4
40
0
40
0
40
0
40
0
40
1
40
1
40
1
40
1
41
1
10
447.65725
20
-39.6669526077394
30
0
41
1
10
447.880412287865
20
-39.4426210339015
30
0
41
1
10
448.1030130494
20
-39.2175491122125
30
0
41
1
10
448.325
20
-38.9916679077097
30
0
0
SPLINE
5
1F3
100
AcDbEntity
8
1
62
256
6
ByLayer
370
18
48
1
60
0
100
AcDbSpline
70
4
71
3
72
8
73
4
40
0
40
0
40
0
40
0
40
1
40
1
40
1
40
1
41
1
10
448.325
20
-38.9768631082354
30
0
41
1
10
448.102866984829
20
-39.1929320464187
30
0
41
1
10
447.880270558999
20
-39.4083626422798
30
0
41
1
10
447.65725
20
-39.6232090000664
30
0
0
SPLINE
5
1F4
100
AcDbEntity
8
1
62
256
6
ByLayer
370
18
48
1
60
0
100
AcDbSpline
70
4
71
3
72
37
73
33
40
0
40
0
40
0
40
0
40
0.125000000000012
40
0.125000000000012
40
0.187500000000007
40
0.187500000000007
40
0.250000000000001
40
0.250000000000001
40
0.312499999999996
40
0.312499999999996
40
0.37499999999999
40
0.37499999999999
40
0.437499999999984
40
0.437499999999984
40
0.499999999999979
40
0.499999999999979
40
0.531249999999974
40
0.531249999999974
40
0.562499999999969
40
0.562499999999969
40
0.624999999999959
40
0.624999999999959
40
0.656249999999961
40
0.656249999999961
40
0.687499999999964
40
0.749999999999971
40
0.749999999999971
40
0.812499999999979
40
0.812499999999979
40
0.874999999999986
40
0.874999999999986
40
1
40
1
40
1
40
1
41
1
10
447.65725
20
-39.6232090000665
30
0
41
1
10
447.643798365338
20
-39.6361676022978
30
0
41
1
10
447.630961804452
20
-39.6483954838239
30
0
41
1
10
447.61283825916
20
-39.6653818331493
30
0
41
1
10
447.606972907654
20
-39.6708291130905
30
0
41
1
10
447.59576372479
20
-39.6811134454328
30
0
41
1
10
447.590524519823
20
-39.6858546732888
30
0
41
1
10
447.580861475692
20
-39.6944397815441
30
0
41
1
10
447.576422090347
20
-39.6982970730212
30
0
41
1
10
447.568574540115
20
-39.7048894784148
30
0
41
1
10
447.565262562608
20
-39.7075442701845
30
0
41
1
10
447.559930736726
20
-39.7114967543088
30
0
41
1
10
447.557905936575
20
-39.7127973016902
30
0
41
1
10
447.55533038002
20
-39.713857975562
30
0
41
1
10
447.554822528477
20
-39.7136023830651
30
0
41
1
10
447.555169656641
20
-39.7121009086684
30
0
41
1
10
447.555471032383
20
-39.711413222566
30
0
41
1
10
447.556444479704
20
-39.7096640878544
30
0
41
1
10
447.557119382552
20
-39.7085996956579
30
0
41
1
10
447.559636609513
20
-39.704934986385
30
0
41
1
10
447.561976614644
20
-39.7018489865686
30
0
41
1
10
447.566371409227
20
-39.6963612637026
30
0
41
1
10
447.567991959292
20
-39.6943794729367
30
0
41
1
10
447.571462322212
20
-39.6902062334697
30
0
41
1
10
447.577021750233
20
-39.6836187715554
30
0
41
1
10
447.583542831282
20
-39.6761418905095
30
0
41
1
10
447.592985140082
20
-39.6654828981713
30
0
41
1
10
447.598114454227
20
-39.6597712000081
30
0
41
1
10
447.608813091414
20
-39.6479869350935
30
0
41
1
10
447.614397084543
20
-39.641896995126
30
0
41
1
10
447.631764019017
20
-39.6231110608789
30
0
41
1
10
447.644195707301
20
-39.6098619246207
30
0
41
1
10
447.65725
20
-39.5961148774405
30
0
0
SPLINE
5
1F5
100
AcDbEntity
8
1
62
256
6
ByLayer
370
18
48
1
60
0
100
AcDbSpline
70
4
71
3
72
8
73
4
40
0
40
0
40
0
40
0
40
1
40
1
40
1
40
1
41
1
10
447.65725
20
-39.5961148774405
30
0
41
1
10
447.880586600133
20
-39.3609264340794
30
0
41
1
10
448.103192833684
20
-39.124820056454
30
0
41
1
10
448.325
20
-38.8877094006858
30
0
0
SPLINE
5
1F6
100
AcDbEntity
8
1
62
256
6
ByLayer
370
18
48
1
60
0
100
AcDbSpline
70
4
71
3
72
8
73
4
40
0
40
0
40
0
40
0
40
1
40
1
40
1
40
1
41
1
10
448.325
20
-38.8430150703299
30
0
41
1
10
448.102747357519
20
-39.0505212677379
30
0
41
1
10
447.880154410721
20
-39.2575396435586
30
0
41
1
10
447.65725
20
-39.4641115401014
30
0
0
SPLINE
5
1F7
100
AcDbEntity
8
1
62
256
6
ByLayer
370
18
48
1
60
0
100
AcDbSpline
70
4
71
3
72
37
73
33
40
0
40
0
40
0
40
0
40
0.125000000000005
40
0.125000000000005
40
0.187500000000007
40
0.187500000000007
40
0.250000000000009
40
0.250000000000009
40
0.312500000000011
40
0.312500000000011
40
0.375000000000013
40
0.375000000000013
40
0.437500000000015
40
0.437500000000015
40
0.468750000000015
40
0.468750000000015
40
0.500000000000015
40
0.500000000000015
40
0.562500000000014
40
0.562500000000014
40
0.593750000000014
40
0.593750000000014
40
0.625000000000014
40
0.687500000000014
40
0.687500000000014
40
0.750000000000015
40
0.750000000000015
40
0.87500000000002
40
0.87500000000002
40
0.93750000000001
40
0.93750000000001
40
1
40
1
40
1
40
1
41
1
10
447.65725
20
-39.4641115401014
30
0
41
1
10
447.643481113526
20
-39.4768715612375
30
0
41
1
10
447.630273784138
20
-39.4888059541476
30
0
41
1
10
447.611547898444
20
-39.5050982353423
30
0
41
1
10
447.605489814992
20
-39.5102538662888
30
0
41
1
10
447.594178148089
20
-39.5196070423273
30
0
41
1
10
447.588876835462
20
-39.5238470582561
30
0
41
1
10
447.579099862891
20
-39.5313070360195
30
0
41
1
10
447.57463253141
20
-39.5345149468115
30
0
41
1
10
447.567013137968
20
-39.539493853999
30
0
41
1
10
447.56380782919
20
-39.5413073094952
30
0
41
1
10
447.5587558925
20
-39.5434113779793
30
0
41
1
10
447.557001638105
20
-39.543661642942
30
0
41
1
10
447.55549790417
20
-39.5428718307996
30
0
41
1
10
447.555184696729
20
-39.5424138178753
30
0
41
1
10
447.554936749632
20
-39.5411056379518
30
0
41
1
10
447.555004907661
20
-39.5402510599328
30
0
41
1
10
447.555758100464
20
-39.537171982285
30
0
41
1
10
447.556981441356
20
-39.5344243191943
30
0
41
1
10
447.559786795892
20
-39.5293676731255
30
0
41
1
10
447.560890347139
20
-39.5275167600913
30
0
41
1
10
447.563367637925
20
-39.5235807903729
30
0
41
1
10
447.567494977205
20
-39.5173123772813
30
0
41
1
10
447.5727388874
20
-39.5100551661031
30
0
41
1
10
447.580597943671
20
-39.499611950116
30
0
41
1
10
447.584983266588
20
-39.4939812929094
30
0
41
1
10
447.598947779451
20
-39.4765112920332
30
0
41
1
10
447.609415312622
20
-39.4639742060573
30
0
41
1
10
447.626502436555
20
-39.4441103481662
30
0
41
1
10
447.632448996398
20
-39.4372921818094
30
0
41
1
10
447.644620476764
20
-39.4235058617187
30
0
41
1
10
447.650862274447
20
-39.4165177150538
30
0
41
1
10
447.65725
20
-39.4094413032581
30
0
0
SPLINE
5
1F8
100
AcDbEntity
8
1
62
256
6
ByLayer
370
18
48
1
60
0
100
AcDbSpline
70
4
71
3
72
8
73
4
40
0
40
0
40
0
40
0
40
1
40
1
40
1
40
1
41
1
10
447.65725
20
-39.4094413032581
30
0
41
1
10
447.880803440278
20
-39.1617856723735
30
0
41
1
10
448.10341668238
20
-38.9130085961651
30
0
41
1
10
448.325
20
-38.6630030512985
30
0
0
SPLINE
5
1F9
100
AcDbEntity
8
1
62
256
6
ByLayer
370
18
48
1
60
0
100
AcDbSpline
70
4
71
3
72
8
73
4
40
0
40
0
40
0
40
0
40
1
40
1
40
1
40
1
41
1
10
448.325
20
-38.5875522985856
30
0
41
1
10
448.102649044267
20
-38.7876437561714
30
0
41
1
10
447.880058917021
20
-38.9873798588632
30
0
41
1
10
447.65725
20
-39.1867908893262
30
0
0
SPLINE
5
1FA
100
AcDbEntity
8
1
62
256
6
ByLayer
370
18
48
1
60
0
100
AcDbSpline
70
4
71
3
72
37
73
33
40
0
40
0
40
0
40
0
40
0.124999999999987
40
0.124999999999987
40
0.18749999999999
40
0.18749999999999
40
0.249999999999992
40
0.249999999999992
40
0.312499999999994
40
0.312499999999994
40
0.343749999999996
40
0.343749999999996
40
0.374999999999999
40
0.374999999999999
40
0.437500000000003
40
0.437500000000003
40
0.468750000000008
40
0.468750000000008
40
0.500000000000012
40
0.531250000000017
40
0.531250000000017
40
0.562500000000022
40
0.562500000000022
40
0.625000000000019
40
0.625000000000019
40
0.687500000000016
40
0.687500000000016
40
0.750000000000013
40
0.750000000000013
40
0.875000000000006
40
0.875000000000006
40
1
40
1
40
1
40
1
41
1
10
447.65725
20
-39.1867908893262
30
0
41
1
10
447.643139830643
20
-39.199419304064
30
0
41
1
10
447.629559018078
20
-39.2110804357844
30
0
41
1
10
447.610252673758
20
-39.226609334276
30
0
41
1
10
447.604082847579
20
-39.2313817121523
30
0
41
1
10
447.592547032076
20
-39.2398524263069
30
0
41
1
10
447.587149089204
20
-39.2435773821099
30
0
41
1
10
447.577237245028
20
-39.2498034368444
30
0
41
1
10
447.572871992595
20
-39.2522091250059
30
0
41
1
10
447.567297365673
20
-39.2546669882529
30
0
41
1
10
447.565600365279
20
-39.2552947607598
30
0
41
1
10
447.562547833039
20
-39.2561441468954
30
0
41
1
10
447.561200657848
20
-39.256361116834
30
0
41
1
10
447.557776933759
20
-39.2563809936457
30
0
41
1
10
447.556275948703
20
-39.2555686066951
30
0
41
1
10
447.555165628217
20
-39.2531423952505
30
0
41
1
10
447.554988464952
20
-39.2521252843243
30
0
41
1
10
447.555012717228
20
-39.2497422656552
30
0
41
1
10
447.555408965223
20
-39.2470052073868
30
0
41
1
10
447.55649812322
20
-39.2436083770973
30
0
41
1
10
447.557915779553
20
-39.2398986655307
30
0
41
1
10
447.558793740425
20
-39.2378782050002
30
0
41
1
10
447.561847178551
20
-39.2314744972466
30
0
41
1
10
447.564442229072
20
-39.2267342203943
30
0
41
1
10
447.570568351948
20
-39.2164656110203
30
0
41
1
10
447.574102703825
20
-39.210933413344
30
0
41
1
10
447.582003843321
20
-39.1991734069428
30
0
41
1
10
447.586292918726
20
-39.1930605527631
30
0
41
1
10
447.600014594563
20
-39.1741356202904
30
0
41
1
10
447.610290564235
20
-39.1607447564043
30
0
41
1
10
447.632716631857
20
-39.1326855622288
30
0
41
1
10
447.644695650877
20
-39.1182361758895
30
0
41
1
10
447.65725
20
-39.1035364558346
30
0
0
SPLINE
5
1FB
100
AcDbEntity
8
1
62
256
6
ByLayer
370
18
48
1
60
0
100
AcDbSpline
70
4
71
3
72
8
73
4
40
0
40
0
40
0
40
0
40
1
40
1
40
1
40
1
41
1
10
447.65725
20
-39.1035364558346
30
0
41
1
10
447.881077169411
20
-38.8414602064901
30
0
41
1
10
448.103699542003
20
-38.5780268881159
30
0
41
1
10
448.325
20
-38.3131045806221
30
0
0
SPLINE
5
1FC
100
AcDbEntity
8
1
62
256
6
ByLayer
370
18
48
1
60
0
100
AcDbSpline
70
4
71
3
72
8
73
4
40
0
40
0
40
0
40
0
40
1
40
1
40
1
40
1
41
1
10
448.325
20
-38.2053559142531
30
0
41
1
10
448.102568584439
20
-38.3991409204087
30
0
41
1
10
447.879980753609
20
-38.5926860914865
30
0
41
1
10
447.65725
20
-38.7860121158257
30
0
0
SPLINE
5
1FD
100
AcDbEntity
8
1
62
256
6
ByLayer
370
18
48
1
60
0
100
AcDbSpline
70
4
71
3
72
38
73
34
40
0
40
0
40
0
40
0
40
0.0625000000000063
40
0.0625000000000063
40
0.125000000000012
40
0.125000000000012
40
0.187500000000019
40
0.187500000000019
40
0.218750000000019
40
0.218750000000019
40
0.250000000000018
40
0.250000000000018
40
0.312500000000013
40
0.312500000000013
40
0.375000000000008
40
0.375000000000008
40
0.437500000000004
40
0.437500000000004
40
0.499999999999999
40
0.499999999999999
40
0.562499999999994
40
0.562499999999994
40
0.624999999999989
40
0.624999999999989
40
0.687499999999984
40
0.687499999999984
40
0.749999999999979
40
0.749999999999979
40
0.874999999999991
40
0.874999999999991
40
0.937499999999995
40
0.937499999999995
40
1
40
1
40
1
40
1
41
1
10
447.65725
20
-38.7860121158258
30
0
41
1
10
447.649998248352
20
-38.7923064972384
30
0
41
1
10
447.642872285329
20
-38.7983085212482
30
0
41
1
10
447.628908270403
20
-38.8096409384369
30
0
41
1
10
447.622043357133
20
-38.8149920519665
30
0
41
1
10
447.608778566715
20
-38.8247864385427
30
0
41
1
10
447.602489822524
20
-38.8291492314641
30
0
41
1
10
447.593642672276
20
-38.8347790745258
30
0
41
1
10
447.590791730918
20
-38.8365025896817
30
0
41
1
10
447.585305184796
20
-38.8396129660463
30
0
41
1
10
447.58266567377
20
-38.8409999785441
30
0
41
1
10
447.57529015163
20
-38.8445178012814
30
0
41
1
10
447.571024223356
20
-38.8460514637396
30
0
41
1
10
447.563868724608
20
-38.8473983386599
30
0
41
1
10
447.560970865644
20
-38.8471810517917
30
0
41
1
10
447.556901537584
20
-38.844984969957
30
0
41
1
10
447.555674402096
20
-38.8430325278874
30
0
41
1
10
447.554746624355
20
-38.8375093833299
30
0
41
1
10
447.555059927398
20
-38.8340161740914
30
0
41
1
10
447.556996998269
20
-38.8258304100818
30
0
41
1
10
447.558643216243
20
-38.8210884981555
30
0
41
1
10
447.562971002402
20
-38.8108301289897
30
0
41
1
10
447.565650760817
20
-38.8052967580463
30
0
41
1
10
447.571877672975
20
-38.7935504001016
30
0
41
1
10
447.575436221925
20
-38.7873197968767
30
0
41
1
10
447.583289024521
20
-38.7743197546037
30
0
41
1
10
447.587530646947
20
-38.7676351887052
30
0
41
1
10
447.601059291908
20
-38.7471119729119
30
0
41
1
10
447.611140106773
20
-38.7328096008859
30
0
41
1
10
447.627597125186
20
-38.7105811761627
30
0
41
1
10
447.633314844532
20
-38.7030336996697
30
0
41
1
10
447.645042340134
20
-38.6878708036819
30
0
41
1
10
447.651068553406
20
-38.6802328253788
30
0
41
1
10
447.65725
20
-38.6725412982319
30
0
0
SPLINE
5
1FE
100
AcDbEntity
8
1
62
256
6
ByLayer
370
18
48
1
60
0
100
AcDbSpline
70
4
71
3
72
8
73
4
40
0
40
0
40
0
40
0
40
1
40
1
40
1
40
1
41
1
10
447.65725
20
-38.6725412982319
30
0
41
1
10
447.881429112876
20
-38.3935969271707
30
0
41
1
10
448.104063620197
20
-38.1130190838683
30
0
41
1
10
448.325
20
-37.8306454136922
30
0
0
SPLINE
5
1FF
100
AcDbEntity
8
1
62
256
6
ByLayer
370
18
48
1
60
0
100
AcDbSpline
70
4
71
3
72
8
73
4
40
0
40
0
40
0
40
0
40
1
40
1
40
1
40
1
41
1
10
448.325
20
-37.6882126704934
30
0
41
1
10
448.102504008099
20
-37.8768276604211
30
0
41
1
10
447.879918034686
20
-38.065300964903
30
0
41
1
10
447.65725
20
-38.2536450551985
30
0
0
SPLINE
5
200
100
AcDbEntity
8
1
62
256
6
ByLayer
370
18
48
1
60
0
100
AcDbSpline
70
4
71
3
72
41
73
37
40
0
40
0
40
0
40
0
40
0.0625000000000152
40
0.0625000000000152
40
0.0937500000000227
40
0.0937500000000227
40
0.12500000000003
40
0.12500000000003
40
0.187500000000063
40
0.187500000000063
40
0.218750000000074
40
0.218750000000074
40
0.250000000000086
40
0.250000000000086
40
0.312500000000108
40
0.312500000000108
40
0.37500000000013
40
0.37500000000013
40
0.437500000000151
40
0.437500000000151
40
0.500000000000173
40
0.500000000000173
40
0.531250000000177
40
0.531250000000177
40
0.56250000000018
40
0.625000000000165
40
0.625000000000165
40
0.687500000000149
40
0.687500000000149
40
0.750000000000133
40
0.750000000000133
40
0.875000000000068
40
0.875000000000068
40
0.937500000000034
40
0.937500000000034
40
1
40
1
40
1
40
1
41
1
10
447.65725
20
-38.2536450551985
30
0
41
1
10
447.649763251248
20
-38.2599777328324
30
0
41
1
10
447.642389836336
20
-38.2659624629282
30
0
41
1
10
447.631528943309
20
-38.2743256519384
30
0
41
1
10
447.627942008151
20
-38.2770105628963
30
0
41
1
10
447.62084243178
20
-38.282150845079
30
0
41
1
10
447.617324342238
20
-38.2846089453332
30
0
41
1
10
447.607084890952
20
-38.2914700344424
30
0
41
1
10
447.600614151609
20
-38.2954106488681
30
0
41
1
10
447.591531521162
20
-38.3002067361401
30
0
41
1
10
447.588590422335
20
-38.3016258778097
30
0
41
1
10
447.583038456275
20
-38.3040058732379
30
0
41
1
10
447.58043429458
20
-38.3049661408888
30
0
41
1
10
447.573142092744
20
-38.3071502287371
30
0
41
1
10
447.568970586653
20
-38.3076823906225
30
0
41
1
10
447.562114352937
20
-38.3067495364762
30
0
41
1
10
447.55955868873
20
-38.3052927007929
30
0
41
1
10
447.556092885347
20
-38.3006198331369
30
0
41
1
10
447.555181203019
20
-38.2973545513713
30
0
41
1
10
447.554868989464
20
-38.2895257760851
30
0
41
1
10
447.55544017896
20
-38.2849490216827
30
0
41
1
10
447.557223542409
20
-38.2772385274686
30
0
41
1
10
447.557977600155
20
-38.2745152488737
30
0
41
1
10
447.559750869445
20
-38.268886564355
30
0
41
1
10
447.562810682998
20
-38.2601530424875
30
0
41
1
10
447.566937717188
20
-38.2506438271344
30
0
41
1
10
447.573244303111
20
-38.2373803703716
30
0
41
1
10
447.576818603168
20
-38.2304231195106
30
0
41
1
10
447.584605453415
20
-38.2161382387252
30
0
41
1
10
447.588793283287
20
-38.2088515112054
30
0
41
1
10
447.602116745497
20
-38.1866196317414
30
0
41
1
10
447.612003374444
20
-38.1713071208449
30
0
41
1
10
447.62811423162
20
-38.147716365496
30
0
41
1
10
447.633716013417
20
-38.1397269961682
30
0
41
1
10
447.645240588756
20
-38.1236830076218
30
0
41
1
10
447.65116647228
20
-38.1156226801446
30
0
41
1
10
447.65725
20
-38.1075258373128
30
0
0
SPLINE
5
201
100
AcDbEntity
8
1
62
256
6
ByLayer
370
18
48
1
60
0
100
AcDbSpline
70
4
71
3
72
8
73
4
40
0
40
0
40
0
40
0
40
1
40
1
40
1
40
1
41
1
10
447.65725
20
-38.1075258373128
30
0
41
1
10
447.88189214863
20
-37.8085394178304
30
0
41
1
10
448.104543176151
20
-37.5075899137627
30
0
41
1
10
448.325
20
-37.2044771021047
30
0
0
SPLINE
5
202
100
AcDbEntity
8
1
62
256
6
ByLayer
370
18
48
1
60
0
100
AcDbSpline
70
4
71
3
72
8
73
4
40
0
40
0
40
0
40
0
40
1
40
1
40
1
40
1
41
1
10
448.325
20
-37.023828916803
30
0
41
1
10
448.102455053618
20
-37.2085268805261
30
0
41
1
10
447.87987051103
20
-37.3931612446339
30
0
41
1
10
447.65725
20
-37.5777377493917
30
0
0
SPLINE
5
203
100
AcDbEntity
8
1
62
256
6
ByLayer
370
18
48
1
60
0
100
AcDbSpline
70
4
71
3
72
34
73
30
40
0
40
0
40
0
40
0
40
0.0625000000000002
40
0.0625000000000002
40
0.125000000000001
40
0.125000000000001
40
0.187500000000001
40
0.187500000000001
40
0.250000000000001
40
0.250000000000001
40
0.281250000000005
40
0.281250000000005
40
0.312500000000009
40
0.312500000000009
40
0.375000000000018
40
0.375000000000018
40
0.437500000000027
40
0.437500000000027
40
0.500000000000036
40
0.500000000000036
40
0.62500000000004
40
0.62500000000004
40
0.687500000000041
40
0.687500000000041
40
0.750000000000043
40
0.750000000000043
40
0.875000000000021
40
0.875000000000021
40
1
40
1
40
1
40
1
41
1
10
447.65725
20
-37.5777377493919
30
0
41
1
10
447.649488908667
20
-37.5841725343302
30
0
41
1
10
447.641823694214
20
-37.5901897349446
30
0
41
1
10
447.626724760347
20
-37.6012120518373
30
0
41
1
10
447.619237979794
20
-37.6062435686523
30
0
41
1
10
447.605117818079
20
-37.6146719864968
30
0
41
1
10
447.598426324621
20
-37.618119560047
30
0
41
1
10
447.585937823284
20
-37.6231466536633
30
0
41
1
10
447.580388451838
20
-37.6246190647449
30
0
41
1
10
447.573200292553
20
-37.625201461341
30
0
41
1
10
447.570990397782
20
-37.6251249382639
30
0
41
1
10
447.566957676257
20
-37.6244081310359
30
0
41
1
10
447.565156409234
20
-37.6237674902154
30
0
41
1
10
447.560468966659
20
-37.6210811376863
30
0
41
1
10
447.558236811846
20
-37.6182490228769
30
0
41
1
10
447.55543401562
20
-37.6108100664433
30
0
41
1
10
447.554885623818
20
-37.6063089662942
30
0
41
1
10
447.555152947204
20
-37.5960533083424
30
0
41
1
10
447.555987203674
20
-37.5902410899644
30
0
41
1
10
447.560152348846
20
-37.571646774122
30
0
41
1
10
447.565051940429
20
-37.5577549995664
30
0
41
1
10
447.574644630836
20
-37.5353327783089
30
0
41
1
10
447.578212811265
20
-37.5276254710805
30
0
41
1
10
447.585881383972
20
-37.5120284155317
30
0
41
1
10
447.589996860805
20
-37.5041041369823
30
0
41
1
10
447.60308732435
20
-37.4799990991124
30
0
41
1
10
447.612798206587
20
-37.4634896957855
30
0
41
1
10
447.63395238208
20
-37.4297025399356
30
0
41
1
10
447.64528704587
20
-37.4126051475346
30
0
41
1
10
447.65725
20
-37.3954357623984
30
0
0
SPLINE
5
204
100
AcDbEntity
8
1
62
256
6
ByLayer
370
18
48
1
60
0
100
AcDbSpline
70
4
71
3
72
8
73
4
40
0
40
0
40
0
40
0
40
1
40
1
40
1
40
1
41
1
10
447.65725
20
-37.3954357623984
30
0
41
1
10
447.882519487208
20
-37.0721261063113
30
0
41
1
10
448.105193688956
20
-36.7464520401325
30
0
41
1
10
448.325
20
-36.4181652094522
30
0
0
SPLINE
5
205
100
AcDbEntity
8
1
62
256
6
ByLayer
370
18
48
1
60
0
100
AcDbSpline
70
4
71
3
72
8
73
4
40
0
40
0
40
0
40
0
40
1
40
1
40
1
40
1
41
1
10
448.325
20
-36.1940925803378
30
0
41
1
10
448.102424037712
20
-36.3763780833557
30
0
41
1
10
447.879840463616
20
-36.5586511945673
30
0
41
1
10
447.65725
20
-36.7409130865556
30
0
0
SPLINE
5
206
100
AcDbEntity
8
1
62
256
6
ByLayer
370
18
48
1
60
0
100
AcDbSpline
70
4
71
3
72
41
73
37
40
0
40
0
40
0
40
0
40
0.0624999999999998
40
0.0624999999999998
40
0.0937499999999997
40
0.0937499999999997
40
0.125
40
0.156249999999999
40
0.156249999999999
40
0.187499999999999
40
0.187499999999999
40
0.250000000000009
40
0.250000000000009
40
0.281250000000013
40
0.281250000000013
40
0.312500000000016
40
0.312500000000016
40
0.34375000000002
40
0.34375000000002
40
0.375000000000023
40
0.375000000000023
40
0.43750000000003
40
0.43750000000003
40
0.500000000000038
40
0.500000000000038
40
0.562500000000045
40
0.562500000000045
40
0.625000000000052
40
0.625000000000052
40
0.750000000000031
40
0.750000000000031
40
0.812500000000023
40
0.812500000000023
40
0.875000000000015
40
0.875000000000015
40
1
40
1
40
1
40
1
41
1
10
447.65725
20
-36.7409130865559
30
0
41
1
10
447.649153374726
20
-36.7475427786689
30
0
41
1
10
447.641127045979
20
-36.7536643426477
30
0
41
1
10
447.62921992007
20
-36.7618858337054
30
0
41
1
10
447.625254105664
20
-36.7644755628079
30
0
41
1
10
447.617523037254
20
-36.7691908074891
30
0
41
1
10
447.609970617246
20
-36.7734599239946
30
0
41
1
10
447.602805945573
20
-36.7767590400666
30
0
41
1
10
447.595857190031
20
-36.7795168425478
30
0
41
1
10
447.592488182663
20
-36.7806205885032
30
0
41
1
10
447.58305530093
20
-36.7829562759433
30
0
41
1
10
447.577545205207
20
-36.7832717685338
30
0
41
1
10
447.570498232641
20
-36.7817946242837
30
0
41
1
10
447.568376011671
20
-36.7809744605882
30
0
41
1
10
447.564654354123
20
-36.7787565513123
30
0
41
1
10
447.563037757474
20
-36.7773557333155
30
0
41
1
10
447.560259454652
20
-36.7740094908898
30
0
41
1
10
447.559093183515
20
-36.7720491998691
30
0
41
1
10
447.557226873325
20
-36.7677016742293
30
0
41
1
10
447.55652113542
20
-36.7653155655981
30
0
41
1
10
447.555000491748
20
-36.7575992063788
30
0
41
1
10
447.554777789993
20
-36.7517086371876
30
0
41
1
10
447.555632396812
20
-36.7387330268772
30
0
41
1
10
447.556696677954
20
-36.7318045317921
30
0
41
1
10
447.559808928574
20
-36.7172648286026
30
0
41
1
10
447.561860013003
20
-36.7096514943761
30
0
41
1
10
447.566791414079
20
-36.6938480827403
30
0
41
1
10
447.569686859825
20
-36.6856265427365
30
0
41
1
10
447.579284463712
20
-36.6606698127007
30
0
41
1
10
447.586916033277
20
-36.643515377609
30
0
41
1
10
447.599796548764
20
-36.6171837267898
30
0
41
1
10
447.60433335595
20
-36.6083046902442
30
0
41
1
10
447.6138631021
20
-36.5903562030185
30
0
41
1
10
447.618869149208
20
-36.5812646199125
30
0
41
1
10
447.634415525727
20
-36.5539479878783
30
0
41
1
10
447.645494008421
20
-36.5356458158045
30
0
41
1
10
447.65725
20
-36.5172600263634
30
0
0
SPLINE
5
207
100
AcDbEntity
8
1
62
256
6
ByLayer
370
18
48
1
60
0
100
AcDbSpline
70
4
71
3
72
8
73
4
40
0
40
0
40
0
40
0
40
1
40
1
40
1
40
1
41
1
10
447.65725
20
-36.5172600263634
30
0
41
1
10
447.883402868273
20
-36.163568124688
30
0
41
1
10
448.106110862472
20
-35.8070097520418
30
0
41
1
10
448.325
20
-35.4472737184555
30
0
0
SPLINE
5
208
100
AcDbEntity
8
1
62
256
6
ByLayer
370
18
48
1
60
0
100
AcDbSpline
70
4
71
3
72
8
73
4
40
0
40
0
40
0
40
0
40
1
40
1
40
1
40
1
41
1
10
448.325
20
-35.1718989586843
30
0
41
1
10
448.102418501529
20
-35.3537654812496
30
0
41
1
10
447.879835104503
20
-35.5356289057274
30
0
41
1
10
447.65725
20
-35.7174895437162
30
0
0
SPLINE
5
209
100
AcDbEntity
8
1
62
256
6
ByLayer
370
18
48
1
60
0
100
AcDbSpline
70
4
71
3
72
39
73
35
40
0
40
0
40
0
40
0
40
0.0625000000000299
40
0.0625000000000299
40
0.12500000000006
40
0.12500000000006
40
0.156250000000067
40
0.156250000000067
40
0.187500000000074
40
0.218750000000081
40
0.218750000000081
40
0.250000000000088
40
0.250000000000088
40
0.281250000000095
40
0.281250000000095
40
0.312500000000102
40
0.312500000000102
40
0.375000000000092
40
0.375000000000092
40
0.406250000000087
40
0.406250000000087
40
0.437500000000083
40
0.437500000000083
40
0.500000000000074
40
0.500000000000074
40
0.562500000000064
40
0.562500000000064
40
0.625000000000055
40
0.625000000000055
40
0.750000000000037
40
0.750000000000037
40
0.875000000000018
40
0.875000000000018
40
1
40
1
40
1
40
1
41
1
10
447.65725
20
-35.7174895437166
30
0
41
1
10
447.648730065731
20
-35.7244506594895
30
0
41
1
10
447.640240384045
20
-35.730781540749
30
0
41
1
10
447.623341124263
20
-35.7417632452953
30
0
41
1
10
447.615142835809
20
-35.746266449982
30
0
41
1
10
447.603502565365
20
-35.7510809415394
30
0
41
1
10
447.599690571782
20
-35.7523720625315
30
0
41
1
10
447.592508199676
20
-35.7541712912084
30
0
41
1
10
447.585753036205
20
-35.7552066069181
30
0
41
1
10
447.57985489915
20
-35.7547064733938
30
0
41
1
10
447.57439678744
20
-35.7534162542913
30
0
41
1
10
447.571921227016
20
-35.7523773316256
30
0
41
1
10
447.567549364675
20
-35.7496208656559
30
0
41
1
10
447.565632865709
20
-35.7478989449048
30
0
41
1
10
447.562294682936
20
-35.7438225688666
30
0
41
1
10
447.560877068862
20
-35.7414628784516
30
0
41
1
10
447.557390747716
20
-35.7337219486537
30
0
41
1
10
447.556027508755
20
-35.7276340826175
30
0
41
1
10
447.555089670381
20
-35.7174294832718
30
0
41
1
10
447.554965589462
20
-35.7138375645443
30
0
41
1
10
447.555050764294
20
-35.7064542013065
30
0
41
1
10
447.555257937137
20
-35.7026486077669
30
0
41
1
10
447.55630692986
20
-35.6909353209454
30
0
41
1
10
447.557572712542
20
-35.6827335143553
30
0
41
1
10
447.561013886187
20
-35.6656965037107
30
0
41
1
10
447.563205111981
20
-35.6568151092965
30
0
41
1
10
447.568289962251
20
-35.6387829123728
30
0
41
1
10
447.571181138174
20
-35.6296259027368
30
0
41
1
10
447.580731495714
20
-35.6017996159791
30
0
41
1
10
447.588256700669
20
-35.5827793180606
30
0
41
1
10
447.605186633247
20
-35.5439764378913
30
0
41
1
10
447.614628433405
20
-35.5241441538696
30
0
41
1
10
447.634871171201
20
-35.4845227592405
30
0
41
1
10
447.645710540002
20
-35.464641469881
30
0
41
1
10
447.65725
20
-35.4446939818592
30
0
0
SPLINE
5
20A
100
AcDbEntity
8
1
62
256
6
ByLayer
370
18
48
1
60
0
100
AcDbSpline
70
4
71
3
72
8
73
4
40
0
40
0
40
0
40
0
40
1
40
1
40
1
40
1
41
1
10
447.65725
20
-35.4446939818592
30
0
41
1
10
447.884714477839
20
-35.0514914448491
30
0
41
1
10
448.107474410812
20
-34.6547707183926
30
0
41
1
10
448.325
20
-34.2541356041293
30
0
0
SPLINE
5
20B
100
AcDbEntity
8
1
62
256
6
ByLayer
370
18
48
1
60
0
100
AcDbSpline
70
4
71
3
72
8
73
4
40
0
40
0
40
0
40
0
40
1
40
1
40
1
40
1
41
1
10
448.325
20
-33.9148985452463
30
0
41
1
10
448.102458794819
20
-34.0993076990673
30
0
41
1
10
447.879873851595
20
-34.2836464926982
30
0
41
1
10
447.65725
20
-34.4679225924818
30
0
0
SPLINE
5
20C
100
AcDbEntity
8
1
62
256
6
ByLayer
370
18
48
1
60
0
100
AcDbSpline
70
4
71
3
72
42
73
38
40
0
40
0
40
0
40
0
40
0.031250000000014
40
0.031250000000014
40
0.062500000000028
40
0.062500000000028
40
0.125000000000047
40
0.125000000000047
40
0.156250000000056
40
0.156250000000056
40
0.187500000000065
40
0.187500000000065
40
0.218750000000075
40
0.218750000000075
40
0.250000000000084
40
0.250000000000084
40
0.281250000000093
40
0.281250000000093
40
0.312500000000102
40
0.312500000000102
40
0.375000000000101
40
0.375000000000101
40
0.4375000000001
40
0.4375000000001
40
0.500000000000099
40
0.500000000000099
40
0.562500000000098
40
0.562500000000098
40
0.625000000000097
40
0.625000000000097
40
0.750000000000062
40
0.750000000000062
40
0.812500000000046
40
0.812500000000046
40
0.875000000000031
40
0.875000000000031
40
1
40
1
40
1
40
1
41
1
10
447.65725
20
-34.4679225924824
30
0
41
1
10
447.652715784636
20
-34.4716757730908
30
0
41
1
10
447.648171982642
20
-34.4752242180357
30
0
41
1
10
447.639061851737
20
-34.4818389945706
30
0
41
1
10
447.634463110044
20
-34.4849246200625
30
0
41
1
10
447.620890781081
20
-34.4931405929664
30
0
41
1
10
447.612184274073
20
-34.497238242369
30
0
41
1
10
447.599785944165
20
-34.5007024556209
30
0
41
1
10
447.595798736559
20
-34.5013827539431
30
0
41
1
10
447.588437887232
20
-34.5017214914772
30
0
41
1
10
447.585016590109
20
-34.5013950629366
30
0
41
1
10
447.578687918255
20
-34.4997566279531
30
0
41
1
10
447.57577125397
20
-34.4984261404325
30
0
41
1
10
447.570642007268
20
-34.4949312757254
30
0
41
1
10
447.568396313809
20
-34.4927645906314
30
0
41
1
10
447.564466866063
20
-34.487690695825
30
0
41
1
10
447.562790610632
20
-34.4847816386578
30
0
41
1
10
447.560004051664
20
-34.4784826949909
30
0
41
1
10
447.558878662108
20
-34.4750745187694
30
0
41
1
10
447.55617707126
20
-34.4641968163923
30
0
41
1
10
447.555271816216
20
-34.4560057663089
30
0
41
1
10
447.554835140454
20
-34.4387708886019
30
0
41
1
10
447.555287739564
20
-34.4297082172296
30
0
41
1
10
447.557198628638
20
-34.410911691965
30
0
41
1
10
447.558660813748
20
-34.401175299811
30
0
41
1
10
447.562414468341
20
-34.3811464862787
30
0
41
1
10
447.564690590357
20
-34.3709455342389
30
0
41
1
10
447.569864147007
20
-34.3503629399139
30
0
41
1
10
447.572766885172
20
-34.3399587323296
30
0
41
1
10
447.582286200838
20
-34.3084550597244
30
0
41
1
10
447.589704686116
20
-34.2870676906636
30
0
41
1
10
447.602170480305
20
-34.2545050517205
30
0
41
1
10
447.606561134335
20
-34.2435472674695
30
0
41
1
10
447.615723333452
20
-34.2216005691148
30
0
41
1
10
447.620491747496
20
-34.2106169177776
30
0
41
1
10
447.635333434929
20
-34.1776369969165
30
0
41
1
10
447.645938290533
20
-34.1556119395226
30
0
41
1
10
447.65725
20
-34.1335510615009
30
0
0
SPLINE
5
20D
100
AcDbEntity
8
1
62
256
6
ByLayer
370
18
48
1
60
0
100
AcDbSpline
70
4
71
3
72
8
73
4
40
0
40
0
40
0
40
0
40
1
40
1
40
1
40
1
41
1
10
447.65725
20
-34.1335510615009
30
0
41
1
10
447.886818670973
20
-33.6858303643887
30
0
41
1
10
448.10966477276
20
-33.2336986822689
30
0
41
1
10
448.325
20
-32.7766387719512
30
0
0
SPLINE
5
20E
100
AcDbEntity
8
1
62
256
6
ByLayer
370
18
48
1
60
0
100
AcDbSpline
70
4
71
3
72
8
73
4
40
0
40
0
40
0
40
0
40
1
40
1
40
1
40
1
41
1
10
448.325
20
-32.3516106251965
30
0
41
1
10
448.102604575939
20
-32.5436304116703
30
0
41
1
10
447.880013178354
20
-32.7353468501442
30
0
41
1
10
447.65725
20
-32.9267973886521
30
0
0
SPLINE
5
20F
100
AcDbEntity
8
1
62
256
6
ByLayer
370
18
48
1
60
0
100
AcDbSpline
70
4
71
3
72
40
73
36
40
0
40
0
40
0
40
0
40
0.0312500000000066
40
0.0312500000000066
40
0.0625000000000131
40
0.0625000000000131
40
0.0937500000000197
40
0.0937500000000197
40
0.125000000000026
40
0.125000000000026
40
0.156250000000033
40
0.156250000000033
40
0.187500000000039
40
0.187500000000039
40
0.218750000000046
40
0.218750000000046
40
0.250000000000053
40
0.250000000000053
40
0.281250000000059
40
0.281250000000059
40
0.312500000000066
40
0.312500000000066
40
0.375000000000052
40
0.375000000000052
40
0.437500000000038
40
0.437500000000038
40
0.500000000000023
40
0.500000000000023
40
0.625000000000018
40
0.625000000000018
40
0.750000000000012
40
0.750000000000012
40
0.875000000000006
40
0.875000000000006
40
1
40
1
40
1
40
1
41
1
10
447.65725
20
-32.9267973886531
30
0
41
1
10
447.652324785389
20
-32.9310302919388
30
0
41
1
10
447.647356992028
20
-32.9349883582527
30
0
41
1
10
447.637315154055
20
-32.9422173806755
30
0
41
1
10
447.632248515211
20
-32.9454744594687
30
0
41
1
10
447.622330439527
20
-32.9509271559112
30
0
41
1
10
447.617440623879
20
-32.9531531239493
30
0
41
1
10
447.607826918484
20
-32.9564023130743
30
0
41
1
10
447.603111409146
20
-32.9574002593058
30
0
41
1
10
447.594370949066
20
-32.9579463401277
30
0
41
1
10
447.590248358896
20
-32.9575103898103
30
0
41
1
10
447.582727371686
20
-32.9552514757088
30
0
41
1
10
447.579382383949
20
-32.9534618281093
30
0
41
1
10
447.573407708144
20
-32.9487429753431
30
0
41
1
10
447.570784206276
20
-32.9457993979776
30
0
41
1
10
447.566309974722
20
-32.9391667912463
30
0
41
1
10
447.564427793416
20
-32.9354558159246
30
0
41
1
10
447.561236804879
20
-32.9273943022144
30
0
41
1
10
447.559924523398
20
-32.923016886486
30
0
41
1
10
447.557820257697
20
-32.9138930625653
30
0
41
1
10
447.557021441388
20
-32.9091396280849
30
0
41
1
10
447.555235379233
20
-32.8944161496669
30
0
41
1
10
447.554850803663
20
-32.8839886811098
30
0
41
1
10
447.555246538783
20
-32.862243151688
30
0
41
1
10
447.556035160587
20
-32.8509757282832
30
0
41
1
10
447.558471756972
20
-32.8281699982692
30
0
41
1
10
447.5601236938
20
-32.8165750974239
30
0
41
1
10
447.566117480304
20
-32.7813270560706
30
0
41
1
10
447.571482810187
20
-32.7572167678174
30
0
41
1
10
447.584278013173
20
-32.7080635048193
30
0
41
1
10
447.591632558633
20
-32.683343301912
30
0
41
1
10
447.607858354255
20
-32.6337950042133
30
0
41
1
10
447.616740588791
20
-32.6089426679597
30
0
41
1
10
447.635921765221
20
-32.5590955706634
30
0
41
1
10
447.646221364226
20
-32.5341007313002
30
0
41
1
10
447.65725
20
-32.5090350955949
30
0
0
SPLINE
5
210
100
AcDbEntity
8
1
62
256
6
ByLayer
370
18
48
1
60
0
100
AcDbSpline
70
4
71
3
72
8
73
4
40
0
40
0
40
0
40
0
40
1
40
1
40
1
40
1
41
1
10
447.65725
20
-32.5090350955949
30
0
41
1
10
447.890641792267
20
-31.9785874716337
30
0
41
1
10
448.11364948325
20
-31.4423948710312
30
0
41
1
10
448.325
20
-30.8997529695376
30
0
0
SPLINE
5
211
100
AcDbEntity
8
1
62
256
6
ByLayer
370
18
48
1
60
0
100
AcDbSpline
70
4
71
3
72
8
73
4
40
0
40
0
40
0
40
0
40
1
40
1
40
1
40
1
41
1
10
448.325
20
-30.3440885798815
30
0
41
1
10
448.103076961139
20
-30.554307666783
30
0
41
1
10
447.880459452193
20
-30.7635419459568
30
0
41
1
10
447.65725
20
-30.9719368077144
30
0
0
SPLINE
5
212
100
AcDbEntity
8
1
62
256
6
ByLayer
370
18
48
1
60
0
100
AcDbSpline
70
4
71
3
72
40
73
36
40
0
40
0
40
0
40
0
40
0.0312500000000136
40
0.0312500000000136
40
0.0625000000000271
40
0.0625000000000271
40
0.0781250000000306
40
0.0781250000000306
40
0.093750000000034
40
0.093750000000034
40
0.125000000000032
40
0.125000000000032
40
0.15625000000003
40
0.15625000000003
40
0.187500000000028
40
0.187500000000028
40
0.218750000000026
40
0.218750000000026
40
0.250000000000023
40
0.250000000000023
40
0.31250000000002
40
0.31250000000002
40
0.375000000000016
40
0.375000000000016
40
0.437500000000012
40
0.437500000000012
40
0.500000000000009
40
0.500000000000009
40
0.625000000000007
40
0.625000000000007
40
0.750000000000004
40
0.750000000000004
40
0.875000000000002
40
0.875000000000002
40
1
40
1
40
1
40
1
41
1
10
447.65725
20
-30.9719368077162
30
0
41
1
10
447.651733704436
20
-30.9770869823184
30
0
41
1
10
447.646066107437
20
-30.9818685053827
30
0
41
1
10
447.634562152208
20
-30.9902139632138
30
0
41
1
10
447.628808977809
20
-30.9937238968525
30
0
41
1
10
447.62017698217
20
-30.9976946921539
30
0
41
1
10
447.61727725566
20
-30.9988069130594
30
0
41
1
10
447.61158738497
20
-31.0004876273579
30
0
41
1
10
447.608815785729
20
-31.0010543699403
30
0
41
1
10
447.600727543927
20
-31.0019083422344
30
0
41
1
10
447.595584332522
20
-31.0013031641781
30
0
41
1
10
447.586503060931
20
-30.9979422571608
30
0
41
1
10
447.582444136122
20
-30.9951690292289
30
0
41
1
10
447.575492380429
20
-30.988160620704
30
0
41
1
10
447.572565250109
20
-30.9839457301123
30
0
41
1
10
447.567523949783
20
-30.9744591495615
30
0
41
1
10
447.565433449283
20
-30.969210759084
30
0
41
1
10
447.561966014371
20
-30.9582082977651
30
0
41
1
10
447.560571634745
20
-30.9524151269312
30
0
41
1
10
447.557163017579
20
-30.9343661924314
30
0
41
1
10
447.555916890592
20
-30.9213911024721
30
0
41
1
10
447.554799530385
20
-30.8949192077407
30
0
41
1
10
447.55491946233
20
-30.8813311437381
30
0
41
1
10
447.556115737511
20
-30.853652779603
30
0
41
1
10
447.557197457677
20
-30.8395597707338
30
0
41
1
10
447.5601156044
20
-30.8109731945691
30
0
41
1
10
447.561958590354
20
-30.7964574948806
30
0
41
1
10
447.568358916547
20
-30.7528700491849
30
0
41
1
10
447.573786247854
20
-30.723600916985
30
0
41
1
10
447.586349200078
20
-30.6647425275207
30
0
41
1
10
447.593494825445
20
-30.6351516427565
30
0
41
1
10
447.609260086472
20
-30.5756900477679
30
0
41
1
10
447.617882392817
20
-30.5458188942505
30
0
41
1
10
447.636537462531
20
-30.4858097117176
30
0
41
1
10
447.646566260774
20
-30.4556942067341
30
0
41
1
10
447.65725
20
-30.4256727570741
30
0
0
SPLINE
5
213
100
AcDbEntity
8
1
62
256
6
ByLayer
370
18
48
1
60
0
100
AcDbSpline
70
4
71
3
72
8
73
4
40
0
40
0
40
0
40
0
40
1
40
1
40
1
40
1
41
1
10
447.65725
20
-30.4256727570741
30
0
41
1
10
447.899443492047
20
-29.7451058155165
30
0
41
1
10
448.122833855469
20
-29.0564398856479
30
0
41
1
10
448.325
20
-28.3586321419811
30
0
0
SPLINE
5
214
100
AcDbEntity
8
1
62
256
6
ByLayer
370
18
48
1
60
0
100
AcDbSpline
70
4
71
3
72
8
73
4
40
0
40
0
40
0
40
0
40
1
40
1
40
1
40
1
41
1
10
448.325
20
-27.5457307174589
30
0
41
1
10
448.105220267217
20
-27.8059028330116
30
0
41
1
10
447.882439703319
20
-28.0626087656935
30
0
41
1
10
447.65725
20
-28.3165319633661
30
0
0
SPLINE
5
215
100
AcDbEntity
8
1
62
256
6
ByLayer
370
18
48
1
60
0
100
AcDbSpline
70
4
71
3
72
40
73
36
40
0
40
0
40
0
40
0
40
0.0312500000000056
40
0.0312500000000056
40
0.0468750000000084
40
0.0468750000000084
40
0.0625000000000112
40
0.0625000000000112
40
0.078125000000014
40
0.078125000000014
40
0.0937500000000168
40
0.0937500000000168
40
0.10937500000002
40
0.10937500000002
40
0.125000000000022
40
0.125000000000022
40
0.140625000000025
40
0.140625000000025
40
0.156250000000028
40
0.156250000000028
40
0.187500000000026
40
0.187500000000026
40
0.250000000000024
40
0.250000000000024
40
0.312500000000022
40
0.312500000000022
40
0.37500000000002
40
0.37500000000002
40
0.500000000000017
40
0.500000000000017
40
0.625000000000013
40
0.625000000000013
40
0.75000000000001
40
0.75000000000001
40
1
40
1
40
1
40
1
41
1
10
447.65725
20
-28.3165319633662
30
0
41
1
10
447.650694943635
20
-28.3239234242036
30
0
41
1
10
447.643856307001
20
-28.330651078575
30
0
41
1
10
447.632828000437
20
-28.3389334077947
30
0
41
1
10
447.629054327816
20
-28.3413469575638
30
0
41
1
10
447.621506084282
20
-28.3451244679169
30
0
41
1
10
447.61764714495
20
-28.3465169283595
30
0
41
1
10
447.610209805759
20
-28.3479542378565
30
0
41
1
10
447.606618079863
20
-28.3480230927691
30
0
41
1
10
447.599698960658
20
-28.3468049851722
30
0
41
1
10
447.596491641375
20
-28.3455348665632
30
0
41
1
10
447.590590250105
20
-28.3419258015728
30
0
41
1
10
447.587881583886
20
-28.339569617078
30
0
41
1
10
447.58304075593
20
-28.3341927602003
30
0
41
1
10
447.580873840228
20
-28.3311525836962
30
0
41
1
10
447.576925875258
20
-28.3245354510127
30
0
41
1
10
447.575146203238
20
-28.3209508487722
30
0
41
1
10
447.571958100517
20
-28.3135187668606
30
0
41
1
10
447.57053716708
20
-28.3096504066547
30
0
41
1
10
447.566674588752
20
-28.297692077033
30
0
41
1
10
447.56462720792
20
-28.2892540480266
30
0
41
1
10
447.559543929198
20
-28.2629984895553
30
0
41
1
10
447.557615467712
20
-28.2447035450773
30
0
41
1
10
447.555271978326
20
-28.2074669079925
30
0
41
1
10
447.554890029934
20
-28.1884644029914
30
0
41
1
10
447.555160723137
20
-28.1499456266489
30
0
41
1
10
447.555822177156
20
-28.1304252360904
30
0
41
1
10
447.558978582121
20
-28.0712707476772
30
0
41
1
10
447.562586786564
20
-28.0316316535324
30
0
41
1
10
447.571676507638
20
-27.9521834580191
30
0
41
1
10
447.577183669213
20
-27.9123493896593
30
0
41
1
10
447.589657597443
20
-27.8325020244824
30
0
41
1
10
447.596630654187
20
-27.7924881911965
30
0
41
1
10
447.619443660266
20
-27.6722048886428
30
0
41
1
10
447.637125569122
20
-27.5916978016569
30
0
41
1
10
447.65725
20
-27.5108818292106
30
0
0
SPLINE
5
216
100
AcDbEntity
8
1
62
256
6
ByLayer
370
18
48
1
60
0
100
AcDbSpline
70
4
71
3
72
8
73
4
40
0
40
0
40
0
40
0
40
1
40
1
40
1
40
1
41
1
10
447.65725
20
-27.5108818292106
30
0
41
1
10
447.940369761457
20
-26.373925510765
30
0
41
1
10
448.165581223844
20
-25.2220587692634
30
0
41
1
10
448.325
20
-24.0532515062564
30
0
0
SPLINE
5
217
100
AcDbEntity
8
1
62
256
6
ByLayer
370
13
48
1
60
0
100
AcDbSpline
70
4
71
3
72
26
73
22
40
0
40
0
40
0
40
0
40
0.0625000000000002
40
0.0625000000000002
40
0.125
40
0.125
40
0.25
40
0.25
40
0.375
40
0.375
40
0.500000000000001
40
0.500000000000001
40
0.625000000000001
40
0.625000000000001
40
0.750000000000001
40
0.750000000000001
40
0.812500000000001
40
0.812500000000001
40
0.875000000000001
40
0.875000000000001
40
1
40
1
40
1
40
1
41
1
10
444.75
20
39.9999999999984
30
0
41
1
10
444.772159482537
20
39.9999999999983
30
0
41
1
10
444.794310860581
20
39.9980605152067
30
0
41
1
10
444.838494204388
20
39.9903023252929
30
0
41
1
10
444.860484536774
20
39.9844904107223
30
0
41
1
10
444.925971759453
20
39.9613089611804
30
0
41
1
10
444.968989879582
20
39.9381972119759
30
0
41
1
10
445.052799644428
20
39.8768345145236
30
0
41
1
10
445.093593841874
20
39.8385835033928
30
0
41
1
10
445.171921382337
20
39.7469895203778
30
0
41
1
10
445.209458265976
20
39.6936467397779
30
0
41
1
10
445.280055843095
20
39.5717867843711
30
0
41
1
10
445.3131222214
20
39.5032701348049
30
0
41
1
10
445.373249546134
20
39.3508399876995
30
0
41
1
10
445.400320933463
20
39.2669275573573
30
0
41
1
10
445.434869742119
20
39.1292222719911
30
0
41
1
10
445.445371596212
20
39.0813441833144
30
0
41
1
10
445.463996918255
20
38.9815813348764
30
0
41
1
10
445.472095585676
20
38.9298318119322
30
0
41
1
10
445.492167463509
20
38.7689746365662
30
0
41
1
10
445.5
20
38.6542634508783
30
0
41
1
10
445.5
20
38.5320121951207
30
0
0
SPLINE
5
218
100
AcDbEntity
8
1
62
256
6
ByLayer
370
13
48
1
60
0
100
AcDbSpline
70
4
71
3
72
20
73
16
40
0
40
0
40
0
40
0
40
0.0624999999999999
40
0.0624999999999999
40
0.125
40
0.125
40
0.25
40
0.25
40
0.5
40
0.5
40
0.75
40
0.75
40
0.875
40
0.875
40
1
40
1
40
1
40
1
41
1
10
444.75
20
-40.0000000000016
30
0
41
1
10
444.75737666923
20
-40.0000000000016
30
0
41
1
10
444.764755724055
20
-39.9986814595499
30
0
41
1
10
444.779467468947
20
-39.9934079837852
30
0
41
1
10
444.786801986609
20
-39.9894528509249
30
0
41
1
10
444.808675442789
20
-39.9736326647415
30
0
41
1
10
444.823062932663
20
-39.9578303456448
30
0
41
1
10
444.865126791693
20
-39.894761639341
30
0
41
1
10
444.891734207204
20
-39.8318512355708
30
0
41
1
10
444.938889082524
20
-39.664430401975
30
0
41
1
10
444.959491764874
20
-39.5599211353641
30
0
41
1
10
444.982343235717
20
-39.3716186516596
30
0
41
1
10
444.988603710846
20
-39.3035499840948
30
0
41
1
10
444.997422339369
20
-39.1571643634394
30
0
41
1
10
445
20
-39.0788199869088
30
0
41
1
10
445
20
-38.9953125000017
30
0
0
SPLINE
5
219
100
AcDbEntity
8
1
62
256
6
ByLayer
370
13
48
1
60
0
100
AcDbSpline
70
4
71
3
72
20
73
16
40
0
40
0
40
0
40
0
40
0.125
40
0.125
40
0.25
40
0.25
40
0.5
40
0.5
40
0.75
40
0.75
40
0.875
40
0.875
40
0.9375
40
0.9375
40
1
40
1
40
1
40
1
41
1
10
445
20
38.9953124999986
30
0
41
1
10
445
20
39.0788199869056
30
0
41
1
10
444.99742233937
20
39.1571643634363
30
0
41
1
10
444.988603710846
20
39.3035499840917
30
0
41
1
10
444.982343235717
20
39.3716186516564
30
0
41
1
10
444.959491764874
20
39.5599211353608
30
0
41
1
10
444.938889082525
20
39.6644304019717
30
0
41
1
10
444.891734207204
20
39.8318512355675
30
0
41
1
10
444.865126791693
20
39.8947616393377
30
0
41
1
10
444.823062932663
20
39.9578303456415
30
0
41
1
10
444.808675442789
20
39.9736326647382
30
0
41
1
10
444.786801986609
20
39.9894528509216
30
0
41
1
10
444.779467468947
20
39.9934079837819
30
0
41
1
10
444.764755724055
20
39.9986814595466
30
0
41
1
10
444.75737666923
20
39.9999999999984
30
0
41
1
10
444.75
20
39.9999999999984
30
0
0
SPLINE
5
21A
100
AcDbEntity
8
SK1
62
256
6
ByLayer
370
18
48
1
60
0
100
AcDbSpline
70
4
71
3
72
11
73
7
40
0
40
0
40
0
40
0
40
0.2388893496862
40
0.497421607755303
40
0.757386725613643
40
1
40
1
40
1
40
1
41
1
10
-0.394913799811391
20
-27.3654112548763
30
0
41
1
10
-0.369683308142882
20
-27.3663394559984
30
0
41
1
10
-0.321111944271308
20
-27.3763891500634
30
0
41
1
10
-0.255177176288598
20
-27.4196125572155
30
0
41
1
10
-0.211247851191516
20
-27.4855974197866
30
0
41
1
10
-0.200957398531429
20
-27.5346319643647
30
0
41
1
10
-0.200000000000102
20
-27.5602884583736
30
0
0
SPLINE
5
21B
100
AcDbEntity
8
SK1
62
256
6
ByLayer
370
18
48
1
60
0
100
AcDbSpline
70
4
71
3
72
11
73
7
40
0
40
0
40
0
40
0
40
0.242613274632052
40
0.502578392599584
40
0.761110650559863
40
1
40
1
40
1
40
1
41
1
10
-0.199999999999903
20
27.5602884593823
30
0
41
1
10
-0.200957398526057
20
27.5346319653141
30
0
41
1
10
-0.211247851186343
20
27.4855974206285
30
0
41
1
10
-0.25517717626208
20
27.4196125578967
30
0
41
1
10
-0.32111194424958
20
27.3763891506148
30
0
41
1
10
-0.36968330813734
20
27.3663394565247
30
0
41
1
10
-0.394913799811192
20
27.3654112553951
30
0
0
SPLINE
5
21C
100
AcDbEntity
8
SK1
62
256
6
ByLayer
370
18
48
1
60
0
100
AcDbSpline
70
4
71
2
72
6
73
3
40
0
40
0
40
0
40
1
40
1
40
1
41
1
10
-46.4999999999999
20
26.4073080746202
30
0
41
1
10
-47.2500000380091
20
25.9743785821416
30
0
41
1
10
-47.9999999999999
20
25.541448947548
30
0
0
SPLINE
5
21D
100
AcDbEntity
8
SK1
62
256
6
ByLayer
370
18
48
1
60
0
100
AcDbSpline
70
4
71
2
72
6
73
3
40
0
40
0
40
0
40
1
40
1
40
1
41
1
10
-48.0000000000001
20
-25.5414493215233
30
0
41
1
10
-47.2500000379547
20
-25.9743789770286
30
0
41
1
10
-46.5000000000001
20
-26.4073084920197
30
0
0
SPLINE
5
21E
100
AcDbEntity
8
SK1
62
256
6
ByLayer
370
18
48
1
60
0
100
AcDbSpline
70
4
71
2
72
6
73
3
40
0
40
0
40
0
40
1
40
1
40
1
41
1
10
-0.394913799811192
20
27.3654109362823
30
0
41
1
10
-1.19497688887543
20
27.3453143410234
30
0
41
1
10
-1.9950399779392
20
27.3252177457659
30
0
0
SPLINE
5
21F
100
AcDbEntity
8
SK1
62
256
6
ByLayer
370
18
48
1
60
0
100
AcDbSpline
70
4
71
2
72
6
73
3
40
0
40
0
40
0
40
1
40
1
40
1
41
1
10
-1.9950399779394
20
-27.3252177453533
30
0
41
1
10
-1.19497688887563
20
-27.3453143405603
30
0
41
1
10
-0.394913799811391
20
-27.3654109357686
30
0
0
SPLINE
5
220
100
AcDbEntity
8
SK1
62
256
6
ByLayer
370
18
48
1
60
0
100
AcDbSpline
70
4
71
3
72
13
73
9
40
0
40
0
40
0
40
0
40
0.239476651984635
40
0.368387280177935
40
0.500029253268045
40
0.631666356502875
40
0.760563560186411
40
1
40
1
40
1
40
1
41
1
10
-1.9950399779392
20
27.325218063952
30
0
41
1
10
-2.0211099020289
20
27.3248162470299
30
0
41
1
10
-2.05883986745019
20
27.3309874079684
30
0
41
1
10
-2.1062765532715
20
27.3540268959373
30
0
41
1
10
-2.13886325113751
20
27.37918954629
30
0
41
1
10
-2.16563551769416
20
27.4104653546574
30
0
41
1
10
-2.19103253553236
20
27.4566758426755
30
0
41
1
10
-2.19909167979034
20
27.4940420737146
30
0
41
1
10
-2.1999999999999
20
27.5200952679265
30
0
0
SPLINE
5
221
100
AcDbEntity
8
SK1
62
256
6
ByLayer
370
18
48
1
60
0
100
AcDbSpline
70
4
71
3
72
13
73
9
40
0
40
0
40
0
40
0
40
0.239436439566014
40
0.368333643169659
40
0.499970746376703
40
0.631612719497151
40
0.760523347771547
40
1
40
1
40
1
40
1
41
1
10
-2.2000000000001
20
-27.5200952670183
30
0
41
1
10
-2.19909167978666
20
-27.4940420728663
30
0
41
1
10
-2.19103253552868
20
-27.4566758419156
30
0
41
1
10
-2.16563551768938
20
-27.4104653540177
30
0
41
1
10
-2.13886325113109
20
-27.3791895457297
30
0
41
1
10
-2.10627655326452
20
-27.3540268954422
30
0
41
1
10
-2.05883986743983
20
-27.3309874075326
30
0
41
1
10
-2.02110990202361
20
-27.3248162466093
30
0
41
1
10
-1.9950399779394
20
-27.3252180635337
30
0
0
SPLINE
5
222
100
AcDbEntity
8
SK1
62
256
6
ByLayer
370
18
48
1
60
0
100
AcDbSpline
70
4
71
2
72
6
73
3
40
0
40
0
40
0
40
1
40
1
40
1
41
1
10
-2.1999999999999
20
27.5062670250574
30
0
41
1
10
-24.3500000023321
20
26.9501984522265
30
0
41
1
10
-46.4999999999999
20
26.3941258787021
30
0
0
SPLINE
5
223
100
AcDbEntity
8
SK1
62
256
6
ByLayer
370
18
48
1
60
0
100
AcDbSpline
70
4
71
2
72
6
73
3
40
0
40
0
40
0
40
1
40
1
40
1
41
1
10
-46.5000000000001
20
-26.39412588177
30
0
41
1
10
-24.3500000023322
20
-26.950198452504
30
0
41
1
10
-2.2000000000001
20
-27.5062670222795
30
0
0
LINE
5
85
100
AcDbEntity
8
SK4
62
256
6
ByLayer
370
18
48
0.05
60
0
100
AcDbLine
10
4
20
0
30
0
11
442
21
0
31
0
39
0
210
0
220
0
230
1
0
LINE
5
87
100
AcDbEntity
8
81
62
256
6
ByLayer
370
18
48
1
60
0
100
AcDbLine
10
448
20
20
30
0
11
453
21
20
31
0
39
0
210
0
220
0
230
1
0
LINE
5
88
100
AcDbEntity
8
4
62
256
6
ByLayer
370
18
48
0.05
60
0
100
AcDbLine
10
442
20
20
30
0
11
448
21
20
31
0
39
0
210
0
220
0
230
1
0
LINE
5
8A
100
AcDbEntity
8
80
62
256
6
ByLayer
370
18
48
1
60
0
100
AcDbLine
10
0
20
0
30
0
11
-5
21
0
31
0
39
0
210
0
220
0
230
1
0
LINE
5
8B
100
AcDbEntity
8
1
62
256
6
ByLayer
370
18
48
1
60
0
100
AcDbLine
10
454.8
20
13.100505
30
0
11
454.8
21
7.100505
31
0
39
0
210
0
220
0
230
1
0
LINE
5
8D
100
AcDbEntity
8
1
62
256
6
ByLayer
370
13
48
1
60
0
100
AcDbLine
10
448.325198
20
7.655005
30
0
11
454.8
21
7.655005
31
0
39
0
210
0
220
0
230
1
0
LINE
5
8E
100
AcDbEntity
8
1
62
256
6
ByLayer
370
13
48
1
60
0
100
AcDbLine
10
448.325198
20
12.546005
30
0
11
454.8
21
12.546005
31
0
39
0
210
0
220
0
230
1
0
LINE
5
8F
100
AcDbEntity
8
1
62
256
6
ByLayer
370
18
48
1
60
0
100
AcDbLine
10
454.8
20
32.899495
30
0
11
454.8
21
26.899495
31
0
39
0
210
0
220
0
230
1
0
LINE
5
90
100
AcDbEntity
8
1
62
256
6
ByLayer
370
13
48
1
60
0
100
AcDbLine
10
448.325198
20
27.453995
30
0
11
454.8
21
27.453995
31
0
39
0
210
0
220
0
230
1
0
LINE
5
91
100
AcDbEntity
8
1
62
256
6
ByLayer
370
13
48
1
60
0
100
AcDbLine
10
448.325198
20
32.344995
30
0
11
454.8
21
32.344995
31
0
39
0
210
0
220
0
230
1
0
LINE
5
92
100
AcDbEntity
8
1
62
256
6
ByLayer
370
18
48
1
60
0
100
AcDbLine
10
454.8
20
-26.899495
30
0
11
454.8
21
-32.899495
31
0
39
0
210
0
220
0
230
1
0
LINE
5
93
100
AcDbEntity
8
1
62
256
6
ByLayer
370
13
48
1
60
0
100
AcDbLine
10
448.325198
20
-32.344995
30
0
11
454.8
21
-32.344995
31
0
39
0
210
0
220
0
230
1
0
LINE
5
94
100
AcDbEntity
8
1
62
256
6
ByLayer
370
13
48
1
60
0
100
AcDbLine
10
448.325198
20
-27.453995
30
0
11
454.8
21
-27.453995
31
0
39
0
210
0
220
0
230
1
0
LINE
5
95
100
AcDbEntity
8
1
62
256
6
ByLayer
370
18
48
1
60
0
100
AcDbLine
10
454.8
20
-7.100505
30
0
11
454.8
21
-13.100505
31
0
39
0
210
0
220
0
230
1
0
LINE
5
96
100
AcDbEntity
8
1
62
256
6
ByLayer
370
13
48
1
60
0
100
AcDbLine
10
448.325198
20
-12.546005
30
0
11
454.8
21
-12.546005
31
0
39
0
210
0
220
0
230
1
0
LINE
5
97
100
AcDbEntity
8
1
62
256
6
ByLayer
370
13
48
1
60
0
100
AcDbLine
10
448.325198
20
-7.655005
30
0
11
454.8
21
-7.655005
31
0
39
0
210
0
220
0
230
1
0
LINE
5
98
100
AcDbEntity
8
1
62
256
6
ByLayer
370
13
48
1
60
0
100
AcDbLine
10
10.105662
20
37.944501
30
0
11
10.105662
21
12.6576
31
0
39
0
210
0
220
0
230
1
0
LINE
5
99
100
AcDbEntity
8
1
62
256
6
ByLayer
370
13
48
1
60
0
100
AcDbLine
10
10.538675
20
38.115458
30
0
11
10.538675
21
12.13309
31
0
39
0
210
0
220
0
230
1
0
LINE
5
9A
100
AcDbEntity
8
1
62
256
6
ByLayer
370
13
48
1
60
0
100
AcDbLine
10
13.461325
20
-12.13309
30
0
11
13.461325
21
-38.115458
31
0
39
0
210
0
220
0
230
1
0
LINE
5
9B
100
AcDbEntity
8
1
62
256
6
ByLayer
370
13
48
1
60
0
100
AcDbLine
10
13.894338
20
-12.6576
30
0
11
13.894338
21
-37.944501
31
0
39
0
210
0
220
0
230
1
0
LINE
5
9C
100
AcDbEntity
8
1
62
256
6
ByLayer
370
13
48
1
60
0
100
AcDbLine
10
13.461325
20
38.115458
30
0
11
13.461325
21
12.13309
31
0
39
0
210
0
220
0
230
1
0
LINE
5
9D
100
AcDbEntity
8
1
62
256
6
ByLayer
370
13
48
1
60
0
100
AcDbLine
10
13.894338
20
37.944501
30
0
11
13.894338
21
12.6576
31
0
39
0
210
0
220
0
230
1
0
LINE
5
9E
100
AcDbEntity
8
1
62
256
6
ByLayer
370
13
48
1
60
0
100
AcDbLine
10
10.105662
20
-12.6576
30
0
11
10.105662
21
-37.944501
31
0
39
0
210
0
220
0
230
1
0
LINE
5
9F
100
AcDbEntity
8
1
62
256
6
ByLayer
370
13
48
1
60
0
100
AcDbLine
10
10.538675
20
-12.13309
30
0
11
10.538675
21
-38.115458
31
0
39
0
210
0
220
0
230
1
0
LINE
5
A0
100
AcDbEntity
8
1
62
256
6
ByLayer
370
18
48
1
60
0
100
AcDbLine
10
0
20
-39.7
30
0
11
0
21
39.7
31
0
39
0
210
0
220
0
230
1
0
LINE
5
A1
100
AcDbEntity
8
1
62
256
6
ByLayer
370
18
48
1
60
0
100
AcDbLine
10
0.3
20
-40
30
0
11
0.3
21
40
31
0
39
0
210
0
220
0
230
1
0
LINE
5
A2
100
AcDbEntity
8
1
62
256
6
ByLayer
370
18
48
1
60
0
100
AcDbLine
10
13.461325
20
12.13309
30
0
11
10.538675
21
12.13309
31
0
39
0
210
0
220
0
230
1
0
LINE
5
A3
100
AcDbEntity
8
1
62
256
6
ByLayer
370
18
48
1
60
0
100
AcDbLine
10
10.538675
20
38.115458
30
0
11
13.461325
21
38.115458
31
0
39
0
210
0
220
0
230
1
0
LINE
5
A4
100
AcDbEntity
8
1
62
256
6
ByLayer
370
18
48
1
60
0
100
AcDbLine
10
10.538675
20
-12.13309
30
0
11
13.461325
21
-12.13309
31
0
39
0
210
0
220
0
230
1
0
LINE
5
A5
100
AcDbEntity
8
1
62
256
6
ByLayer
370
18
48
1
60
0
100
AcDbLine
10
13.461325
20
-38.115458
30
0
11
10.538675
21
-38.115458
31
0
39
0
210
0
220
0
230
1
0
LINE
5
A6
100
AcDbEntity
8
1
62
256
6
ByLayer
370
13
48
1
60
0
100
AcDbLine
10
441.8
20
40
30
0
11
441.8
21
-40
31
0
39
0
210
0
220
0
230
1
0
LINE
5
A7
100
AcDbEntity
8
1
62
256
6
ByLayer
370
18
48
1
60
0
100
AcDbLine
10
442
20
39.8
30
0
11
442
21
-39.8
31
0
39
0
210
0
220
0
230
1
0
LINE
5
A8
100
AcDbEntity
8
SK1
62
256
6
ByLayer
370
18
48
1
60
0
100
AcDbLine
10
-0.2
20
-6.552277
30
0
11
-0.2
21
-28.683485
31
0
39
0
210
0
220
0
230
1
0
LINE
5
AA
100
AcDbEntity
8
SK1
62
256
6
ByLayer
370
18
48
1
60
0
100
AcDbLine
10
-0.2
20
28.683485
30
0
11
-0.2
21
6.552279
31
0
39
0
210
0
220
0
230
1
0
LINE
5
AB
100
AcDbEntity
8
SK1
62
256
6
ByLayer
370
13
48
1
60
0
100
AcDbLine
10
-1.307107
20
4.393309
30
0
11
-1.307107
21
-4.393312
31
0
39
0
210
0
220
0
230
1
0
LINE
5
AC
100
AcDbEntity
8
1
62
256
6
ByLayer
370
13
48
1
60
0
100
AcDbLine
10
454.8
20
13.100505
30
0
11
454.8
21
10.100505
31
0
39
0
210
0
220
0
230
1
0
LINE
5
AD
100
AcDbEntity
8
1
62
256
6
ByLayer
370
13
48
1
60
0
100
AcDbLine
10
454.8
20
10.100505
30
0
11
454.8
21
7.100505
31
0
39
0
210
0
220
0
230
1
0
LINE
5
AE
100
AcDbEntity
8
1
62
256
6
ByLayer
370
18
48
1
60
0
100
AcDbLine
10
455
20
5.100505
30
0
11
455
21
10.100505
31
0
39
0
210
0
220
0
230
1
0
LINE
5
AF
100
AcDbEntity
8
1
62
256
6
ByLayer
370
18
48
1
60
0
100
AcDbLine
10
455
20
10.100505
30
0
11
455
21
15.100505
31
0
39
0
210
0
220
0
230
1
0
LINE
5
B0
100
AcDbEntity
8
1
62
256
6
ByLayer
370
13
48
1
60
0
100
AcDbLine
10
460.4
20
15.100505
30
0
11
460.4
21
10.100505
31
0
39
0
210
0
220
0
230
1
0
LINE
5
B1
100
AcDbEntity
8
1
62
256
6
ByLayer
370
13
48
1
60
0
100
AcDbLine
10
460.4
20
10.100505
30
0
11
460.4
21
5.100505
31
0
39
0
210
0
220
0
230
1
0
LINE
5
B2
100
AcDbEntity
8
1
62
256
6
ByLayer
370
18
48
1
60
0
100
AcDbLine
10
461
20
5.700505
30
0
11
461
21
10.100505
31
0
39
0
210
0
220
0
230
1
0
LINE
5
B3
100
AcDbEntity
8
1
62
256
6
ByLayer
370
18
48
1
60
0
100
AcDbLine
10
461
20
10.100505
30
0
11
461
21
14.500505
31
0
39
0
210
0
220
0
230
1
0
LINE
5
B4
100
AcDbEntity
8
1
62
256
6
ByLayer
370
13
48
1
60
0
100
AcDbLine
10
454.8
20
32.899495
30
0
11
454.8
21
26.899495
31
0
39
0
210
0
220
0
230
1
0
LINE
5
B5
100
AcDbEntity
8
1
62
256
6
ByLayer
370
18
48
1
60
0
100
AcDbLine
10
455
20
34.899495
30
0
11
455
21
24.899495
31
0
39
0
210
0
220
0
230
1
0
LINE
5
B6
100
AcDbEntity
8
1
62
256
6
ByLayer
370
13
48
1
60
0
100
AcDbLine
10
460.4
20
34.899495
30
0
11
460.4
21
24.899495
31
0
39
0
210
0
220
0
230
1
0
LINE
5
B7
100
AcDbEntity
8
1
62
256
6
ByLayer
370
18
48
1
60
0
100
AcDbLine
10
461
20
34.299495
30
0
11
461
21
25.499495
31
0
39
0
210
0
220
0
230
1
0
LINE
5
B8
100
AcDbEntity
8
1
62
256
6
ByLayer
370
18
48
1
60
0
100
AcDbLine
10
448.325
20
38.887548
30
0
11
448.325
21
38.976863
31
0
39
0
210
0
220
0
230
1
0
LINE
5
B9
100
AcDbEntity
8
1
62
256
6
ByLayer
370
18
48
1
60
0
100
AcDbLine
10
448.325
20
-38.976863
30
0
11
448.325
21
-38.887548
31
0
39
0
210
0
220
0
230
1
0
LINE
5
BA
100
AcDbEntity
8
1
62
256
6
ByLayer
370
13
48
1
60
0
100
AcDbLine
10
447.65725
20
-39.623209
30
0
11
447.65725
21
-39.596101
31
0
39
0
210
0
220
0
230
1
0
LINE
5
BB
100
AcDbEntity
8
1
62
256
6
ByLayer
370
13
48
1
60
0
100
AcDbLine
10
447.65725
20
39.596101
30
0
11
447.65725
21
39.623209
31
0
39
0
210
0
220
0
230
1
0
LINE
5
BC
100
AcDbEntity
8
1
62
256
6
ByLayer
370
18
48
1
60
0
100
AcDbLine
10
448.325
20
-38.843015
30
0
11
448.325
21
-38.662859
31
0
39
0
210
0
220
0
230
1
0
LINE
5
BD
100
AcDbEntity
8
1
62
256
6
ByLayer
370
18
48
1
60
0
100
AcDbLine
10
448.325
20
38.662859
30
0
11
448.325
21
38.843015
31
0
39
0
210
0
220
0
230
1
0
LINE
5
BE
100
AcDbEntity
8
1
62
256
6
ByLayer
370
13
48
1
60
0
100
AcDbLine
10
447.65725
20
-39.464112
30
0
11
447.65725
21
-39.409252
31
0
39
0
210
0
220
0
230
1
0
LINE
5
BF
100
AcDbEntity
8
1
62
256
6
ByLayer
370
13
48
1
60
0
100
AcDbLine
10
447.65725
20
39.409252
30
0
11
447.65725
21
39.464112
31
0
39
0
210
0
220
0
230
1
0
LINE
5
C0
100
AcDbEntity
8
1
62
256
6
ByLayer
370
18
48
1
60
0
100
AcDbLine
10
448.325
20
-38.587552
30
0
11
448.325
21
-38.312939
31
0
39
0
210
0
220
0
230
1
0
LINE
5
C1
100
AcDbEntity
8
1
62
256
6
ByLayer
370
18
48
1
60
0
100
AcDbLine
10
448.325
20
38.312939
30
0
11
448.325
21
38.587552
31
0
39
0
210
0
220
0
230
1
0
LINE
5
C2
100
AcDbEntity
8
1
62
256
6
ByLayer
370
13
48
1
60
0
100
AcDbLine
10
447.65725
20
39.103454
30
0
11
447.65725
21
39.186791
31
0
39
0
210
0
220
0
230
1
0
LINE
5
C3
100
AcDbEntity
8
1
62
256
6
ByLayer
370
13
48
1
60
0
100
AcDbLine
10
447.65725
20
-39.186791
30
0
11
447.65725
21
-39.103454
31
0
39
0
210
0
220
0
230
1
0
LINE
5
C4
100
AcDbEntity
8
1
62
256
6
ByLayer
370
18
48
1
60
0
100
AcDbLine
10
448.325
20
-38.205356
30
0
11
448.325
21
-37.830533
31
0
39
0
210
0
220
0
230
1
0
LINE
5
C5
100
AcDbEntity
8
1
62
256
6
ByLayer
370
18
48
1
60
0
100
AcDbLine
10
448.325
20
37.830533
30
0
11
448.325
21
38.205356
31
0
39
0
210
0
220
0
230
1
0
LINE
5
C6
100
AcDbEntity
8
1
62
256
6
ByLayer
370
13
48
1
60
0
100
AcDbLine
10
447.65725
20
-38.786012
30
0
11
447.65725
21
-38.672078
31
0
39
0
210
0
220
0
230
1
0
LINE
5
C7
100
AcDbEntity
8
1
62
256
6
ByLayer
370
13
48
1
60
0
100
AcDbLine
10
447.65725
20
38.672078
30
0
11
447.65725
21
38.786012
31
0
39
0
210
0
220
0
230
1
0
LINE
5
C8
100
AcDbEntity
8
1
62
256
6
ByLayer
370
18
48
1
60
0
100
AcDbLine
10
448.325
20
-37.688213
30
0
11
448.325
21
-37.204427
31
0
39
0
210
0
220
0
230
1
0
LINE
5
C9
100
AcDbEntity
8
1
62
256
6
ByLayer
370
18
48
1
60
0
100
AcDbLine
10
448.325
20
37.204427
30
0
11
448.325
21
37.688213
31
0
39
0
210
0
220
0
230
1
0
LINE
5
CA
100
AcDbEntity
8
1
62
256
6
ByLayer
370
13
48
1
60
0
100
AcDbLine
10
447.65725
20
-38.253645
30
0
11
447.65725
21
-38.10742
31
0
39
0
210
0
220
0
230
1
0
LINE
5
CB
100
AcDbEntity
8
1
62
256
6
ByLayer
370
13
48
1
60
0
100
AcDbLine
10
447.65725
20
38.10742
30
0
11
447.65725
21
38.253645
31
0
39
0
210
0
220
0
230
1
0
LINE
5
CC
100
AcDbEntity
8
1
62
256
6
ByLayer
370
18
48
1
60
0
100
AcDbLine
10
448.325
20
-37.023829
30
0
11
448.325
21
-36.418146
31
0
39
0
210
0
220
0
230
1
0
LINE
5
CD
100
AcDbEntity
8
1
62
256
6
ByLayer
370
18
48
1
60
0
100
AcDbLine
10
448.325
20
36.418146
30
0
11
448.325
21
37.023829
31
0
39
0
210
0
220
0
230
1
0
LINE
5
CE
100
AcDbEntity
8
1
62
256
6
ByLayer
370
13
48
1
60
0
100
AcDbLine
10
447.65725
20
-37.577738
30
0
11
447.65725
21
-37.395404
31
0
39
0
210
0
220
0
230
1
0
LINE
5
CF
100
AcDbEntity
8
1
62
256
6
ByLayer
370
13
48
1
60
0
100
AcDbLine
10
447.65725
20
37.395404
30
0
11
447.65725
21
37.577738
31
0
39
0
210
0
220
0
230
1
0
LINE
5
D0
100
AcDbEntity
8
1
62
256
6
ByLayer
370
18
48
1
60
0
100
AcDbLine
10
448.325
20
-36.194093
30
0
11
448.325
21
-35.447252
31
0
39
0
210
0
220
0
230
1
0
LINE
5
D1
100
AcDbEntity
8
1
62
256
6
ByLayer
370
18
48
1
60
0
100
AcDbLine
10
448.325
20
35.447252
30
0
11
448.325
21
36.194093
31
0
39
0
210
0
220
0
230
1
0
LINE
5
D2
100
AcDbEntity
8
1
62
256
6
ByLayer
370
13
48
1
60
0
100
AcDbLine
10
447.65725
20
-36.740913
30
0
11
447.65725
21
-36.517233
31
0
39
0
210
0
220
0
230
1
0
LINE
5
D3
100
AcDbEntity
8
1
62
256
6
ByLayer
370
13
48
1
60
0
100
AcDbLine
10
447.65725
20
36.517233
30
0
11
447.65725
21
36.740913
31
0
39
0
210
0
220
0
230
1
0
LINE
5
D4
100
AcDbEntity
8
1
62
256
6
ByLayer
370
18
48
1
60
0
100
AcDbLine
10
448.325
20
-35.171899
30
0
11
448.325
21
-34.254127
31
0
39
0
210
0
220
0
230
1
0
LINE
5
D5
100
AcDbEntity
8
1
62
256
6
ByLayer
370
18
48
1
60
0
100
AcDbLine
10
448.325
20
-4.769016
30
0
11
448.325
21
4.769016
31
0
39
0
210
0
220
0
230
1
0
LINE
5
D6
100
AcDbEntity
8
1
62
256
6
ByLayer
370
18
48
1
60
0
100
AcDbLine
10
448.325
20
34.254127
30
0
11
448.325
21
35.171899
31
0
39
0
210
0
220
0
230
1
0
LINE
5
D7
100
AcDbEntity
8
1
62
256
6
ByLayer
370
13
48
1
60
0
100
AcDbLine
10
447.65725
20
-35.71749
30
0
11
447.65725
21
-35.444653
31
0
39
0
210
0
220
0
230
1
0
LINE
5
D8
100
AcDbEntity
8
1
62
256
6
ByLayer
370
13
48
1
60
0
100
AcDbLine
10
447.65725
20
35.444653
30
0
11
447.65725
21
35.71749
31
0
39
0
210
0
220
0
230
1
0
LINE
5
D9
100
AcDbEntity
8
1
62
256
6
ByLayer
370
18
48
1
60
0
100
AcDbLine
10
448.325
20
5.51781
30
0
11
448.325
21
7.203252
31
0
39
0
210
0
220
0
230
1
0
LINE
5
DA
100
AcDbEntity
8
1
62
256
6
ByLayer
370
18
48
1
60
0
100
AcDbLine
10
448.325
20
32.776617
30
0
11
448.325
21
33.914899
31
0
39
0
210
0
220
0
230
1
0
LINE
5
DB
100
AcDbEntity
8
1
62
256
6
ByLayer
370
18
48
1
60
0
100
AcDbLine
10
448.325
20
-33.914899
30
0
11
448.325
21
-32.776617
31
0
39
0
210
0
220
0
230
1
0
LINE
5
DC
100
AcDbEntity
8
1
62
256
6
ByLayer
370
18
48
1
60
0
100
AcDbLine
10
448.325
20
-7.203252
30
0
11
448.325
21
-5.51781
31
0
39
0
210
0
220
0
230
1
0
LINE
5
DD
100
AcDbEntity
8
1
62
256
6
ByLayer
370
13
48
1
60
0
100
AcDbLine
10
447.65725
20
-34.467923
30
0
11
447.65725
21
-34.133378
31
0
39
0
210
0
220
0
230
1
0
LINE
5
DE
100
AcDbEntity
8
1
62
256
6
ByLayer
370
13
48
1
60
0
100
AcDbLine
10
447.65725
20
-5.469579
30
0
11
447.65725
21
-4.813001
31
0
39
0
210
0
220
0
230
1
0
LINE
5
DF
100
AcDbEntity
8
1
62
256
6
ByLayer
370
13
48
1
60
0
100
AcDbLine
10
447.65725
20
4.813001
30
0
11
447.65725
21
5.469579
31
0
39
0
210
0
220
0
230
1
0
LINE
5
E0
100
AcDbEntity
8
1
62
256
6
ByLayer
370
13
48
1
60
0
100
AcDbLine
10
447.65725
20
34.133378
30
0
11
447.65725
21
34.467923
31
0
39
0
210
0
220
0
230
1
0
LINE
5
E1
100
AcDbEntity
8
1
62
256
6
ByLayer
370
18
48
1
60
0
100
AcDbLine
10
448.325
20
-7.540984
30
0
11
448.325
21
-7.648389
31
0
39
0
210
0
220
0
230
1
0
LINE
5
E2
100
AcDbEntity
8
1
62
256
6
ByLayer
370
18
48
1
60
0
100
AcDbLine
10
448.325
20
7.648389
30
0
11
448.325
21
7.540984
31
0
39
0
210
0
220
0
230
1
0
LINE
5
E3
100
AcDbEntity
8
1
62
256
6
ByLayer
370
18
48
1
60
0
100
AcDbLine
10
448.325
20
7.648389
30
0
11
448.325
21
9.100476
31
0
39
0
210
0
220
0
230
1
0
LINE
5
E4
100
AcDbEntity
8
1
62
256
6
ByLayer
370
18
48
1
60
0
100
AcDbLine
10
448.325
20
30.899524
30
0
11
448.325
21
32.351611
31
0
39
0
210
0
220
0
230
1
0
LINE
5
E5
100
AcDbEntity
8
1
62
256
6
ByLayer
370
18
48
1
60
0
100
AcDbLine
10
448.325
20
-32.351611
30
0
11
448.325
21
-30.899524
31
0
39
0
210
0
220
0
230
1
0
LINE
5
E6
100
AcDbEntity
8
1
62
256
6
ByLayer
370
18
48
1
60
0
100
AcDbLine
10
448.325
20
-9.100476
30
0
11
448.325
21
-7.648389
31
0
39
0
210
0
220
0
230
1
0
LINE
5
E7
100
AcDbEntity
8
1
62
256
6
ByLayer
370
13
48
1
60
0
100
AcDbLine
10
448.325
20
-7.540984
30
0
11
447.803799
21
-7.199213
31
0
39
0
210
0
220
0
230
1
0
LINE
5
E8
100
AcDbEntity
8
1
62
256
6
ByLayer
370
18
48
1
60
0
100
AcDbLine
10
448.325
20
-7.203277
30
0
11
448.325
21
-7.540984
31
0
39
0
210
0
220
0
230
1
0
LINE
5
E9
100
AcDbEntity
8
1
62
256
6
ByLayer
370
18
48
1
60
0
100
AcDbLine
10
448.325
20
-4.769026
30
0
11
448.325
21
-5.51781
31
0
39
0
210
0
220
0
230
1
0
LINE
5
EA
100
AcDbEntity
8
1
62
256
6
ByLayer
370
18
48
1
60
0
100
AcDbLine
10
448.325
20
5.51781
30
0
11
448.325
21
4.769026
31
0
39
0
210
0
220
0
230
1
0
LINE
5
EB
100
AcDbEntity
8
1
62
256
6
ByLayer
370
18
48
1
60
0
100
AcDbLine
10
448.325
20
7.540984
30
0
11
448.325
21
7.203277
31
0
39
0
210
0
220
0
230
1
0
LINE
5
EC
100
AcDbEntity
8
1
62
256
6
ByLayer
370
13
48
1
60
0
100
AcDbLine
10
447.803799
20
7.199213
30
0
11
448.325
21
7.540984
31
0
39
0
210
0
220
0
230
1
0
LINE
5
ED
100
AcDbEntity
8
1
62
256
6
ByLayer
370
18
48
1
60
0
100
AcDbLine
10
447.325
20
-6.885246
30
0
11
447.325
21
6.885246
31
0
39
0
210
0
220
0
230
1
0
LINE
5
EE
100
AcDbEntity
8
1
62
256
6
ByLayer
370
13
48
1
60
0
100
AcDbLine
10
447.65725
20
-32.926797
30
0
11
447.65725
21
-32.508693
31
0
39
0
210
0
220
0
230
1
0
LINE
5
EF
100
AcDbEntity
8
1
62
256
6
ByLayer
370
13
48
1
60
0
100
AcDbLine
10
447.65725
20
-7.491134
30
0
11
447.65725
21
-7.07303
31
0
39
0
210
0
220
0
230
1
0
LINE
5
F0
100
AcDbEntity
8
1
62
256
6
ByLayer
370
13
48
1
60
0
100
AcDbLine
10
447.65725
20
7.07303
30
0
11
447.65725
21
7.491134
31
0
39
0
210
0
220
0
230
1
0
LINE
5
F1
100
AcDbEntity
8
1
62
256
6
ByLayer
370
13
48
1
60
0
100
AcDbLine
10
447.65725
20
32.508693
30
0
11
447.65725
21
32.926797
31
0
39
0
210
0
220
0
230
1
0
LINE
5
F2
100
AcDbEntity
8
1
62
256
6
ByLayer
370
13
48
1
60
0
100
AcDbLine
10
445.5
20
6.885246
30
0
11
445.5
21
-6.885246
31
0
39
0
210
0
220
0
230
1
0
LINE
5
F3
100
AcDbEntity
8
1
62
256
6
ByLayer
370
18
48
1
60
0
100
AcDbLine
10
448.325
20
-30.344089
30
0
11
448.325
21
-28.358347
31
0
39
0
210
0
220
0
230
1
0
LINE
5
F4
100
AcDbEntity
8
1
62
256
6
ByLayer
370
18
48
1
60
0
100
AcDbLine
10
448.325
20
-11.641653
30
0
11
448.325
21
-9.655911
31
0
39
0
210
0
220
0
230
1
0
LINE
5
F5
100
AcDbEntity
8
1
62
256
6
ByLayer
370
18
48
1
60
0
100
AcDbLine
10
448.325
20
9.655911
30
0
11
448.325
21
11.641653
31
0
39
0
210
0
220
0
230
1
0
LINE
5
F6
100
AcDbEntity
8
1
62
256
6
ByLayer
370
18
48
1
60
0
100
AcDbLine
10
448.325
20
28.358347
30
0
11
448.325
21
30.344089
31
0
39
0
210
0
220
0
230
1
0
LINE
5
F7
100
AcDbEntity
8
1
62
256
6
ByLayer
370
13
48
1
60
0
100
AcDbLine
10
447.65725
20
-30.971937
30
0
11
447.65725
21
-30.425397
31
0
39
0
210
0
220
0
230
1
0
LINE
5
F8
100
AcDbEntity
8
1
62
256
6
ByLayer
370
13
48
1
60
0
100
AcDbLine
10
447.65725
20
-9.574603
30
0
11
447.65725
21
-9.028063
31
0
39
0
210
0
220
0
230
1
0
LINE
5
F9
100
AcDbEntity
8
1
62
256
6
ByLayer
370
13
48
1
60
0
100
AcDbLine
10
447.65725
20
9.028063
30
0
11
447.65725
21
9.574603
31
0
39
0
210
0
220
0
230
1
0
LINE
5
FA
100
AcDbEntity
8
1
62
256
6
ByLayer
370
13
48
1
60
0
100
AcDbLine
10
447.65725
20
30.425397
30
0
11
447.65725
21
30.971937
31
0
39
0
210
0
220
0
230
1
0
LINE
5
FB
100
AcDbEntity
8
1
62
256
6
ByLayer
370
18
48
1
60
0
100
AcDbLine
10
448.325
20
-27.545731
30
0
11
448.325
21
-24.053236
31
0
39
0
210
0
220
0
230
1
0
LINE
5
FC
100
AcDbEntity
8
1
62
256
6
ByLayer
370
18
48
1
60
0
100
AcDbLine
10
448.325
20
-15.946764
30
0
11
448.325
21
-12.454269
31
0
39
0
210
0
220
0
230
1
0
LINE
5
FD
100
AcDbEntity
8
1
62
256
6
ByLayer
370
18
48
1
60
0
100
AcDbLine
10
448.325
20
12.454269
30
0
11
448.325
21
15.946764
31
0
39
0
210
0
220
0
230
1
0
LINE
5
FE
100
AcDbEntity
8
1
62
256
6
ByLayer
370
18
48
1
60
0
100
AcDbLine
10
448.325
20
24.053236
30
0
11
448.325
21
27.545731
31
0
39
0
210
0
220
0
230
1
0
LINE
5
FF
100
AcDbEntity
8
1
62
256
6
ByLayer
370
13
48
1
60
0
100
AcDbLine
10
447.65725
20
-28.316532
30
0
11
447.65725
21
-27.510868
31
0
39
0
210
0
220
0
230
1
0
LINE
5
100
100
AcDbEntity
8
1
62
256
6
ByLayer
370
13
48
1
60
0
100
AcDbLine
10
447.65725
20
-12.489132
30
0
11
447.65725
21
-11.683468
31
0
39
0
210
0
220
0
230
1
0
LINE
5
101
100
AcDbEntity
8
1
62
256
6
ByLayer
370
13
48
1
60
0
100
AcDbLine
10
447.65725
20
11.683468
30
0
11
447.65725
21
12.489132
31
0
39
0
210
0
220
0
230
1
0
LINE
5
102
100
AcDbEntity
8
1
62
256
6
ByLayer
370
13
48
1
60
0
100
AcDbLine
10
447.65725
20
27.510868
30
0
11
447.65725
21
28.316532
31
0
39
0
210
0
220
0
230
1
0
LINE
5
103
100
AcDbEntity
8
1
62
256
6
ByLayer
370
18
48
1
60
0
100
AcDbLine
10
448.325
20
18.458593
30
0
11
448.325
21
21.541407
31
0
39
0
210
0
220
0
230
1
0
LINE
5
104
100
AcDbEntity
8
1
62
256
6
ByLayer
370
18
48
1
60
0
100
AcDbLine
10
448.325
20
-21.541407
30
0
11
448.325
21
-18.458593
31
0
39
0
210
0
220
0
230
1
0
LINE
5
105
100
AcDbEntity
8
1
62
256
6
ByLayer
370
13
48
1
60
0
100
AcDbLine
10
447.65725
20
-23.66688
30
0
11
447.65725
21
-16.33312
31
0
39
0
210
0
220
0
230
1
0
LINE
5
106
100
AcDbEntity
8
1
62
256
6
ByLayer
370
13
48
1
60
0
100
AcDbLine
10
447.65725
20
16.33312
30
0
11
447.65725
21
23.66688
31
0
39
0
210
0
220
0
230
1
0
LINE
5
107
100
AcDbEntity
8
1
62
256
6
ByLayer
370
13
48
1
60
0
100
AcDbLine
10
445.5
20
-6.885246
30
0
11
447.325
21
-6.885246
31
0
39
0
210
0
220
0
230
1
0
LINE
5
108
100
AcDbEntity
8
1
62
256
6
ByLayer
370
18
48
1
60
0
100
AcDbLine
10
448.325
20
18.458593
30
0
11
448.325
21
15.946748
31
0
39
0
210
0
220
0
230
1
0
LINE
5
109
100
AcDbEntity
8
1
62
256
6
ByLayer
370
18
48
1
60
0
100
AcDbLine
10
448.325
20
24.053252
30
0
11
448.325
21
21.541407
31
0
39
0
210
0
220
0
230
1
0
LINE
5
10A
100
AcDbEntity
8
1
62
256
6
ByLayer
370
18
48
1
60
0
100
AcDbLine
10
448.325
20
28.358632
30
0
11
448.325
21
27.545731
31
0
39
0
210
0
220
0
230
1
0
LINE
5
10B
100
AcDbEntity
8
1
62
256
6
ByLayer
370
18
48
1
60
0
100
AcDbLine
10
448.325
20
30.899753
30
0
11
448.325
21
30.344089
31
0
39
0
210
0
220
0
230
1
0
LINE
5
10C
100
AcDbEntity
8
1
62
256
6
ByLayer
370
18
48
1
60
0
100
AcDbLine
10
448.325
20
32.776639
30
0
11
448.325
21
32.351611
31
0
39
0
210
0
220
0
230
1
0
LINE
5
10D
100
AcDbEntity
8
1
62
256
6
ByLayer
370
18
48
1
60
0
100
AcDbLine
10
448.325
20
34.254136
30
0
11
448.325
21
33.914899
31
0
39
0
210
0
220
0
230
1
0
LINE
5
10E
100
AcDbEntity
8
1
62
256
6
ByLayer
370
18
48
1
60
0
100
AcDbLine
10
448.325
20
35.447274
30
0
11
448.325
21
35.171899
31
0
39
0
210
0
220
0
230
1
0
LINE
5
10F
100
AcDbEntity
8
1
62
256
6
ByLayer
370
18
48
1
60
0
100
AcDbLine
10
448.325
20
36.418165
30
0
11
448.325
21
36.194093
31
0
39
0
210
0
220
0
230
1
0
LINE
5
110
100
AcDbEntity
8
1
62
256
6
ByLayer
370
18
48
1
60
0
100
AcDbLine
10
448.325
20
37.204477
30
0
11
448.325
21
37.023829
31
0
39
0
210
0
220
0
230
1
0
LINE
5
111
100
AcDbEntity
8
1
62
256
6
ByLayer
370
18
48
1
60
0
100
AcDbLine
10
448.325
20
37.830645
30
0
11
448.325
21
37.688213
31
0
39
0
210
0
220
0
230
1
0
LINE
5
112
100
AcDbEntity
8
1
62
256
6
ByLayer
370
18
48
1
60
0
100
AcDbLine
10
448.325
20
38.313105
30
0
11
448.325
21
38.205356
31
0
39
0
210
0
220
0
230
1
0
LINE
5
113
100
AcDbEntity
8
1
62
256
6
ByLayer
370
18
48
1
60
0
100
AcDbLine
10
448.325
20
38.663003
30
0
11
448.325
21
38.587552
31
0
39
0
210
0
220
0
230
1
0
LINE
5
114
100
AcDbEntity
8
1
62
256
6
ByLayer
370
18
48
1
60
0
100
AcDbLine
10
448.325
20
38.887709
30
0
11
448.325
21
38.843015
31
0
39
0
210
0
220
0
230
1
0
LINE
5
115
100
AcDbEntity
8
1
62
256
6
ByLayer
370
18
48
1
60
0
100
AcDbLine
10
448.325
20
38.991668
30
0
11
448.325
21
38.976863
31
0
39
0
210
0
220
0
230
1
0
LINE
5
116
100
AcDbEntity
8
1
62
256
6
ByLayer
370
13
48
1
60
0
100
AcDbLine
10
447.325
20
6.885246
30
0
11
447.575582
21
7.049562
31
0
39
0
210
0
220
0
230
1
0
LINE
5
117
100
AcDbEntity
8
1
62
256
6
ByLayer
370
18
48
1
60
0
100
AcDbLine
10
448.325
20
9.655911
30
0
11
448.325
21
9.100247
31
0
39
0
210
0
220
0
230
1
0
LINE
5
118
100
AcDbEntity
8
1
62
256
6
ByLayer
370
18
48
1
60
0
100
AcDbLine
10
448.325
20
12.454269
30
0
11
448.325
21
11.641368
31
0
39
0
210
0
220
0
230
1
0
LINE
5
119
100
AcDbEntity
8
1
62
256
6
ByLayer
370
18
48
1
60
0
100
AcDbLine
10
448.325
20
-21.541407
30
0
11
448.325
21
-24.053252
31
0
39
0
210
0
220
0
230
1
0
LINE
5
11A
100
AcDbEntity
8
1
62
256
6
ByLayer
370
18
48
1
60
0
100
AcDbLine
10
448.325
20
-15.946748
30
0
11
448.325
21
-18.458593
31
0
39
0
210
0
220
0
230
1
0
LINE
5
11B
100
AcDbEntity
8
1
62
256
6
ByLayer
370
18
48
1
60
0
100
AcDbLine
10
448.325
20
-11.641368
30
0
11
448.325
21
-12.454269
31
0
39
0
210
0
220
0
230
1
0
LINE
5
11C
100
AcDbEntity
8
1
62
256
6
ByLayer
370
18
48
1
60
0
100
AcDbLine
10
448.325
20
-9.100247
30
0
11
448.325
21
-9.655911
31
0
39
0
210
0
220
0
230
1
0
LINE
5
11D
100
AcDbEntity
8
1
62
256
6
ByLayer
370
13
48
1
60
0
100
AcDbLine
10
447.575582
20
-7.049562
30
0
11
447.325
21
-6.885246
31
0
39
0
210
0
220
0
230
1
0
LINE
5
11E
100
AcDbEntity
8
1
62
256
6
ByLayer
370
18
48
1
60
0
100
AcDbLine
10
447.325
20
-6.885246
30
0
11
447.325
21
-40
31
0
39
0
210
0
220
0
230
1
0
LINE
5
11F
100
AcDbEntity
8
1
62
256
6
ByLayer
370
18
48
1
60
0
100
AcDbLine
10
448.325
20
-38.976863
30
0
11
448.325
21
-38.991668
31
0
39
0
210
0
220
0
230
1
0
LINE
5
120
100
AcDbEntity
8
1
62
256
6
ByLayer
370
18
48
1
60
0
100
AcDbLine
10
448.325
20
-38.843015
30
0
11
448.325
21
-38.887709
31
0
39
0
210
0
220
0
230
1
0
LINE
5
121
100
AcDbEntity
8
1
62
256
6
ByLayer
370
18
48
1
60
0
100
AcDbLine
10
448.325
20
-38.587552
30
0
11
448.325
21
-38.663003
31
0
39
0
210
0
220
0
230
1
0
LINE
5
122
100
AcDbEntity
8
1
62
256
6
ByLayer
370
18
48
1
60
0
100
AcDbLine
10
448.325
20
-38.205356
30
0
11
448.325
21
-38.313105
31
0
39
0
210
0
220
0
230
1
0
LINE
5
123
100
AcDbEntity
8
1
62
256
6
ByLayer
370
18
48
1
60
0
100
AcDbLine
10
448.325
20
-37.688213
30
0
11
448.325
21
-37.830645
31
0
39
0
210
0
220
0
230
1
0
LINE
5
124
100
AcDbEntity
8
1
62
256
6
ByLayer
370
18
48
1
60
0
100
AcDbLine
10
448.325
20
-37.023829
30
0
11
448.325
21
-37.204477
31
0
39
0
210
0
220
0
230
1
0
LINE
5
125
100
AcDbEntity
8
1
62
256
6
ByLayer
370
18
48
1
60
0
100
AcDbLine
10
448.325
20
-36.194093
30
0
11
448.325
21
-36.418165
31
0
39
0
210
0
220
0
230
1
0
LINE
5
126
100
AcDbEntity
8
1
62
256
6
ByLayer
370
18
48
1
60
0
100
AcDbLine
10
448.325
20
-35.171899
30
0
11
448.325
21
-35.447274
31
0
39
0
210
0
220
0
230
1
0
LINE
5
127
100
AcDbEntity
8
1
62
256
6
ByLayer
370
18
48
1
60
0
100
AcDbLine
10
448.325
20
-33.914899
30
0
11
448.325
21
-34.254136
31
0
39
0
210
0
220
0
230
1
0
LINE
5
128
100
AcDbEntity
8
1
62
256
6
ByLayer
370
18
48
1
60
0
100
AcDbLine
10
448.325
20
-32.351611
30
0
11
448.325
21
-32.776639
31
0
39
0
210
0
220
0
230
1
0
LINE
5
129
100
AcDbEntity
8
1
62
256
6
ByLayer
370
18
48
1
60
0
100
AcDbLine
10
448.325
20
-30.344089
30
0
11
448.325
21
-30.899753
31
0
39
0
210
0
220
0
230
1
0
LINE
5
12A
100
AcDbEntity
8
1
62
256
6
ByLayer
370
18
48
1
60
0
100
AcDbLine
10
448.325
20
-27.545731
30
0
11
448.325
21
-28.358632
31
0
39
0
210
0
220
0
230
1
0
LINE
5
12B
100
AcDbEntity
8
1
62
256
6
ByLayer
370
13
48
1
60
0
100
AcDbLine
10
445.5
20
6.885246
30
0
11
447.325
21
6.885246
31
0
39
0
210
0
220
0
230
1
0
LINE
5
12C
100
AcDbEntity
8
1
62
256
6
ByLayer
370
18
48
1
60
0
100
AcDbLine
10
447.325
20
40
30
0
11
447.325
21
6.885246
31
0
39
0
210
0
220
0
230
1
0
LINE
5
12D
100
AcDbEntity
8
1
62
256
6
ByLayer
370
13
48
1
60
0
100
AcDbLine
10
445.5
20
38.532012
30
0
11
445.5
21
6.885246
31
0
39
0
210
0
220
0
230
1
0
LINE
5
12E
100
AcDbEntity
8
1
62
256
6
ByLayer
370
13
48
1
60
0
100
AcDbLine
10
445.5
20
-6.885246
30
0
11
445.5
21
-38.532012
31
0
39
0
210
0
220
0
230
1
0
LINE
5
12F
100
AcDbEntity
8
1
62
256
6
ByLayer
370
18
48
1
60
0
100
AcDbLine
10
445
20
38.995312
30
0
11
445
21
-38.995313
31
0
39
0
210
0
220
0
230
1
0
LINE
5
130
100
AcDbEntity
8
1
62
256
6
ByLayer
370
13
48
1
60
0
100
AcDbLine
10
444.75
20
39.75
30
0
11
444.75
21
40
31
0
39
0
210
0
220
0
230
1
0
LINE
5
131
100
AcDbEntity
8
1
62
256
6
ByLayer
370
13
48
1
60
0
100
AcDbLine
10
444.75
20
-40
30
0
11
444.75
21
39.75
31
0
39
0
210
0
220
0
230
1
0
LINE
5
132
100
AcDbEntity
8
1
62
256
6
ByLayer
370
13
48
1
60
0
100
AcDbLine
10
442.25
20
40
30
0
11
442.25
21
-40
31
0
39
0
210
0
220
0
230
1
0
LINE
5
133
100
AcDbEntity
8
1
62
256
6
ByLayer
370
13
48
1
60
0
100
AcDbLine
10
454.8
20
-26.899495
30
0
11
454.8
21
-29.899495
31
0
39
0
210
0
220
0
230
1
0
LINE
5
134
100
AcDbEntity
8
1
62
256
6
ByLayer
370
13
48
1
60
0
100
AcDbLine
10
454.8
20
-29.899495
30
0
11
454.8
21
-32.899495
31
0
39
0
210
0
220
0
230
1
0
LINE
5
135
100
AcDbEntity
8
1
62
256
6
ByLayer
370
13
48
1
60
0
100
AcDbLine
10
460.4
20
-24.899495
30
0
11
460.4
21
-29.899495
31
0
39
0
210
0
220
0
230
1
0
LINE
5
136
100
AcDbEntity
8
1
62
256
6
ByLayer
370
13
48
1
60
0
100
AcDbLine
10
460.4
20
-29.899495
30
0
11
460.4
21
-34.899495
31
0
39
0
210
0
220
0
230
1
0
LINE
5
137
100
AcDbEntity
8
1
62
256
6
ByLayer
370
18
48
1
60
0
100
AcDbLine
10
461
20
-34.299495
30
0
11
461
21
-29.899495
31
0
39
0
210
0
220
0
230
1
0
LINE
5
138
100
AcDbEntity
8
1
62
256
6
ByLayer
370
18
48
1
60
0
100
AcDbLine
10
461
20
-29.899495
30
0
11
461
21
-25.499495
31
0
39
0
210
0
220
0
230
1
0
LINE
5
139
100
AcDbEntity
8
1
62
256
6
ByLayer
370
18
48
1
60
0
100
AcDbLine
10
455
20
-34.899495
30
0
11
455
21
-29.899495
31
0
39
0
210
0
220
0
230
1
0
LINE
5
13A
100
AcDbEntity
8
1
62
256
6
ByLayer
370
18
48
1
60
0
100
AcDbLine
10
455
20
-29.899495
30
0
11
455
21
-24.899495
31
0
39
0
210
0
220
0
230
1
0
LINE
5
13B
100
AcDbEntity
8
1
62
256
6
ByLayer
370
13
48
1
60
0
100
AcDbLine
10
454.8
20
-7.100505
30
0
11
454.8
21
-13.100505
31
0
39
0
210
0
220
0
230
1
0
LINE
5
13C
100
AcDbEntity
8
1
62
256
6
ByLayer
370
18
48
1
60
0
100
AcDbLine
10
455
20
-5.100505
30
0
11
455
21
-15.100505
31
0
39
0
210
0
220
0
230
1
0
LINE
5
13D
100
AcDbEntity
8
1
62
256
6
ByLayer
370
13
48
1
60
0
100
AcDbLine
10
460.4
20
-5.100505
30
0
11
460.4
21
-15.100505
31
0
39
0
210
0
220
0
230
1
0
LINE
5
13E
100
AcDbEntity
8
1
62
256
6
ByLayer
370
18
48
1
60
0
100
AcDbLine
10
461
20
-5.700505
30
0
11
461
21
-14.500505
31
0
39
0
210
0
220
0
230
1
0
LINE
5
13F
100
AcDbEntity
8
1
62
256
6
ByLayer
370
18
48
1
60
0
100
AcDbLine
10
0
20
-39.7
30
0
11
0.3
21
-40
31
0
39
0
210
0
220
0
230
1
0
LINE
5
140
100
AcDbEntity
8
1
62
256
6
ByLayer
370
18
48
1
60
0
100
AcDbLine
10
0.3
20
40
30
0
11
0
21
39.7
31
0
39
0
210
0
220
0
230
1
0
LINE
5
141
100
AcDbEntity
8
1
62
256
6
ByLayer
370
18
48
1
60
0
100
AcDbLine
10
441.8
20
40
30
0
11
0.3
21
40
31
0
39
0
210
0
220
0
230
1
0
LINE
5
142
100
AcDbEntity
8
1
62
256
6
ByLayer
370
18
48
1
60
0
100
AcDbLine
10
0.3
20
-40
30
0
11
441.8
21
-40
31
0
39
0
210
0
220
0
230
1
0
LINE
5
143
100
AcDbEntity
8
1
62
256
6
ByLayer
370
18
48
1
60
0
100
AcDbLine
10
448.325098
20
7.100505
30
0
11
454.8
21
7.100505
31
0
39
0
210
0
220
0
230
1
0
LINE
5
144
100
AcDbEntity
8
1
62
256
6
ByLayer
370
18
48
1
60
0
100
AcDbLine
10
454.8
20
13.100505
30
0
11
448.325098
21
13.100505
31
0
39
0
210
0
220
0
230
1
0
LINE
5
145
100
AcDbEntity
8
1
62
256
6
ByLayer
370
18
48
1
60
0
100
AcDbLine
10
455
20
5.100505
30
0
11
460.4
21
5.100505
31
0
39
0
210
0
220
0
230
1
0
LINE
5
146
100
AcDbEntity
8
1
62
256
6
ByLayer
370
18
48
1
60
0
100
AcDbLine
10
460.4
20
15.100505
30
0
11
455
21
15.100505
31
0
39
0
210
0
220
0
230
1
0
LINE
5
147
100
AcDbEntity
8
1
62
256
6
ByLayer
370
18
48
1
60
0
100
AcDbLine
10
448.325098
20
26.899495
30
0
11
454.8
21
26.899495
31
0
39
0
210
0
220
0
230
1
0
LINE
5
148
100
AcDbEntity
8
1
62
256
6
ByLayer
370
18
48
1
60
0
100
AcDbLine
10
454.8
20
32.899495
30
0
11
448.325098
21
32.899495
31
0
39
0
210
0
220
0
230
1
0
LINE
5
149
100
AcDbEntity
8
1
62
256
6
ByLayer
370
18
48
1
60
0
100
AcDbLine
10
455
20
24.899495
30
0
11
460.4
21
24.899495
31
0
39
0
210
0
220
0
230
1
0
LINE
5
14A
100
AcDbEntity
8
1
62
256
6
ByLayer
370
18
48
1
60
0
100
AcDbLine
10
460.4
20
34.899495
30
0
11
455
21
34.899495
31
0
39
0
210
0
220
0
230
1
0
LINE
5
14B
100
AcDbEntity
8
1
62
256
6
ByLayer
370
18
48
1
60
0
100
AcDbLine
10
444.75
20
-40
30
0
11
447.325
21
-40
31
0
39
0
210
0
220
0
230
1
0
LINE
5
14C
100
AcDbEntity
8
1
62
256
6
ByLayer
370
18
48
1
60
0
100
AcDbLine
10
447.556678
20
39.768322
30
0
11
447.325
21
40
31
0
39
0
210
0
220
0
230
1
0
LINE
5
14D
100
AcDbEntity
8
1
62
256
6
ByLayer
370
18
48
1
60
0
100
AcDbLine
10
447.325
20
-40
30
0
11
447.556678
21
-39.768322
31
0
39
0
210
0
220
0
230
1
0
LINE
5
14E
100
AcDbEntity
8
1
62
256
6
ByLayer
370
18
48
1
60
0
100
AcDbLine
10
447.325
20
40
30
0
11
444.75
21
40
31
0
39
0
210
0
220
0
230
1
0
LINE
5
14F
100
AcDbEntity
8
1
62
256
6
ByLayer
370
18
48
1
60
0
100
AcDbLine
10
444.75
20
40
30
0
11
442.25
21
40
31
0
39
0
210
0
220
0
230
1
0
LINE
5
150
100
AcDbEntity
8
1
62
256
6
ByLayer
370
18
48
1
60
0
100
AcDbLine
10
442.25
20
-40
30
0
11
444.75
21
-40
31
0
39
0
210
0
220
0
230
1
0
LINE
5
151
100
AcDbEntity
8
1
62
256
6
ByLayer
370
18
48
1
60
0
100
AcDbLine
10
448.325098
20
-32.899495
30
0
11
454.8
21
-32.899495
31
0
39
0
210
0
220
0
230
1
0
LINE
5
152
100
AcDbEntity
8
1
62
256
6
ByLayer
370
18
48
1
60
0
100
AcDbLine
10
454.8
20
-26.899495
30
0
11
448.325098
21
-26.899495
31
0
39
0
210
0
220
0
230
1
0
LINE
5
153
100
AcDbEntity
8
1
62
256
6
ByLayer
370
18
48
1
60
0
100
AcDbLine
10
455
20
-34.899495
30
0
11
460.4
21
-34.899495
31
0
39
0
210
0
220
0
230
1
0
LINE
5
154
100
AcDbEntity
8
1
62
256
6
ByLayer
370
18
48
1
60
0
100
AcDbLine
10
460.4
20
-24.899495
30
0
11
455
21
-24.899495
31
0
39
0
210
0
220
0
230
1
0
LINE
5
155
100
AcDbEntity
8
1
62
256
6
ByLayer
370
18
48
1
60
0
100
AcDbLine
10
448.325098
20
-13.100505
30
0
11
454.8
21
-13.100505
31
0
39
0
210
0
220
0
230
1
0
LINE
5
156
100
AcDbEntity
8
1
62
256
6
ByLayer
370
18
48
1
60
0
100
AcDbLine
10
454.8
20
-7.100505
30
0
11
448.325098
21
-7.100505
31
0
39
0
210
0
220
0
230
1
0
LINE
5
157
100
AcDbEntity
8
1
62
256
6
ByLayer
370
18
48
1
60
0
100
AcDbLine
10
455
20
-15.100505
30
0
11
460.4
21
-15.100505
31
0
39
0
210
0
220
0
230
1
0
LINE
5
158
100
AcDbEntity
8
1
62
256
6
ByLayer
370
18
48
1
60
0
100
AcDbLine
10
460.4
20
-5.100505
30
0
11
455
21
-5.100505
31
0
39
0
210
0
220
0
230
1
0
LINE
5
159
100
AcDbEntity
8
1
62
256
6
ByLayer
370
13
48
0.05
60
0
100
AcDbLine
10
448.3
20
0
30
0
11
-6.5
21
0
31
0
39
0
210
0
220
0
230
1
0
LINE
5
15A
100
AcDbEntity
8
SK2
62
256
6
ByLayer
370
18
48
1
60
0
100
AcDbLine
10
-54.6
20
-40
30
0
11
-54.6
21
40
31
0
39
0
210
0
220
0
230
1
0
LINE
5
15C
100
AcDbEntity
8
SK2
62
256
6
ByLayer
370
18
48
1
60
0
100
AcDbLine
10
-1.2875
20
40
30
0
11
-56.6
21
40
31
0
39
0
210
0
220
0
230
1
0
LINE
5
15D
100
AcDbEntity
8
SK2
62
256
6
ByLayer
370
18
48
1
60
0
100
AcDbLine
10
-1.2875
20
-40
30
0
11
-56.6
21
-40
31
0
39
0
210
0
220
0
230
1
0
LINE
5
15E
100
AcDbEntity
8
1
62
256
6
ByLayer
370
18
48
1
60
1
100
AcDbLine
10
-54.6
20
40
30
0
11
-54.139216
21
36.500002
31
0
39
0
210
0
220
0
230
1
0
LINE
5
15F
100
AcDbEntity
8
1
62
256
6
ByLayer
370
18
48
1
60
1
100
AcDbLine
10
-54.139216
20
36.500002
30
0
11
-55.060784
21
36.499998
31
0
39
0
210
0
220
0
230
1
0
LINE
5
160
100
AcDbEntity
8
1
62
256
6
ByLayer
370
18
48
1
60
1
100
AcDbLine
10
-55.060784
20
36.499998
30
0
11
-54.6
21
40
31
0
39
0
210
0
220
0
230
1
0
LINE
5
161
100
AcDbEntity
8
1
62
256
6
ByLayer
370
18
48
1
60
1
100
AcDbLine
10
-54.6
20
-40
30
0
11
-55.060784
21
-36.500002
31
0
39
0
210
0
220
0
230
1
0
LINE
5
162
100
AcDbEntity
8
1
62
256
6
ByLayer
370
18
48
1
60
1
100
AcDbLine
10
-55.060784
20
-36.500002
30
0
11
-54.139216
21
-36.499998
31
0
39
0
210
0
220
0
230
1
0
LINE
5
163
100
AcDbEntity
8
1
62
256
6
ByLayer
370
18
48
1
60
1
100
AcDbLine
10
-54.139216
20
-36.499998
30
0
11
-54.6
21
-40
31
0
39
0
210
0
220
0
230
1
0
LINE
5
164
100
AcDbEntity
8
SK2
62
256
6
ByLayer
370
18
48
1
60
0
100
AcDbLine
10
472.748181
20
-40
30
0
11
472.748181
21
40
31
0
39
0
210
0
220
0
230
1
0
LINE
5
165
100
AcDbEntity
8
SK2
62
256
6
ByLayer
370
18
48
1
60
0
100
AcDbLine
10
443.3875
20
40
30
0
11
474.748181
21
40
31
0
39
0
210
0
220
0
230
1
0
LINE
5
166
100
AcDbEntity
8
SK2
62
256
6
ByLayer
370
18
48
1
60
0
100
AcDbLine
10
443.3875
20
-40
30
0
11
474.748181
21
-40
31
0
39
0
210
0
220
0
230
1
0
LINE
5
167
100
AcDbEntity
8
1
62
256
6
ByLayer
370
18
48
1
60
1
100
AcDbLine
10
472.748181
20
40
30
0
11
473.208964
21
36.500002
31
0
39
0
210
0
220
0
230
1
0
LINE
5
168
100
AcDbEntity
8
1
62
256
6
ByLayer
370
18
48
1
60
1
100
AcDbLine
10
473.208964
20
36.500002
30
0
11
472.287397
21
36.499998
31
0
39
0
210
0
220
0
230
1
0
LINE
5
169
100
AcDbEntity
8
1
62
256
6
ByLayer
370
18
48
1
60
1
100
AcDbLine
10
472.287397
20
36.499998
30
0
11
472.748181
21
40
31
0
39
0
210
0
220
0
230
1
0
LINE
5
16A
100
AcDbEntity
8
1
62
256
6
ByLayer
370
18
48
1
60
1
100
AcDbLine
10
472.748181
20
-40
30
0
11
472.287397
21
-36.500002
31
0
39
0
210
0
220
0
230
1
0
LINE
5
16B
100
AcDbEntity
8
1
62
256
6
ByLayer
370
18
48
1
60
1
100
AcDbLine
10
472.287397
20
-36.500002
30
0
11
473.208964
21
-36.499998
31
0
39
0
210
0
220
0
230
1
0
LINE
5
16C
100
AcDbEntity
8
1
62
256
6
ByLayer
370
18
48
1
60
1
100
AcDbLine
10
473.208964
20
-36.499998
30
0
11
472.748181
21
-40
31
0
39
0
210
0
220
0
230
1
0
LINE
5
16D
100
AcDbEntity
8
SK2
62
256
6
ByLayer
370
18
48
1
60
0
100
AcDbLine
10
0
20
46.084361
30
0
11
448
21
46.084361
31
0
39
0
210
0
220
0
230
1
0
LINE
5
16E
100
AcDbEntity
8
SK2
62
256
6
ByLayer
370
18
48
1
60
0
100
AcDbLine
10
448
20
41.5875
30
0
11
448
21
48.084361
31
0
39
0
210
0
220
0
230
1
0
LINE
5
16F
100
AcDbEntity
8
SK2
62
256
6
ByLayer
370
18
48
1
60
0
100
AcDbLine
10
0
20
41.2875
30
0
11
0
21
48.084361
31
0
39
0
210
0
220
0
230
1
0
LINE
5
170
100
AcDbEntity
8
1
62
256
6
ByLayer
370
18
48
1
60
1
100
AcDbLine
10
448
20
46.084361
30
0
11
444.500002
21
45.623577
31
0
39
0
210
0
220
0
230
1
0
LINE
5
171
100
AcDbEntity
8
1
62
256
6
ByLayer
370
18
48
1
60
1
100
AcDbLine
10
444.500002
20
45.623577
30
0
11
444.499998
21
46.545145
31
0
39
0
210
0
220
0
230
1
0
LINE
5
172
100
AcDbEntity
8
1
62
256
6
ByLayer
370
18
48
1
60
1
100
AcDbLine
10
444.499998
20
46.545145
30
0
11
448
21
46.084361
31
0
39
0
210
0
220
0
230
1
0
LINE
5
173
100
AcDbEntity
8
1
62
256
6
ByLayer
370
18
48
1
60
1
100
AcDbLine
10
0
20
46.084361
30
0
11
3.499998
21
46.545145
31
0
39
0
210
0
220
0
230
1
0
LINE
5
174
100
AcDbEntity
8
1
62
256
6
ByLayer
370
18
48
1
60
1
100
AcDbLine
10
3.499998
20
46.545145
30
0
11
3.500002
21
45.623577
31
0
39
0
210
0
220
0
230
1
0
LINE
5
175
100
AcDbEntity
8
1
62
256
6
ByLayer
370
18
48
1
60
1
100
AcDbLine
10
3.500002
20
45.623577
30
0
11
0
21
46.084361
31
0
39
0
210
0
220
0
230
1
0
LINE
5
228
100
AcDbEntity
8
1
62
256
6
ByLayer
370
18
48
1
60
1
100
AcDbLine
10
-54.6
20
40
30
0
11
-54.139216
21
36.500002
31
0
39
0
210
0
220
0
230
1
0
LINE
5
229
100
AcDbEntity
8
1
62
256
6
ByLayer
370
18
48
1
60
1
100
AcDbLine
10
-54.139216
20
36.500002
30
0
11
-55.060784
21
36.499998
31
0
39
0
210
0
220
0
230
1
0
LINE
5
22A
100
AcDbEntity
8
1
62
256
6
ByLayer
370
18
48
1
60
1
100
AcDbLine
10
-55.060784
20
36.499998
30
0
11
-54.6
21
40
31
0
39
0
210
0
220
0
230
1
0
LINE
5
22C
100
AcDbEntity
8
1
62
256
6
ByLayer
370
18
48
1
60
1
100
AcDbLine
10
-54.6
20
-40
30
0
11
-55.060784
21
-36.500002
31
0
39
0
210
0
220
0
230
1
0
LINE
5
22D
100
AcDbEntity
8
1
62
256
6
ByLayer
370
18
48
1
60
1
100
AcDbLine
10
-55.060784
20
-36.500002
30
0
11
-54.139216
21
-36.499998
31
0
39
0
210
0
220
0
230
1
0
LINE
5
22E
100
AcDbEntity
8
1
62
256
6
ByLayer
370
18
48
1
60
1
100
AcDbLine
10
-54.139216
20
-36.499998
30
0
11
-54.6
21
-40
31
0
39
0
210
0
220
0
230
1
0
LINE
5
232
100
AcDbEntity
8
1
62
256
6
ByLayer
370
18
48
1
60
1
100
AcDbLine
10
472.748181
20
40
30
0
11
473.208964
21
36.500002
31
0
39
0
210
0
220
0
230
1
0
LINE
5
233
100
AcDbEntity
8
1
62
256
6
ByLayer
370
18
48
1
60
1
100
AcDbLine
10
473.208964
20
36.500002
30
0
11
472.287397
21
36.499998
31
0
39
0
210
0
220
0
230
1
0
LINE
5
234
100
AcDbEntity
8
1
62
256
6
ByLayer
370
18
48
1
60
1
100
AcDbLine
10
472.287397
20
36.499998
30
0
11
472.748181
21
40
31
0
39
0
210
0
220
0
230
1
0
LINE
5
236
100
AcDbEntity
8
1
62
256
6
ByLayer
370
18
48
1
60
1
100
AcDbLine
10
472.748181
20
-40
30
0
11
472.287397
21
-36.500002
31
0
39
0
210
0
220
0
230
1
0
LINE
5
237
100
AcDbEntity
8
1
62
256
6
ByLayer
370
18
48
1
60
1
100
AcDbLine
10
472.287397
20
-36.500002
30
0
11
473.208964
21
-36.499998
31
0
39
0
210
0
220
0
230
1
0
LINE
5
238
100
AcDbEntity
8
1
62
256
6
ByLayer
370
18
48
1
60
1
100
AcDbLine
10
473.208964
20
-36.499998
30
0
11
472.748181
21
-40
31
0
39
0
210
0
220
0
230
1
0
LINE
5
23B
100
AcDbEntity
8
1
62
256
6
ByLayer
370
18
48
1
60
1
100
AcDbLine
10
448
20
46.084361
30
0
11
444.500002
21
45.623577
31
0
39
0
210
0
220
0
230
1
0
LINE
5
23C
100
AcDbEntity
8
1
62
256
6
ByLayer
370
18
48
1
60
1
100
AcDbLine
10
444.500002
20
45.623577
30
0
11
444.499998
21
46.545145
31
0
39
0
210
0
220
0
230
1
0
LINE
5
23D
100
AcDbEntity
8
1
62
256
6
ByLayer
370
18
48
1
60
1
100
AcDbLine
10
444.499998
20
46.545145
30
0
11
448
21
46.084361
31
0
39
0
210
0
220
0
230
1
0
LINE
5
23F
100
AcDbEntity
8
1
62
256
6
ByLayer
370
18
48
1
60
1
100
AcDbLine
10
0
20
46.084361
30
0
11
3.499998
21
46.545145
31
0
39
0
210
0
220
0
230
1
0
LINE
5
240
100
AcDbEntity
8
1
62
256
6
ByLayer
370
18
48
1
60
1
100
AcDbLine
10
3.499998
20
46.545145
30
0
11
3.500002
21
45.623577
31
0
39
0
210
0
220
0
230
1
0
LINE
5
241
100
AcDbEntity
8
1
62
256
6
ByLayer
370
18
48
1
60
1
100
AcDbLine
10
3.500002
20
45.623577
30
0
11
0
21
46.084361
31
0
39
0
210
0
220
0
230
1
0
MTEXT
5
224
100
AcDbEntity
8
SK2
62
256
6
ByLayer
370
18
48
1
60
0
100
AcDbMText
10
-56.164634
20
-4.530622
30
0
210
0
220
0
230
1
1
%%c
40
3.5
41
0
44
1.084337
50
90
71
7
72
5
7
iso_b_vert
0
MTEXT
5
227
100
AcDbEntity
8
SK2
62
256
6
ByLayer
370
18
48
1
60
0
100
AcDbMText
10
-56.164634
20
2.442034
30
0
210
0
220
0
230
1
1
\W0.6740;80
40
3.5
41
0
44
1.084337
50
90
71
7
72
5
7
iso_b_vert
0
MTEXT
5
230
100
AcDbEntity
8
SK2
62
256
6
ByLayer
370
18
48
1
60
0
100
AcDbMText
10
471.183547
20
-4.530622
30
0
210
0
220
0
230
1
1
%%c
40
3.5
41
0
44
1.084337
50
90
71
7
72
5
7
iso_b_vert
0
MTEXT
5
231
100
AcDbEntity
8
SK2
62
256
6
ByLayer
370
18
48
1
60
0
100
AcDbMText
10
471.183547
20
2.442034
30
0
210
0
220
0
230
1
1
\W0.6740;80
40
3.5
41
0
44
1.084337
50
90
71
7
72
5
7
iso_b_vert
0
MTEXT
5
23A
100
AcDbEntity
8
SK2
62
256
6
ByLayer
370
18
48
1
60
0
100
AcDbMText
10
220.418767
20
47.116995
30
0
210
0
220
0
230
1
1
\W0.7887;448
40
3.5
41
0
44
1.084337
50
0
71
7
72
5
7
iso_b_vert
0
MTEXT
5
243
100
AcDbEntity
8
SK6
62
256
6
ByLayer
370
18
48
1
60
0
100
AcDbMText
10
180.468161
20
-66.051728
30
0
210
0
220
0
230
1
1
\W0.7546;HT30D-C8 80 448-40-2
40
3.5
41
0
44
1.084337
50
0
71
7
72
5
7
iso_b_vert
0
HATCH
5
22B
100
AcDbEntity
8
SK2
62
256
6
ByLayer
370
13
48
1
60
0
100
AcDbHatch
10
0
20
0
30
0
210
0
220
0
230
1
2
ANSI31
70
0
71
0
91
1
92
5
93
3
72
1
10
-54.6000000000002
20
39.9999999999984
11
-54.1392162584474
21
36.5000016925515
72
1
10
-54.1392162584474
20
36.5000016925515
11
-55.060783741553
21
36.4999983074452
72
1
10
-55.060783741553
20
36.4999983074452
11
-54.6000000000002
21
39.9999999999984
97
0
75
0
76
1
52
0
41
0.0062
77
0
78
1
53
45
43
0
44
0
45
-0.0139193969876572
46
0.0139193969876572
79
0
47
0
98
1
10
0
20
0
0
HATCH
5
22F
100
AcDbEntity
8
SK2
62
256
6
ByLayer
370
13
48
1
60
0
100
AcDbHatch
10
0
20
0
30
0
210
0
220
0
230
1
2
ANSI31
70
0
71
0
91
1
92
5
93
3
72
1
10
-54.6000000000002
20
-40.0000000000016
11
-55.060783741553
21
-36.5000016925548
72
1
10
-55.060783741553
20
-36.5000016925548
11
-54.1392162584474
21
-36.4999983074485
72
1
10
-54.1392162584474
20
-36.4999983074485
11
-54.6000000000002
21
-40.0000000000016
97
0
75
0
76
1
52
0
41
0.0062
77
0
78
1
53
45
43
0
44
0
45
-0.0139193969876572
46
0.0139193969876572
79
0
47
0
98
1
10
0
20
0
0
HATCH
5
235
100
AcDbEntity
8
SK2
62
256
6
ByLayer
370
13
48
1
60
0
100
AcDbHatch
10
0
20
0
30
0
210
0
220
0
230
1
2
ANSI31
70
0
71
0
91
1
92
5
93
3
72
1
10
472.748180566759
20
39.9999999999984
11
473.208964308312
21
36.5000016925515
72
1
10
473.208964308312
20
36.5000016925515
11
472.287396825206
21
36.4999983074452
72
1
10
472.287396825206
20
36.4999983074452
11
472.748180566759
21
39.9999999999984
97
0
75
0
76
1
52
0
41
0.0062
77
0
78
1
53
45
43
0
44
0
45
-0.0139193969876572
46
0.0139193969876572
79
0
47
0
98
1
10
0
20
0
0
HATCH
5
239
100
AcDbEntity
8
SK2
62
256
6
ByLayer
370
13
48
1
60
0
100
AcDbHatch
10
0
20
0
30
0
210
0
220
0
230
1
2
ANSI31
70
0
71
0
91
1
92
5
93
3
72
1
10
472.748180566759
20
-40.0000000000016
11
472.287396825206
21
-36.5000016925548
72
1
10
472.287396825206
20
-36.5000016925548
11
473.208964308312
21
-36.4999983074485
72
1
10
473.208964308312
20
-36.4999983074485
11
472.748180566759
21
-40.0000000000016
97
0
75
0
76
1
52
0
41
0.0062
77
0
78
1
53
45
43
0
44
0
45
-0.0139193969876572
46
0.0139193969876572
79
0
47
0
98
1
10
0
20
0
0
HATCH
5
23E
100
AcDbEntity
8
SK2
62
256
6
ByLayer
370
13
48
1
60
0
100
AcDbHatch
10
0
20
0
30
0
210
0
220
0
230
1
2
ANSI31
70
0
71
0
91
1
92
5
93
3
72
1
10
448
20
46.08436108782
11
444.500001692553
21
45.6235773462672
72
1
10
444.500001692553
20
45.6235773462672
11
444.499998307447
21
46.5451448293728
72
1
10
444.499998307447
20
46.5451448293728
11
448
21
46.08436108782
97
0
75
0
76
1
52
0
41
0.0062
77
0
78
1
53
45
43
0
44
0
45
-0.0139193969876572
46
0.0139193969876572
79
0
47
0
98
1
10
0
20
0
0
HATCH
5
242
100
AcDbEntity
8
SK2
62
256
6
ByLayer
370
13
48
1
60
0
100
AcDbHatch
10
0
20
0
30
0
210
0
220
0
230
1
2
ANSI31
70
0
71
0
91
1
92
5
93
3
72
1
10
0
20
46.08436108782
11
3.4999983074468
21
46.5451448293728
72
1
10
3.4999983074468
20
46.5451448293728
11
3.5000016925532
21
45.6235773462672
72
1
10
3.5000016925532
20
45.6235773462672
11
0
21
46.08436108782
97
0
75
0
76
1
52
0
41
0.0062
77
0
78
1
53
45
43
0
44
0
45
-0.0139193969876572
46
0.0139193969876572
79
0
47
0
98
1
10
0
20
0
0
ENDSEC
0
SECTION
2
OBJECTS
0
DICTIONARY
5
2b2
330
0
100
AcDbDictionary
280
0
281
1
3
ACAD_GROUP
350
2b3
3
ACAD_MLINESTYLE
350
2b4
0
DICTIONARY
5
2b3
330
0
100
AcDbDictionary
280
0
281
1
0
DICTIONARY
5
2b4
330
0
100
AcDbDictionary
280
0
281
1
3
Standard
350
18
0
MLINESTYLE
5
18
330
2b4
100
AcDbMlineStyle
2
Standard
70
0
3

62
256
51
90
52
90
71
2
49
-0.5
62
256
6
ByLayer
49
0.5
62
256
6
ByLayer
0
RASTERVARIABLES
5
2a0
330

100
AcDbRasterVariables
90
0
70
1
71
1
72
1
0
ENDSEC
0
EOF
