0
SECTION
2
HEADER
9
$ACADVER
1
AC1015
9
$DWGCODEPAGE
3
ANSI_1252
9
$HANDSEED
5
282
9
$ANGBASE
50
0
9
$ANGDIR
70
0
9
$ATTMODE
70
1
9
$AUNITS
70
0
9
$AUPREC
70
0
9
$CECOLOR
62
256
9
$CELTSCALE
40
1
9
$CELTYPE
6
ByLayer
9
$CELWEIGHT
370
18
9
$CLAYER
8
0
9
$CMLJUST
70
0
9
$CMLSCALE
40
1
9
$CMLSTYLE
2
Standard
9
$DIMSTYLE
2
Standard
9
$TEXTSIZE
40
0.2
9
$TEXTSTYLE
7
Standard
9
$LUNITS
70
2
9
$LUPREC
70
4
9
$EXTNAMES
290
1
9
$INSUNITS
70
4
9
$LTSCALE
40
1
9
$LWDISPLAY
290
1
9
$PDMODE
70
0
9
$PDSIZE
40
0
9
$PLINEGEN
70
0
0
ENDSEC
0
SECTION
2
CLASSES
0
CLASS
1
RASTERVARIABLES
2
AcDbRasterVariables
3
ISM
90
0
280
0
281
0
0
ENDSEC
0
SECTION
2
TABLES
0
TABLE
2
VPORT
5
278
100
AcDbSymbolTable
0
VPORT
5
1
100
AcDbSymbolTableRecord
100
AcDbViewportTableRecord
2
*Active
70
0
10
0
20
0
11
1
21
1
12
-1
22
1
13
0
23
0
14
0.5
24
0.5
15
10
25
10
16
0
26
0
36
1
17
0
27
0
37
0
0
ENDTAB
0
TABLE
2
LTYPE
5
279
100
AcDbSymbolTable
0
LTYPE
5
14
100
AcDbSymbolTableRecord
100
AcDbLinetypeTableRecord
70
0
2
ByBlock
3

72
65
73
0
40
0
0
LTYPE
5
15
100
AcDbSymbolTableRecord
100
AcDbLinetypeTableRecord
70
0
2
ByLayer
3

72
65
73
0
40
0
0
LTYPE
5
16
100
AcDbSymbolTableRecord
100
AcDbLinetypeTableRecord
70
0
2
Continuous
3
Solid line
72
65
73
0
40
0
0
LTYPE
5
6E
100
AcDbSymbolTableRecord
100
AcDbLinetypeTableRecord
70
0
2
CENTER
3
____ _ ____ _ ____ _ ____
72
65
73
4
40
47.5
49
22
74
0
49
-8.5
74
0
49
8.5
74
0
49
-8.5
74
0
0
LTYPE
5
6F
100
AcDbSymbolTableRecord
100
AcDbLinetypeTableRecord
70
0
2
DASHED
3
__ __ __ __ __ __ __ __ __
72
65
73
2
40
25.72
49
12.86
74
0
49
-12.86
74
0
0
ENDTAB
0
TABLE
2
LAYER
5
27a
100
AcDbSymbolTable
0
LAYER
5
10
100
AcDbSymbolTableRecord
100
AcDbLayerTableRecord
2
0
70
0
62
7
6
Continuous
290
1
370
-3
390
0
0
LAYER
5
71
100
AcDbSymbolTableRecord
100
AcDbLayerTableRecord
2
2
70
0
62
7
6
Continuous
290
1
370
-3
390
0
0
LAYER
5
98
100
AcDbSymbolTableRecord
100
AcDbLayerTableRecord
2
80
70
0
62
-6
6
Continuous
290
1
370
-3
390
0
0
LAYER
5
9A
100
AcDbSymbolTableRecord
100
AcDbLayerTableRecord
2
81
70
0
62
-3
6
Continuous
290
1
370
-3
390
0
0
LAYER
5
9C
100
AcDbSymbolTableRecord
100
AcDbLayerTableRecord
2
4
70
0
62
-2
6
CENTER
290
1
370
-3
390
0
0
LAYER
5
A2
100
AcDbSymbolTableRecord
100
AcDbLayerTableRecord
2
1
70
0
62
4
6
Continuous
290
1
370
-3
390
0
0
LAYER
5
264
100
AcDbSymbolTableRecord
100
AcDbLayerTableRecord
2
SK4
70
0
62
2
6
CENTER
290
1
370
-3
390
0
0
LAYER
5
265
100
AcDbSymbolTableRecord
100
AcDbLayerTableRecord
2
SK1
70
0
62
4
6
Continuous
290
1
370
-3
390
0
0
LAYER
5
266
100
AcDbSymbolTableRecord
100
AcDbLayerTableRecord
2
SK2
70
0
62
7
6
Continuous
290
1
370
-3
390
0
0
LAYER
5
267
100
AcDbSymbolTableRecord
100
AcDbLayerTableRecord
2
SK6
70
0
62
5
6
Continuous
290
1
370
-3
390
0
0
ENDTAB
0
TABLE
2
STYLE
5
27b
100
AcDbSymbolTable
0
STYLE
5
11
100
AcDbSymbolTableRecord
100
AcDbTextStyleTableRecord
2
Standard
3
txt
70
0
71
0
40
0
41
1
42
0
50
0
0
STYLE
5
1DC
100
AcDbSymbolTableRecord
100
AcDbTextStyleTableRecord
2
iso_b_vert
3
simplex.shx
70
0
71
0
40
0
41
1
42
0
50
0
0
STYLE
5
1DD
100
AcDbSymbolTableRecord
100
AcDbTextStyleTableRecord
2
DWGDirectTextStyle
3
simplex
70
0
71
0
40
0
41
1
42
0
50
0
0
ENDTAB
0
TABLE
2
DIMSTYLE
5
27c
100
AcDbSymbolTable
100
AcDbDimStyleTable
0
DIMSTYLE
105
27
100
AcDbSymbolTableRecord
100
AcDbDimStyleTableRecord
2
Standard
70
0
3
<>
41
0.18
42
0.0625
44
0.18
140
0.18
147
0.09
73
0
74
0
77
1
271
2
275
0
278
52
280
0
340
11
0
ENDTAB
0
TABLE
2
VIEW
5
27d
100
AcDbSymbolTable
0
ENDTAB
0
TABLE
2
UCS
5
27e
100
AcDbSymbolTable
0
ENDTAB
0
TABLE
2
APPID
5
27f
100
AcDbSymbolTable
0
APPID
5
12
100
AcDbSymbolTableRecord
100
AcDbRegAppTableRecord
2
ACAD
70
0
0
APPID
5
260
100
AcDbSymbolTableRecord
100
AcDbRegAppTableRecord
2
ACAD_MLEADERVER
70
0
0
ENDTAB
0
TABLE
2
BLOCK_RECORD
5
280
100
AcDbSymbolTable
0
BLOCK_RECORD
5
1F
100
AcDbSymbolTableRecord
100
AcDbBlockTableRecord
2
*Model_Space
340
0
70
0
0
BLOCK_RECORD
5
1B
100
AcDbSymbolTableRecord
100
AcDbBlockTableRecord
2
*Paper_Space
340
0
70
0
0
BLOCK_RECORD
5
23
100
AcDbSymbolTableRecord
100
AcDbBlockTableRecord
2
*Paper_Space0
340
0
70
0
0
ENDTAB
0
ENDSEC
0
SECTION
2
BLOCKS
0
BLOCK
5
20
100
AcDbEntity
8
0
100
AcDbBlockBegin
2
*Model_Space
70
0
10
0
20
0
30
0
3
*Model_Space
0
ENDBLK
5
21
100
AcDbEntity
8
0
100
AcDbBlockEnd
0
BLOCK
5
1C
100
AcDbEntity
8
0
100
AcDbBlockBegin
2
*Paper_Space
70
0
10
0
20
0
30
0
3
*Paper_Space
0
ENDBLK
5
1D
100
AcDbEntity
8
0
100
AcDbBlockEnd
0
BLOCK
5
24
100
AcDbEntity
8
0
100
AcDbBlockBegin
2
*Paper_Space0
70
0
10
0
20
0
30
0
3
*Paper_Space0
0
ENDBLK
5
25
100
AcDbEntity
8
0
100
AcDbBlockEnd
0
ENDSEC
0
SECTION
2
ENTITIES
0
ARC
5
151
100
AcDbEntity
8
1
62
256
6
ByLayer
370
18
48
1
60
0
100
AcDbCircle
39
0
10
463.8
20
-24.8
30
0
40
0.2
210
0
220
0
230
1
100
AcDbArc
50
270
51
0
0
ARC
5
152
100
AcDbEntity
8
1
62
256
6
ByLayer
370
18
48
1
60
0
100
AcDbCircle
39
0
10
463.8
20
24.8
30
0
40
0.2
210
0
220
0
230
1
100
AcDbArc
50
0
51
90
0
ARC
5
153
100
AcDbEntity
8
SK1
62
256
6
ByLayer
370
18
48
1
60
0
100
AcDbCircle
39
0
10
-0.6
20
18.75
30
0
40
0.999999999999998
210
0
220
0
230
1
100
AcDbArc
50
293.578178
51
306.869898
0
ARC
5
154
100
AcDbEntity
8
SK1
62
256
6
ByLayer
370
18
48
1
60
0
100
AcDbCircle
39
0
10
-0.6
20
-18.75
30
0
40
0.999999999999998
210
0
220
0
230
1
100
AcDbArc
50
53.130102
51
66.421822
0
ARC
5
155
100
AcDbEntity
8
1
62
256
6
ByLayer
370
18
48
1
60
0
100
AcDbCircle
39
0
10
466.5
20
15.5
30
0
40
0.5
210
0
220
0
230
1
100
AcDbArc
50
180
51
270
0
ARC
5
156
100
AcDbEntity
8
1
62
256
6
ByLayer
370
18
48
1
60
0
100
AcDbCircle
39
0
10
464.2
20
-24.8
30
0
40
0.2
210
0
220
0
230
1
100
AcDbArc
50
180
51
270
0
ARC
5
157
100
AcDbEntity
8
1
62
256
6
ByLayer
370
18
48
1
60
0
100
AcDbCircle
39
0
10
464.2
20
24.8
30
0
40
0.2
210
0
220
0
230
1
100
AcDbArc
50
90
51
180
0
ARC
5
158
100
AcDbEntity
8
1
62
256
6
ByLayer
370
18
48
1
60
0
100
AcDbCircle
39
0
10
472.8
20
1.699495
30
0
40
0.2
210
0
220
0
230
1
100
AcDbArc
50
0
51
90
0
ARC
5
159
100
AcDbEntity
8
1
62
256
6
ByLayer
370
18
48
1
60
0
100
AcDbCircle
39
0
10
472.8
20
8.099495
30
0
40
0.2
210
0
220
0
230
1
100
AcDbArc
50
270
51
0
0
ARC
5
15A
100
AcDbEntity
8
1
62
256
6
ByLayer
370
18
48
1
60
0
100
AcDbCircle
39
0
10
478.4
20
0.499495
30
0
40
0.6
210
0
220
0
230
1
100
AcDbArc
50
270
51
0
0
ARC
5
15B
100
AcDbEntity
8
1
62
256
6
ByLayer
370
18
48
1
60
0
100
AcDbCircle
39
0
10
478.4
20
9.299495
30
0
40
0.6
210
0
220
0
230
1
100
AcDbArc
50
0
51
90
0
ARC
5
15C
100
AcDbEntity
8
1
62
256
6
ByLayer
370
18
48
1
60
0
100
AcDbCircle
39
0
10
472.8
20
-18.099495
30
0
40
0.2
210
0
220
0
230
1
100
AcDbArc
50
0
51
90
0
ARC
5
15D
100
AcDbEntity
8
1
62
256
6
ByLayer
370
18
48
1
60
0
100
AcDbCircle
39
0
10
472.8
20
-11.699495
30
0
40
0.2
210
0
220
0
230
1
100
AcDbArc
50
270
51
0
0
ARC
5
15E
100
AcDbEntity
8
1
62
256
6
ByLayer
370
18
48
1
60
0
100
AcDbCircle
39
0
10
478.4
20
-19.299495
30
0
40
0.6
210
0
220
0
230
1
100
AcDbArc
50
270
51
0
0
ARC
5
15F
100
AcDbEntity
8
1
62
256
6
ByLayer
370
18
48
1
60
0
100
AcDbCircle
39
0
10
478.4
20
-10.499495
30
0
40
0.6
210
0
220
0
230
1
100
AcDbArc
50
0
51
90
0
ELLIPSE
5
160
100
AcDbEntity
8
1
62
256
6
ByLayer
370
18
48
1
60
0
100
AcDbEllipse
10
-1.056258
20
0
30
0
11
11.709272349727
21
24.6771864409372
31
0
210
0
220
0
230
1
40
0.341999
41
-1.08183270048929
42
-0.16721307190898
0
ELLIPSE
5
161
100
AcDbEntity
8
1
62
256
6
ByLayer
370
18
48
1
60
0
100
AcDbEllipse
10
21.056258
20
0
30
0
11
11.709272349728
21
-24.6771864409383
31
0
210
0
220
0
230
1
40
0.341999
41
-2.97437958168083
42
-2.05975995310054
0
ELLIPSE
5
162
100
AcDbEntity
8
1
62
256
6
ByLayer
370
18
48
1
60
0
100
AcDbEllipse
10
21.056258
20
0
30
0
11
11.7092723497268
21
24.6771864409367
31
0
210
0
220
0
230
1
40
0.341999
41
2.0597599531005
42
2.97437958168082
0
ELLIPSE
5
163
100
AcDbEntity
8
1
62
256
6
ByLayer
370
18
48
1
60
0
100
AcDbEllipse
10
-1.056258
20
0
30
0
11
11.7092723497268
21
-24.677186440937
31
0
210
0
220
0
230
1
40
0.341999
41
0.167213071908976
42
1.0818327004893
0
ELLIPSE
5
164
100
AcDbEntity
8
1
62
256
6
ByLayer
370
13
48
1
60
0
100
AcDbEllipse
10
466.5
20
-22.975
30
0
11
0.5
21
0
31
0
210
0
220
0
230
1
40
0.876829
41
1.5707963267949
42
2.61524846552793
0
POINT
5
70
100
AcDbEntity
8
2
62
256
6
ByLayer
370
18
48
1
60
0
100
AcDbPoint
10
469
20
4.899495
30
0
39
0
210
0
220
0
230
1
50
360
0
POINT
5
72
100
AcDbEntity
8
2
62
256
6
ByLayer
370
18
48
1
60
0
100
AcDbPoint
10
455
20
0
30
0
39
0
210
0
220
0
230
1
50
360
0
POINT
5
73
100
AcDbEntity
8
2
62
256
6
ByLayer
370
18
48
1
60
0
100
AcDbPoint
10
336
20
0
30
0
39
0
210
0
220
0
230
1
50
360
0
POINT
5
74
100
AcDbEntity
8
2
62
256
6
ByLayer
370
18
48
1
60
0
100
AcDbPoint
10
395.5
20
0
30
0
39
0
210
0
220
0
230
1
50
360
0
POINT
5
75
100
AcDbEntity
8
2
62
256
6
ByLayer
370
18
48
1
60
0
100
AcDbPoint
10
465.37476
20
-5
30
0
39
0
210
0
220
0
230
1
50
360
0
POINT
5
76
100
AcDbEntity
8
2
62
256
6
ByLayer
370
18
48
1
60
0
100
AcDbPoint
10
473
20
-14.899495
30
0
39
0
210
0
220
0
230
1
50
360
0
POINT
5
77
100
AcDbEntity
8
2
62
256
6
ByLayer
370
18
48
1
60
0
100
AcDbPoint
10
469
20
4.899495
30
0
39
0
210
0
220
0
230
1
50
360
0
POINT
5
78
100
AcDbEntity
8
2
62
256
6
ByLayer
370
18
48
1
60
0
100
AcDbPoint
10
430.8
20
-17
30
0
39
0
210
0
220
0
230
1
50
360
0
POINT
5
79
100
AcDbEntity
8
2
62
256
6
ByLayer
370
50
48
1
60
0
100
AcDbPoint
10
448.5
20
0
30
0
39
0
210
0
220
0
230
1
50
360
0
POINT
5
7A
100
AcDbEntity
8
2
62
256
6
ByLayer
370
18
48
1
60
0
100
AcDbPoint
10
448
20
0
30
0
39
0
210
0
220
0
230
1
50
360
0
POINT
5
7B
100
AcDbEntity
8
2
62
256
6
ByLayer
370
50
48
1
60
0
100
AcDbPoint
10
473
20
0
30
0
39
0
210
0
220
0
230
1
50
360
0
POINT
5
7C
100
AcDbEntity
8
2
62
256
6
ByLayer
370
18
48
1
60
0
100
AcDbPoint
10
464
20
0
30
0
39
0
210
0
220
0
230
1
50
360
0
POINT
5
7D
100
AcDbEntity
8
2
62
256
6
ByLayer
370
18
48
1
60
0
100
AcDbPoint
10
455
20
0
30
0
39
0
210
0
220
0
230
1
50
360
0
POINT
5
7E
100
AcDbEntity
8
2
62
256
6
ByLayer
370
18
48
1
60
0
100
AcDbPoint
10
468
20
-5
30
0
39
0
210
0
220
0
230
1
50
360
0
POINT
5
7F
100
AcDbEntity
8
2
62
256
6
ByLayer
370
18
48
1
60
0
100
AcDbPoint
10
464
20
0
30
0
39
0
210
0
220
0
230
1
50
360
0
POINT
5
80
100
AcDbEntity
8
2
62
256
6
ByLayer
370
18
48
1
60
0
100
AcDbPoint
10
440
20
0
30
0
39
0
210
0
220
0
230
1
50
360
0
POINT
5
81
100
AcDbEntity
8
2
62
256
6
ByLayer
370
18
48
1
60
0
100
AcDbPoint
10
465.37476
20
-5
30
0
39
0
210
0
220
0
230
1
50
360
0
POINT
5
82
100
AcDbEntity
8
2
62
256
6
ByLayer
370
18
48
1
60
0
100
AcDbPoint
10
468
20
-5
30
0
39
0
210
0
220
0
230
1
50
360
0
POINT
5
83
100
AcDbEntity
8
2
62
256
6
ByLayer
370
18
48
1
60
0
100
AcDbPoint
10
357.2
20
-17
30
0
39
0
210
0
220
0
230
1
50
360
0
POINT
5
84
100
AcDbEntity
8
2
62
256
6
ByLayer
370
18
48
1
60
0
100
AcDbPoint
10
455
20
0
30
0
39
0
210
0
220
0
230
1
50
360
0
POINT
5
85
100
AcDbEntity
8
2
62
256
6
ByLayer
370
18
48
1
60
0
100
AcDbPoint
10
473
20
-14.899495
30
0
39
0
210
0
220
0
230
1
50
360
0
POINT
5
86
100
AcDbEntity
8
2
62
256
6
ByLayer
370
18
48
1
60
0
100
AcDbPoint
10
448
20
0
30
0
39
0
210
0
220
0
230
1
50
360
0
POINT
5
87
100
AcDbEntity
8
2
62
256
6
ByLayer
370
18
48
1
60
0
100
AcDbPoint
10
331.1
20
0
30
0
39
0
210
0
220
0
230
1
50
360
0
POINT
5
88
100
AcDbEntity
8
2
62
256
6
ByLayer
370
18
48
1
60
0
100
AcDbPoint
10
335.3
20
0
30
0
39
0
210
0
220
0
230
1
50
360
0
POINT
5
89
100
AcDbEntity
8
2
62
256
6
ByLayer
370
18
48
1
60
0
100
AcDbPoint
10
335.55
20
0
30
0
39
0
210
0
220
0
230
1
50
360
0
POINT
5
8A
100
AcDbEntity
8
2
62
256
6
ByLayer
370
18
48
1
60
0
100
AcDbPoint
10
331.1
20
0
30
0
39
0
210
0
220
0
230
1
50
360
0
POINT
5
8B
100
AcDbEntity
8
2
62
256
6
ByLayer
370
18
48
1
60
0
100
AcDbPoint
10
339.5
20
0
30
0
39
0
210
0
220
0
230
1
50
360
0
POINT
5
8C
100
AcDbEntity
8
2
62
256
6
ByLayer
370
18
48
1
60
0
100
AcDbPoint
10
340
20
0
30
0
39
0
210
0
220
0
230
1
50
360
0
POINT
5
8D
100
AcDbEntity
8
2
62
256
6
ByLayer
370
18
48
1
60
0
100
AcDbPoint
10
443.4
20
0
30
0
39
0
210
0
220
0
230
1
50
360
0
POINT
5
8E
100
AcDbEntity
8
2
62
256
6
ByLayer
370
18
48
1
60
0
100
AcDbPoint
10
394
20
0
30
0
39
0
210
0
220
0
230
1
50
360
0
POINT
5
8F
100
AcDbEntity
8
2
62
256
6
ByLayer
370
18
48
1
60
0
100
AcDbPoint
10
344.6
20
0
30
0
39
0
210
0
220
0
230
1
50
360
0
POINT
5
90
100
AcDbEntity
8
2
62
256
6
ByLayer
370
18
48
1
60
0
100
AcDbPoint
10
430.8
20
-17
30
0
39
0
210
0
220
0
230
1
50
360
0
POINT
5
91
100
AcDbEntity
8
2
62
256
6
ByLayer
370
18
48
1
60
0
100
AcDbPoint
10
357.2
20
-17
30
0
39
0
210
0
220
0
230
1
50
360
0
POINT
5
92
100
AcDbEntity
8
2
62
256
6
ByLayer
370
18
48
1
60
0
100
AcDbPoint
10
340
20
0
30
0
39
0
210
0
220
0
230
1
50
360
0
POINT
5
93
100
AcDbEntity
8
2
62
256
6
ByLayer
370
18
48
1
60
0
100
AcDbPoint
10
448
20
0
30
0
39
0
210
0
220
0
230
1
50
360
0
POINT
5
94
100
AcDbEntity
8
2
62
256
6
ByLayer
370
18
48
1
60
0
100
AcDbPoint
10
340
20
0
30
0
39
0
210
0
220
0
230
1
50
360
0
POINT
5
95
100
AcDbEntity
8
2
62
256
6
ByLayer
370
18
48
1
60
0
100
AcDbPoint
10
448
20
0
30
0
39
0
210
0
220
0
230
1
50
360
0
POINT
5
96
100
AcDbEntity
8
2
62
256
6
ByLayer
370
18
48
1
60
0
100
AcDbPoint
10
469
20
-14.899495
30
0
39
0
210
0
220
0
230
1
50
360
0
POINT
5
97
100
AcDbEntity
8
80
62
256
6
ByLayer
370
18
48
1
60
0
100
AcDbPoint
10
0
20
0
30
0
39
0
210
0
220
0
230
1
50
360
0
POINT
5
99
100
AcDbEntity
8
81
62
256
6
ByLayer
370
18
48
1
60
0
100
AcDbPoint
10
468
20
-5
30
0
39
0
210
0
220
0
230
1
50
360
0
SPLINE
5
165
100
AcDbEntity
8
1
62
256
6
ByLayer
370
18
48
1
60
0
100
AcDbSpline
70
4
71
3
72
26
73
22
40
0
40
0
40
0
40
0
40
0.0624999999999826
40
0.0624999999999826
40
0.093749999999978
40
0.093749999999978
40
0.124999999999973
40
0.124999999999973
40
0.249999999999971
40
0.249999999999971
40
0.374999999999968
40
0.374999999999968
40
0.437499999999968
40
0.437499999999968
40
0.499999999999968
40
0.499999999999968
40
0.624999999999974
40
0.624999999999974
40
0.74999999999998
40
0.74999999999998
40
1
40
1
40
1
40
1
41
1
10
11.4613248654051
20
23.8391299750503
30
0
41
1
10
11.4772013120198
20
23.8391299750503
30
0
41
1
10
11.4927843117432
20
23.8386381480423
30
0
41
1
10
11.5157579869922
20
23.8372273769848
30
0
41
1
10
11.5233488813096
20
23.8366445991222
30
0
41
1
10
11.5384012334116
20
23.8352611656445
30
0
41
1
10
11.5458956692735
20
23.8344558067495
30
0
41
1
10
11.582404000511
20
23.8299833264009
30
0
41
1
10
11.6089650834002
20
23.8249896713849
30
0
41
1
10
11.6582924559948
20
23.813005969379
30
0
41
1
10
11.6801688454702
20
23.8062336877526
30
0
41
1
10
11.7102266942346
20
23.7952700628808
30
0
41
1
10
11.7197736129839
20
23.791477888349
30
0
41
1
10
11.7380555263963
20
23.7836514357396
30
0
41
1
10
11.7468017366171
20
23.7796095569563
30
0
41
1
10
11.7716769242357
20
23.7673085978344
30
0
41
1
10
11.7865761040497
20
23.7588292909637
30
0
41
1
10
11.8138519277098
20
23.7414211400327
30
0
41
1
10
11.826219626229
20
23.7324910902464
30
0
41
1
10
11.8602443227466
20
23.7051129235882
30
0
41
1
10
11.8788862370737
20
23.6860331168061
30
0
41
1
10
11.8943375672974
20
23.6665017920809
30
0
0
SPLINE
5
166
100
AcDbEntity
8
1
62
256
6
ByLayer
370
18
48
1
60
0
100
AcDbSpline
70
4
71
3
72
30
73
26
40
0
40
0
40
0
40
0
40
0.249999999999998
40
0.249999999999998
40
0.374999999999997
40
0.374999999999997
40
0.4375
40
0.4375
40
0.500000000000003
40
0.500000000000003
40
0.625000000000008
40
0.625000000000008
40
0.687500000000006
40
0.687500000000006
40
0.750000000000004
40
0.750000000000004
40
0.812500000000001
40
0.812500000000001
40
0.843750000000001
40
0.843750000000001
40
0.875000000000001
40
0.875000000000001
40
0.9375
40
0.9375
40
1
40
1
40
1
40
1
41
1
10
11.8943375672973
20
8.05584836782774
30
0
41
1
10
11.8788923030148
20
7.99849169434913
30
0
41
1
10
11.8604037172645
20
7.94218253951257
30
0
41
1
10
11.8264575712212
20
7.85991012495421
30
0
41
1
10
11.814096269969
20
7.83285506058493
30
0
41
1
10
11.7935837333004
20
7.79297622996157
30
0
41
1
10
11.7864159259843
20
7.77980127287384
30
0
41
1
10
11.7713191828914
20
7.75372482186631
30
0
41
1
10
11.763382436815
20
7.74081492713981
30
0
41
1
10
11.7384769785308
20
7.70292805784931
30
0
41
1
10
11.7203772593316
20
7.67866353751185
30
0
41
1
10
11.6901125047557
20
7.64434849039844
30
0
41
1
10
11.6794995583258
20
7.63327217102537
30
0
41
1
10
11.6573691354904
20
7.61232137865153
30
0
41
1
10
11.6458165560481
20
7.60240297286799
30
0
41
1
10
11.6215461384038
20
7.58390025536201
30
0
41
1
10
11.6088302857937
20
7.57531366225024
30
0
41
1
10
11.5886665813882
20
7.56368345606444
30
0
41
1
10
11.5817366894217
20
7.56000567013064
30
0
41
1
10
11.5676991017994
20
7.55323657194791
30
0
41
1
10
11.5605721090663
20
7.55013193108812
30
0
41
1
10
11.53884494046
20
7.54171396614035
30
0
41
1
10
11.5239007732521
20
7.53729092133938
30
0
41
1
10
11.4929356027573
20
7.53123335639151
30
0
41
1
10
11.477175816822
20
7.52966679426481
30
0
41
1
10
11.4613248654052
20
7.52966679426481
30
0
0
SPLINE
5
167
100
AcDbEntity
8
1
62
256
6
ByLayer
370
18
48
1
60
0
100
AcDbSpline
70
4
71
3
72
26
73
22
40
0
40
0
40
0
40
0
40
0.0624999999999968
40
0.0624999999999968
40
0.0937499999999956
40
0.0937499999999956
40
0.124999999999994
40
0.124999999999994
40
0.24999999999999
40
0.24999999999999
40
0.374999999999986
40
0.374999999999986
40
0.437499999999985
40
0.437499999999985
40
0.499999999999984
40
0.499999999999984
40
0.624999999999989
40
0.624999999999989
40
0.749999999999994
40
0.749999999999994
40
1
40
1
40
1
40
1
41
1
10
8.53867513459485
20
7.52966679426498
30
0
41
1
10
8.52279868798014
20
7.52966679426498
30
0
41
1
10
8.50721568825679
20
7.53122440152941
30
0
41
1
10
8.48424201300776
20
7.53568798536648
30
0
41
1
10
8.4766511186904
20
7.53753139400627
30
0
41
1
10
8.46159876658838
20
7.54190496002246
30
0
41
1
10
8.45410433072649
20
7.54444995843562
30
0
41
1
10
8.41759599948897
20
7.558573617501
30
0
41
1
10
8.39103491659972
20
7.57431556968103
30
0
41
1
10
8.34170754400519
20
7.61190750686256
30
0
41
1
10
8.31983115452974
20
7.63307325241195
30
0
41
1
10
8.28977330576537
20
7.66715495165639
30
0
41
1
10
8.28022638701599
20
7.67891539799615
30
0
41
1
10
8.26194447360363
20
7.70312184666869
30
0
41
1
10
8.2531982633828
20
7.71559105034061
30
0
41
1
10
8.22832307576425
20
7.75343444963892
30
0
41
1
10
8.2134238959502
20
7.77938351245601
30
0
41
1
10
8.18614807229014
20
7.83234954292993
30
0
41
1
10
8.17378037377091
20
7.85937042586576
30
0
41
1
10
8.13975567725331
20
7.94172327888182
30
0
41
1
10
8.12111376292623
20
7.99846916820698
30
0
41
1
10
8.10566243270249
20
8.05584836782765
30
0
0
SPLINE
5
168
100
AcDbEntity
8
1
62
256
6
ByLayer
370
18
48
1
60
0
100
AcDbSpline
70
4
71
3
72
30
73
26
40
0
40
0
40
0
40
0
40
0.250000000000004
40
0.250000000000004
40
0.375000000000005
40
0.375000000000005
40
0.437500000000005
40
0.437500000000005
40
0.500000000000006
40
0.500000000000006
40
0.625000000000004
40
0.625000000000004
40
0.687500000000002
40
0.687500000000002
40
0.75
40
0.75
40
0.812499999999998
40
0.812499999999998
40
0.843749999999997
40
0.843749999999997
40
0.874999999999996
40
0.874999999999996
40
0.937499999999998
40
0.937499999999998
40
1
40
1
40
1
40
1
41
1
10
8.10566243270264
20
23.6665017920809
30
0
41
1
10
8.12110769698505
20
23.6860254491252
30
0
41
1
10
8.13959628273547
20
23.7049589195931
30
0
41
1
10
8.17354242877876
20
23.7323123198157
30
0
41
1
10
8.18590373003093
20
23.7412544902042
30
0
41
1
10
8.20641626669953
20
23.7543620682907
30
0
41
1
10
8.21358407401561
20
23.7586801045419
30
0
41
1
10
8.2286808171085
20
23.7672030231186
30
0
41
1
10
8.23661756318492
20
23.7714105724816
30
0
41
1
10
8.26152302146917
20
23.783725627043
30
0
41
1
10
8.27962274066839
20
23.7915679133938
30
0
41
1
10
8.30988749524427
20
23.8026065911348
30
0
41
1
10
8.32050044167417
20
23.8061604830515
30
0
41
1
10
8.34263086450953
20
23.8128680383081
30
0
41
1
10
8.35418344395191
20
23.8160358440181
30
0
41
1
10
8.37845386159619
20
23.8219342456096
30
0
41
1
10
8.39116971420626
20
23.8246655611125
30
0
41
1
10
8.41133341861175
20
23.8283593459883
30
0
41
1
10
8.41826331057828
20
23.82952636698
30
0
41
1
10
8.43230089820057
20
23.8316728303992
30
0
41
1
10
8.4394278909337
20
23.8326565134123
30
0
41
1
10
8.46115505953999
20
23.8353222152632
30
0
41
1
10
8.47609922674789
20
23.8367207404255
30
0
41
1
10
8.50706439724271
20
23.838635326325
30
0
41
1
10
8.52282418317802
20
23.8391299750505
30
0
41
1
10
8.53867513459478
20
23.8391299750505
30
0
0
SPLINE
5
169
100
AcDbEntity
8
1
62
256
6
ByLayer
370
18
48
1
60
0
100
AcDbSpline
70
4
71
3
72
26
73
22
40
0
40
0
40
0
40
0
40
0.0625000000000009
40
0.0625000000000009
40
0.0937500000000006
40
0.0937500000000006
40
0.125
40
0.125
40
0.249999999999995
40
0.249999999999995
40
0.374999999999989
40
0.374999999999989
40
0.437499999999987
40
0.437499999999987
40
0.499999999999986
40
0.499999999999986
40
0.624999999999986
40
0.624999999999986
40
0.749999999999989
40
0.749999999999989
40
1
40
1
40
1
40
1
41
1
10
8.53867513459485
20
-23.8391299750503
30
0
41
1
10
8.52279868798014
20
-23.8391299750503
30
0
41
1
10
8.50721568825678
20
-23.8386381480423
30
0
41
1
10
8.48424201300773
20
-23.8372273769849
30
0
41
1
10
8.47665111869038
20
-23.8366445991222
30
0
41
1
10
8.46159876658835
20
-23.8352611656445
30
0
41
1
10
8.45410433072649
20
-23.8344558067495
30
0
41
1
10
8.41759599948895
20
-23.8299833264009
30
0
41
1
10
8.39103491659971
20
-23.824989671385
30
0
41
1
10
8.34170754400517
20
-23.8130059693791
30
0
41
1
10
8.31983115452972
20
-23.8062336877526
30
0
41
1
10
8.28977330576537
20
-23.7952700628809
30
0
41
1
10
8.28022638701597
20
-23.791477888349
30
0
41
1
10
8.26194447360363
20
-23.7836514357396
30
0
41
1
10
8.2531982633828
20
-23.7796095569563
30
0
41
1
10
8.22832307576427
20
-23.7673085978344
30
0
41
1
10
8.2134238959502
20
-23.7588292909637
30
0
41
1
10
8.18614807229014
20
-23.7414211400327
30
0
41
1
10
8.17378037377091
20
-23.7324910902465
30
0
41
1
10
8.13975567725331
20
-23.7051129235882
30
0
41
1
10
8.12111376292623
20
-23.6860331168061
30
0
41
1
10
8.10566243270247
20
-23.6665017920809
30
0
0
SPLINE
5
16A
100
AcDbEntity
8
1
62
256
6
ByLayer
370
18
48
1
60
0
100
AcDbSpline
70
4
71
3
72
30
73
26
40
0
40
0
40
0
40
0
40
0.250000000000005
40
0.250000000000005
40
0.375000000000005
40
0.375000000000005
40
0.437500000000006
40
0.437500000000006
40
0.500000000000008
40
0.500000000000008
40
0.625000000000011
40
0.625000000000011
40
0.687500000000014
40
0.687500000000014
40
0.750000000000017
40
0.750000000000017
40
0.81250000000002
40
0.81250000000002
40
0.843750000000019
40
0.843750000000019
40
0.875000000000019
40
0.875000000000019
40
0.937500000000009
40
0.937500000000009
40
1
40
1
40
1
40
1
41
1
10
8.10566243270264
20
-8.05584836782768
30
0
41
1
10
8.12110769698505
20
-7.99849169434904
30
0
41
1
10
8.13959628273545
20
-7.94218253951249
30
0
41
1
10
8.17354242877875
20
-7.8599101249541
30
0
41
1
10
8.18590373003092
20
-7.83285506058485
30
0
41
1
10
8.20641626669952
20
-7.79297622996145
30
0
41
1
10
8.21358407401561
20
-7.77980127287373
30
0
41
1
10
8.2286808171085
20
-7.7537248218662
30
0
41
1
10
8.23661756318492
20
-7.7408149271397
30
0
41
1
10
8.26152302146917
20
-7.70292805784919
30
0
41
1
10
8.27962274066837
20
-7.67866353751174
30
0
41
1
10
8.30988749524425
20
-7.64434849039833
30
0
41
1
10
8.32050044167416
20
-7.63327217102523
30
0
41
1
10
8.34263086450952
20
-7.61232137865142
30
0
41
1
10
8.35418344395191
20
-7.60240297286785
30
0
41
1
10
8.37845386159617
20
-7.58390025536187
30
0
41
1
10
8.39116971420626
20
-7.5753136622501
30
0
41
1
10
8.41133341861173
20
-7.5636834560643
30
0
41
1
10
8.41826331057828
20
-7.56000567013049
30
0
41
1
10
8.43230089820057
20
-7.55323657194776
30
0
41
1
10
8.43942789093369
20
-7.550131931088
30
0
41
1
10
8.46115505953998
20
-7.54171396614021
30
0
41
1
10
8.47609922674789
20
-7.53729092133923
30
0
41
1
10
8.5070643972427
20
-7.53123335639137
30
0
41
1
10
8.522824183178
20
-7.52966679426467
30
0
41
1
10
8.53867513459478
20
-7.52966679426467
30
0
0
SPLINE
5
16B
100
AcDbEntity
8
1
62
256
6
ByLayer
370
18
48
1
60
0
100
AcDbSpline
70
4
71
3
72
26
73
22
40
0
40
0
40
0
40
0
40
0.0625000000000015
40
0.0625000000000015
40
0.0937500000000022
40
0.0937500000000022
40
0.125000000000003
40
0.125000000000003
40
0.25
40
0.25
40
0.374999999999996
40
0.374999999999996
40
0.437499999999997
40
0.437499999999997
40
0.499999999999998
40
0.499999999999998
40
0.625
40
0.625
40
0.750000000000002
40
0.750000000000002
40
1
40
1
40
1
40
1
41
1
10
11.4613248654051
20
-7.52966679426513
30
0
41
1
10
11.4772013120198
20
-7.52966679426513
30
0
41
1
10
11.4927843117432
20
-7.53122440152956
30
0
41
1
10
11.5157579869922
20
-7.53568798536662
30
0
41
1
10
11.5233488813096
20
-7.53753139400641
30
0
41
1
10
11.5384012334116
20
-7.54190496002261
30
0
41
1
10
11.5458956692735
20
-7.54444995843576
30
0
41
1
10
11.582404000511
20
-7.55857361750111
30
0
41
1
10
11.6089650834002
20
-7.57431556968115
30
0
41
1
10
11.6582924559947
20
-7.61190750686268
30
0
41
1
10
11.6801688454702
20
-7.63307325241206
30
0
41
1
10
11.7102266942345
20
-7.66715495165647
30
0
41
1
10
11.7197736129839
20
-7.67891539799624
30
0
41
1
10
11.7380555263963
20
-7.70312184666878
30
0
41
1
10
11.7468017366171
20
-7.71559105034066
30
0
41
1
10
11.7716769242356
20
-7.753434449639
30
0
41
1
10
11.7865761040497
20
-7.77938351245606
30
0
41
1
10
11.8138519277098
20
-7.83234954292999
30
0
41
1
10
11.826219626229
20
-7.85937042586579
30
0
41
1
10
11.8602443227466
20
-7.94172327888182
30
0
41
1
10
11.8788862370737
20
-7.99846916820704
30
0
41
1
10
11.8943375672974
20
-8.05584836782768
30
0
0
SPLINE
5
16C
100
AcDbEntity
8
1
62
256
6
ByLayer
370
18
48
1
60
0
100
AcDbSpline
70
4
71
3
72
30
73
26
40
0
40
0
40
0
40
0
40
0.250000000000015
40
0.250000000000015
40
0.375000000000022
40
0.375000000000022
40
0.437500000000021
40
0.437500000000021
40
0.500000000000021
40
0.500000000000021
40
0.625000000000016
40
0.625000000000016
40
0.687500000000017
40
0.687500000000017
40
0.750000000000018
40
0.750000000000018
40
0.81250000000002
40
0.81250000000002
40
0.843750000000019
40
0.843750000000019
40
0.875000000000019
40
0.875000000000019
40
0.93750000000001
40
0.93750000000001
40
1
40
1
40
1
40
1
41
1
10
11.8943375672973
20
-23.6665017920809
30
0
41
1
10
11.8788923030148
20
-23.6860254491252
30
0
41
1
10
11.8604037172644
20
-23.7049589195931
30
0
41
1
10
11.8264575712211
20
-23.7323123198157
30
0
41
1
10
11.814096269969
20
-23.7412544902042
30
0
41
1
10
11.7935837333004
20
-23.7543620682907
30
0
41
1
10
11.7864159259843
20
-23.7586801045418
30
0
41
1
10
11.7713191828914
20
-23.7672030231186
30
0
41
1
10
11.763382436815
20
-23.7714105724815
30
0
41
1
10
11.7384769785307
20
-23.7837256270429
30
0
41
1
10
11.7203772593315
20
-23.7915679133937
30
0
41
1
10
11.6901125047557
20
-23.8026065911347
30
0
41
1
10
11.6794995583258
20
-23.8061604830514
30
0
41
1
10
11.6573691354904
20
-23.8128680383081
30
0
41
1
10
11.645816556048
20
-23.8160358440181
30
0
41
1
10
11.6215461384037
20
-23.8219342456095
30
0
41
1
10
11.6088302857937
20
-23.8246655611125
30
0
41
1
10
11.5886665813882
20
-23.8283593459882
30
0
41
1
10
11.5817366894217
20
-23.8295263669799
30
0
41
1
10
11.5676991017994
20
-23.8316728303992
30
0
41
1
10
11.5605721090663
20
-23.8326565134122
30
0
41
1
10
11.53884494046
20
-23.8353222152631
30
0
41
1
10
11.5239007732521
20
-23.8367207404254
30
0
41
1
10
11.4929356027573
20
-23.838635326325
30
0
41
1
10
11.477175816822
20
-23.8391299750504
30
0
41
1
10
11.4613248654052
20
-23.8391299750504
30
0
0
SPLINE
5
16D
100
AcDbEntity
8
SK1
62
256
6
ByLayer
370
18
48
1
60
0
100
AcDbSpline
70
4
71
3
72
45
73
41
40
0
40
0
40
0
40
0
40
0.023694306264351
40
0.0517123099753482
40
0.0797303136863455
40
0.107748317397343
40
0.163784324819337
40
0.219820332241332
40
0.247838335952329
40
0.275856339663326
40
0.303874343374324
40
0.331892347085321
40
0.359910350796318
40
0.387928354507315
40
0.415946358218313
40
0.429955360073811
40
0.44396436192931
40
0.471982365640307
40
0.485991367495806
40
0.492995868423555
40
0.500000369351304
40
0.507004870279054
40
0.514009371206803
40
0.528018373062301
40
0.556036376773299
40
0.570045378628797
40
0.584054380484296
40
0.612072384195293
40
0.640090387906291
40
0.668108391617288
40
0.696126395328285
40
0.724144399039283
40
0.75216240275028
40
0.780180406461277
40
0.836216413883272
40
0.892252421305266
40
0.920270425016264
40
0.94828842872726
40
0.976306432438258
40
1
40
1
40
1
40
1
41
1
10
-30
20
-15.993189230168
30
0
41
1
10
-30
20
-15.9976541733891
30
0
41
1
10
-30
20
-15.9670776496262
30
0
41
1
10
-30
20
-15.7965331178349
30
0
41
1
10
-30
20
-15.4890632796305
30
0
41
1
10
-30
20
-14.9202435431778
30
0
41
1
10
-30
20
-13.9430327235571
30
0
41
1
10
-30
20
-12.6450678356931
30
0
41
1
10
-30
20
-11.42137036219
30
0
41
1
10
-30
20
-10.4224345134304
30
0
41
1
10
-30
20
-9.34179268341308
30
0
41
1
10
-30
20
-8.18272261240929
30
0
41
1
10
-30
20
-6.94914665451273
30
0
41
1
10
-30
20
-5.64597210397022
30
0
41
1
10
-30
20
-4.51272453462846
30
0
41
1
10
-30
20
-3.56968201835696
30
0
41
1
10
-30
20
-2.61530592334967
30
0
41
1
10
-30
20
-1.67591474804155
30
0
41
1
10
-30
20
-0.833341855678952
30
0
41
1
10
-30
20
-0.354131622770439
30
0
41
1
10
-30
20
4.002277763E-07
30
0
41
1
10
-30
20
0.354131996183753
30
0
41
1
10
-30
20
0.8333415404785
30
0
41
1
10
-30
20
1.675914880346
30
0
41
1
10
-30
20
2.61530613672116
30
0
41
1
10
-30
20
3.56968220154852
30
0
41
1
10
-30
20
4.51272494557483
30
0
41
1
10
-30
20
5.64597176408017
30
0
41
1
10
-30
20
6.94914704263559
30
0
41
1
10
-30
20
8.18272269843541
30
0
41
1
10
-30
20
9.34179238961872
30
0
41
1
10
-30
20
10.4224348167646
30
0
41
1
10
-30
20
11.4213703912989
30
0
41
1
10
-30
20
12.6450674903883
30
0
41
1
10
-30
20
13.9430330734595
30
0
41
1
10
-30
20
14.9202427964398
30
0
41
1
10
-30
20
15.4890634139888
30
0
41
1
10
-30
20
15.7965327535813
30
0
41
1
10
-30
20
15.9670755107437
30
0
41
1
10
-30
20
15.9976531631132
30
0
41
1
10
-30
20
15.9931895367009
30
0
0
SPLINE
5
16E
100
AcDbEntity
8
SK1
62
256
6
ByLayer
370
18
48
1
60
0
100
AcDbSpline
70
4
71
3
72
38
73
34
40
0
40
0
40
0
40
0
40
0.250000000000004
40
0.250000000000004
40
0.375000000000005
40
0.375000000000005
40
0.500000000000006
40
0.500000000000006
40
0.625000000000007
40
0.625000000000007
40
0.687500000000007
40
0.687500000000007
40
0.750000000000006
40
0.750000000000006
40
0.812500000000005
40
0.812500000000005
40
0.843750000000004
40
0.843750000000004
40
0.875000000000004
40
0.875000000000004
40
0.906250000000003
40
0.906250000000003
40
0.921875000000003
40
0.921875000000003
40
0.937500000000002
40
0.937500000000002
40
0.953125000000002
40
0.953125000000002
40
0.968750000000001
40
0.968750000000001
40
0.984375000000001
40
0.984375000000001
40
1
40
1
40
1
40
1
41
1
10
-0.200000000000003
20
-6.07843116862819
30
0
41
1
10
-0.200329859654715
20
-6.01357702681216
30
0
41
1
10
-0.201930655445082
20
-5.94848814748264
30
0
41
1
10
-0.207062820514707
20
-5.85044931358669
30
0
41
1
10
-0.20923421427949
20
-5.81770188154849
30
0
41
1
10
-0.214779228537765
20
-5.75205694597241
30
0
41
1
10
-0.218149341071296
20
-5.71913713924843
30
0
41
1
10
-0.226581907125748
20
-5.65322539657006
30
0
41
1
10
-0.231616433421465
20
-5.62029294902339
30
0
41
1
10
-0.241184891539902
20
-5.57099638970121
30
0
41
1
10
-0.244723140953212
20
-5.55455058376137
30
0
41
1
10
-0.252718404682298
20
-5.5218878599284
30
0
41
1
10
-0.257164394743896
20
-5.50568135296541
30
0
41
1
10
-0.267422418728998
20
-5.47365965349934
30
0
41
1
10
-0.27320640701916
20
-5.45783596374696
30
0
41
1
10
-0.283724888361974
20
-5.43464123738531
30
0
41
1
10
-0.287542348293414
20
-5.4270010731546
30
0
41
1
10
-0.296164698039021
20
-5.41201401791545
30
0
41
1
10
-0.301003751718952
20
-5.40461199814789
30
0
41
1
10
-0.312019326339495
20
-5.39094692539055
30
0
41
1
10
-0.318249907555938
20
-5.38460165612528
30
0
41
1
10
-0.328982330604234
20
-5.37709874944122
30
0
41
1
10
-0.332865959292377
20
-5.37490714744834
30
0
41
1
10
-0.340905624745204
20
-5.37162929612282
30
0
41
1
10
-0.345153788553674
20
-5.37051023807433
30
0
41
1
10
-0.353672033871135
20
-5.36955188220819
30
0
41
1
10
-0.357904387099566
20
-5.36969675293611
30
0
41
1
10
-0.366271728735924
20
-5.37110702101791
30
0
41
1
10
-0.370241250613816
20
-5.3723360299343
30
0
41
1
10
-0.377868038063696
20
-5.37555831609174
30
0
41
1
10
-0.381539373885104
20
-5.37756780385979
30
0
41
1
10
-0.388473887026265
20
-5.38206549938212
30
0
41
1
10
-0.391760928947505
20
-5.38456196831947
30
0
41
1
10
-0.394913799811292
20
-5.38724256160012
30
0
0
SPLINE
5
16F
100
AcDbEntity
8
SK1
62
256
6
ByLayer
370
18
48
1
60
0
100
AcDbSpline
70
4
71
3
72
38
73
34
40
0
40
0
40
0
40
0
40
0.0156250000000001
40
0.0156250000000001
40
0.0312500000000002
40
0.0312500000000002
40
0.0468750000000004
40
0.0468750000000004
40
0.0625000000000005
40
0.0625000000000005
40
0.0781250000000006
40
0.0781250000000006
40
0.0937500000000007
40
0.0937500000000007
40
0.125000000000002
40
0.125000000000002
40
0.156250000000003
40
0.156250000000003
40
0.187500000000004
40
0.187500000000004
40
0.250000000000004
40
0.250000000000004
40
0.312500000000003
40
0.312500000000003
40
0.375000000000003
40
0.375000000000003
40
0.500000000000001
40
0.500000000000001
40
0.625
40
0.625
40
0.749999999999999
40
0.749999999999999
40
1
40
1
40
1
40
1
41
1
10
-0.394913799809103
20
5.38724490303883
30
0
41
1
10
-0.391781832950684
20
5.38458208568073
30
0
41
1
10
-0.388519962703796
20
5.3821033059937
30
0
41
1
10
-0.381650196472492
20
5.37763658736259
30
0
41
1
10
-0.37800693571306
20
5.37563233451903
30
0
41
1
10
-0.370423579197166
20
5.3724029821978
30
0
41
1
10
-0.366503702076443
20
5.37117873901857
30
0
41
1
10
-0.358331183030089
20
5.36974313779842
30
0
41
1
10
-0.35401586551319
20
5.36955368909105
30
0
41
1
10
-0.345568573158772
20
5.37043109064084
30
0
41
1
10
-0.341321667103003
20
5.37150405183561
30
0
41
1
10
-0.333263890221914
20
5.37470929745373
30
0
41
1
10
-0.329419339218234
20
5.37683593115614
30
0
41
1
10
-0.318577749103326
20
5.38430052549953
30
0
41
1
10
-0.312400979321538
20
5.39054104494755
30
0
41
1
10
-0.301354650858116
20
5.40411801099191
30
0
41
1
10
-0.29659132798615
20
5.41134235290917
30
0
41
1
10
-0.28792239407619
20
5.42628126698935
30
0
41
1
10
-0.284017391060786
20
5.43403466061349
30
0
41
1
10
-0.273296210573335
20
5.45757128507682
30
0
41
1
10
-0.267463037667511
20
5.47353830586408
30
0
41
1
10
-0.257144178245824
20
5.50574351678898
30
0
41
1
10
-0.252692130238913
20
5.52198910291162
30
0
41
1
10
-0.244699800125929
20
5.55465646091204
30
0
41
1
10
-0.241167183894675
20
5.57107991706795
30
0
41
1
10
-0.231573562776475
20
5.62053570750788
30
0
41
1
10
-0.226533735280654
20
5.65356559342146
30
0
41
1
10
-0.218124597314045
20
5.71937115218233
30
0
41
1
10
-0.214765406462959
20
5.75220767186642
30
0
41
1
10
-0.20923073586448
20
5.81775962891638
30
0
41
1
10
-0.20706153420231
20
5.85047499196594
30
0
41
1
10
-0.201932717755398
20
5.94845143863458
30
0
41
1
10
-0.200330038101569
20
6.01354333629638
30
0
41
1
10
-0.200000000000003
20
6.07843244581235
30
0
0
SPLINE
5
170
100
AcDbEntity
8
SK1
62
256
6
ByLayer
370
13
48
1
60
0
100
AcDbSpline
70
4
71
3
72
20
73
16
40
0
40
0
40
0
40
0
40
0.0453685402362748
40
0.113618264772212
40
0.181867989308149
40
0.250117713844086
40
0.318367438380023
40
0.38661716291596
40
0.454866887451897
40
0.591366336523771
40
0.727865785595646
40
0.796115510131583
40
0.86436523466752
40
0.932614959203457
40
1
40
1
40
1
40
1
41
1
10
-0.394913799811292
20
-5.38724256160785
30
0
41
1
10
-0.394913799811292
20
-5.7190547501427
30
0
41
1
10
-0.394913799811292
20
-6.5348354946259
30
0
41
1
10
-0.394913799811292
20
-7.7796880789966
30
0
41
1
10
-0.394913799811292
20
-9.09679923539034
30
0
41
1
10
-0.394913799811292
20
-10.3283869583107
30
0
41
1
10
-0.394913799811292
20
-11.4729576347282
30
0
41
1
10
-0.394913799811292
20
-12.5286533763275
30
0
41
1
10
-0.394913799811292
20
-13.8156305223415
30
0
41
1
10
-0.394913799811292
20
-15.1889742433629
30
0
41
1
10
-0.394913799811292
20
-16.224825355641
30
0
41
1
10
-0.394913799811292
20
-16.8259463034278
30
0
41
1
10
-0.394913799811292
20
-17.1536380024563
30
0
41
1
10
-0.394913799811292
20
-17.345659644423
30
0
41
1
10
-0.394913799811292
20
-17.3741382161058
30
0
41
1
10
-0.394913799811292
20
-17.3602188926579
30
0
0
SPLINE
5
171
100
AcDbEntity
8
SK1
62
256
6
ByLayer
370
18
48
1
60
0
100
AcDbSpline
70
4
71
3
72
50
73
46
40
0
40
0
40
0
40
0
40
0.0312500000000003
40
0.0312500000000003
40
0.0468750000000004
40
0.0468750000000004
40
0.0625000000000005
40
0.0625000000000005
40
0.0781250000000006
40
0.0781250000000006
40
0.0937500000000008
40
0.0937500000000008
40
0.109375000000001
40
0.109375000000001
40
0.125000000000001
40
0.125000000000001
40
0.140625000000001
40
0.140625000000001
40
0.156250000000001
40
0.156250000000001
40
0.187500000000001
40
0.187500000000001
40
0.218750000000002
40
0.218750000000002
40
0.250000000000002
40
0.250000000000002
40
0.281250000000002
40
0.281250000000002
40
0.312500000000002
40
0.312500000000002
40
0.375000000000002
40
0.375000000000002
40
0.437500000000003
40
0.437500000000003
40
0.500000000000003
40
0.500000000000003
40
0.625000000000003
40
0.625000000000003
40
0.687500000000003
40
0.687500000000003
40
0.750000000000003
40
0.750000000000003
40
0.875000000000001
40
0.875000000000001
40
1
40
1
40
1
40
1
41
1
10
-0.394913799811292
20
-5.38724256160785
30
0
41
1
10
-0.411056331481689
20
-5.40096705709072
30
0
41
1
10
-0.428167571421085
20
-5.41359596702645
30
0
41
1
10
-0.455974774655161
20
-5.43013648208
30
0
41
1
10
-0.465658214706977
20
-5.43526409556435
30
0
41
1
10
-0.485484698823484
20
-5.44430592701531
30
0
41
1
10
-0.495657428995088
20
-5.44824432393753
30
0
41
1
10
-0.516608715435041
20
-5.45476351226009
30
0
41
1
10
-0.527386860231829
20
-5.45734523281897
30
0
41
1
10
-0.549664818445279
20
-5.46089328829356
30
0
41
1
10
-0.560930035443775
20
-5.46180969649637
30
0
41
1
10
-0.58336584661788
20
-5.4618713105761
30
0
41
1
10
-0.594591467840033
20
-5.46102572365922
30
0
41
1
10
-0.617058166617753
20
-5.45757599588921
30
0
41
1
10
-0.627999143283205
20
-5.45501931647436
30
0
41
1
10
-0.649331735085568
20
-5.44848807488123
30
0
41
1
10
-0.659758151599831
20
-5.44449947952498
30
0
41
1
10
-0.680036525045026
20
-5.43533205618729
30
0
41
1
10
-0.689742098894541
20
-5.43022628481569
30
0
41
1
10
-0.717826906306087
20
-5.41366379171245
30
0
41
1
10
-0.735187935399338
20
-5.40097830060952
30
0
41
1
10
-0.768034946557918
20
-5.3733304614868
30
0
41
1
10
-0.783237057424159
20
-5.35859529837754
30
0
41
1
10
-0.811836627358673
20
-5.32802442998909
30
0
41
1
10
-0.825257514876
20
-5.31215335693128
30
0
41
1
10
-0.85080730255018
20
-5.27953884086708
30
0
41
1
10
-0.862932209486871
20
-5.26279281423709
30
0
41
1
10
-0.886169886076786
20
-5.22860723544372
30
0
41
1
10
-0.897260448987026
20
-5.21119248410568
30
0
41
1
10
-0.929029640850715
20
-5.15857889561175
30
0
41
1
10
-0.948347177186236
20
-5.12284414993096
30
0
41
1
10
-0.984487535026446
20
-5.05043807526349
30
0
41
1
10
-1.00129416978024
20
-5.01376164954297
30
0
41
1
10
-1.03304457478234
20
-4.93966608077309
30
0
41
1
10
-1.04798244371666
20
-4.90224508459647
30
0
41
1
10
-1.09059413059555
20
-4.78904752584498
30
0
41
1
10
-1.11609621830422
20
-4.71234577760799
30
0
41
1
10
-1.15135515985604
20
-4.5958383808707
30
0
41
1
10
-1.16260343866753
20
-4.55673847320068
30
0
41
1
10
-1.18417456263644
20
-4.47826299864514
30
0
41
1
10
-1.19450305218301
20
-4.43886894670428
30
0
41
1
10
-1.22429462395716
20
-4.32024366329264
30
0
41
1
10
-1.24257202444835
20
-4.24057073726354
30
0
41
1
10
-1.27661859809459
20
-4.08013408760158
30
0
41
1
10
-1.29238372607517
20
-3.99936988902869
30
0
41
1
10
-1.30710678118655
20
-3.91808269248796
30
0
0
SPLINE
5
172
100
AcDbEntity
8
SK1
62
256
6
ByLayer
370
18
48
1
60
0
100
AcDbSpline
70
4
71
3
72
38
73
34
40
0
40
0
40
0
40
0
40
0.0624999999999996
40
0.0624999999999996
40
0.124999999999999
40
0.124999999999999
40
0.249999999999999
40
0.249999999999999
40
0.374999999999998
40
0.374999999999998
40
0.390624999999998
40
0.390624999999998
40
0.406249999999998
40
0.406249999999998
40
0.437499999999998
40
0.437499999999998
40
0.499999999999998
40
0.499999999999998
40
0.562499999999998
40
0.562499999999998
40
0.624999999999998
40
0.624999999999998
40
0.749999999999998
40
0.749999999999998
40
0.781249999999998
40
0.781249999999998
40
0.812499999999998
40
0.812499999999998
40
0.874999999999999
40
0.874999999999999
40
0.937499999999999
40
0.937499999999999
40
1
40
1
40
1
40
1
41
1
10
-1.30710678118655
20
-3.91808269248793
30
0
41
1
10
-1.33526487251859
20
-3.76261955749285
30
0
41
1
10
-1.36267126502632
20
-3.60631098585768
30
0
41
1
10
-1.41562242099803
20
-3.29187611045597
30
0
41
1
10
-1.44117770353176
20
-3.13375373985022
30
0
41
1
10
-1.51435013598102
20
-2.65639932915298
30
0
41
1
10
-1.55846884179031
20
-2.33418302861884
30
0
41
1
10
-1.63296978491243
20
-1.6800471987703
30
0
41
1
10
-1.66337509736468
20
-1.34813830750841
30
0
41
1
10
-1.68707319146451
20
-0.968091690681831
30
0
41
1
10
-1.68955923537888
20
-0.925771372654225
30
0
41
1
10
-1.69422507481973
20
-0.840939584978486
30
0
41
1
10
-1.69640659794263
20
-0.798386309984636
30
0
41
1
10
-1.70245250680873
20
-0.670897601193644
30
0
41
1
10
-1.70582437938029
20
-0.58605256890192
30
0
41
1
10
-1.71388361409092
20
-0.331968562038014
30
0
41
1
10
-1.71646782396985
20
-0.163187101305937
30
0
41
1
10
-1.71636335941631
20
0.173213348331842
30
0
41
1
10
-1.71367008139578
20
0.340831662555303
30
0
41
1
10
-1.70293626023371
20
0.674902568806118
30
0
41
1
10
-1.69494665814693
20
0.84136228930052
30
0
41
1
10
-1.66399327242202
20
1.33914312869115
30
0
41
1
10
-1.63408221528162
20
1.66887252592323
30
0
41
1
10
-1.5876007265538
20
2.07872253566575
30
0
41
1
10
-1.57784909269048
20
2.16057674059005
30
0
41
1
10
-1.55749771994262
20
2.32406172494169
30
0
41
1
10
-1.54688933197929
20
2.40575612114199
30
0
41
1
10
-1.51394731043966
20
2.65007047288915
30
0
41
1
10
-1.49055743488208
20
2.81150726182858
30
0
41
1
10
-1.44149329508794
20
3.13180385741538
30
0
41
1
10
-1.41582315096537
20
3.29066553946589
30
0
41
1
10
-1.36271475580057
20
3.60607338167009
30
0
41
1
10
-1.33526589565592
20
3.76261441071907
30
0
41
1
10
-1.30710678118655
20
3.91808311129768
30
0
0
SPLINE
5
173
100
AcDbEntity
8
SK1
62
256
6
ByLayer
370
18
48
1
60
0
100
AcDbSpline
70
4
71
3
72
53
73
49
40
0
40
0
40
0
40
0
40
0.125000000000001
40
0.125000000000001
40
0.250000000000002
40
0.250000000000002
40
0.312500000000001
40
0.312500000000001
40
0.375
40
0.375
40
0.499999999999998
40
0.499999999999998
40
0.562499999999997
40
0.562499999999997
40
0.624999999999997
40
0.624999999999997
40
0.687499999999996
40
0.687499999999996
40
0.718749999999996
40
0.718749999999996
40
0.749999999999996
40
0.749999999999996
40
0.781249999999996
40
0.781249999999996
40
0.812499999999996
40
0.812499999999996
40
0.843749999999996
40
0.843749999999996
40
0.859374999999996
40
0.859374999999996
40
0.874999999999996
40
0.874999999999996
40
0.890624999999996
40
0.890624999999996
40
0.898437499999996
40
0.898437499999996
40
0.906249999999996
40
0.906249999999996
40
0.921874999999996
40
0.929687499999996
40
0.929687499999996
40
0.937499999999996
40
0.937499999999996
40
0.968749999999998
40
0.968749999999998
40
0.984374999999999
40
0.984374999999999
40
1
40
1
40
1
40
1
41
1
10
-1.30710678118655
20
3.91808311129773
30
0
41
1
10
-1.29239108240533
20
3.99932964943406
30
0
41
1
10
-1.27663490881506
20
4.08005058420358
30
0
41
1
10
-1.24261095077243
20
4.24039497937332
30
0
41
1
10
-1.22434718173433
20
4.32001891689728
30
0
41
1
10
-1.19458151328423
20
4.4385658061575
30
0
41
1
10
-1.18426257821703
20
4.47793290560358
30
0
41
1
10
-1.16271294340757
20
4.55635268985438
30
0
41
1
10
-1.15147501748677
20
4.59543056617446
30
0
41
1
10
-1.11622081339451
20
4.71196262616613
30
0
41
1
10
-1.09072783956063
20
4.7886606233923
30
0
41
1
10
-1.04815216411872
20
4.90181336669085
30
0
41
1
10
-1.0332301135569
20
4.93921284702586
30
0
41
1
10
-1.00152410230017
20
5.01324987497119
30
0
41
1
10
-0.984745886096846
20
5.04988928444084
30
0
41
1
10
-0.948685190430851
20
5.12220258194975
30
0
41
1
10
-0.9294183550615
20
5.15788155457784
30
0
41
1
10
-0.89776031758835
20
5.21039425330497
30
0
41
1
10
-0.886742970836494
20
5.22772922691763
30
0
41
1
10
-0.863513824307901
20
5.26197522516898
30
0
41
1
10
-0.851357742368535
20
5.27880041053604
30
0
41
1
10
-0.825828436847388
20
5.3114635713869
30
0
41
1
10
-0.812437519911725
20
5.32733553299158
30
0
41
1
10
-0.783971777383798
20
5.35785904442625
30
0
41
1
10
-0.768905931142342
20
5.3725169261117
30
0
41
1
10
-0.73634132235442
20
5.40008757388534
30
0
41
1
10
-0.718704728837835
20
5.41307616107991
30
0
41
1
10
-0.690494000998427
20
5.42981903443436
30
0
41
1
10
-0.680770506185979
20
5.43496537787163
30
0
41
1
10
-0.660532703009167
20
5.44418605279546
30
0
41
1
10
-0.650045797816915
20
5.44823342219189
30
0
41
1
10
-0.628779113835961
20
5.45481846069112
30
0
41
1
10
-0.617932285477139
20
5.4573891634796
30
0
41
1
10
-0.601299914959682
20
5.46002170773141
30
0
41
1
10
-0.595695338836961
20
5.46069496960087
30
0
41
1
10
-0.584356912700073
20
5.46160478770398
30
0
41
1
10
-0.57863702197416
20
5.46183701163631
30
0
41
1
10
-0.561675487241857
20
5.46185622962997
30
0
41
1
10
-0.544917445528711
20
5.460540346752
30
0
41
1
10
-0.528445210270348
20
5.45734844847985
30
0
41
1
10
-0.517525389033295
20
5.45481548249097
30
0
41
1
10
-0.512078734988123
20
5.4533397528954
30
0
41
1
10
-0.485450985324846
20
5.44513209892818
30
0
41
1
10
-0.465729936503905
20
5.43590631685376
30
0
41
1
10
-0.437770416117488
20
5.41932732155468
30
0
41
1
10
-0.428743917867408
20
5.41334179407005
30
0
41
1
10
-0.411386251483449
20
5.40075705360886
30
0
41
1
10
-0.403020392727001
20
5.39413717786459
30
0
41
1
10
-0.394913799811292
20
5.38724490303878
30
0
0
SPLINE
5
174
100
AcDbEntity
8
SK1
62
256
6
ByLayer
370
13
48
1
60
0
100
AcDbSpline
70
4
71
3
72
20
73
16
40
0
40
0
40
0
40
0
40
0.0673842633156066
40
0.135634051958564
40
0.203883840601522
40
0.272133629244479
40
0.408633206530394
40
0.54513278381631
40
0.613382572459267
40
0.681632361102225
40
0.749882149745182
40
0.81813193838814
40
0.886381727031098
40
0.954631515674055
40
1
40
1
40
1
40
1
41
1
10
-0.394913799811292
20
17.3602193111483
30
0
41
1
10
-0.394913799811292
20
17.3741378070094
30
0
41
1
10
-0.394913799811292
20
17.3456582493828
30
0
41
1
10
-0.394913799811292
20
17.1536376810083
30
0
41
1
10
-0.394913799811292
20
16.8259464323311
30
0
41
1
10
-0.394913799811292
20
16.2248245878661
30
0
41
1
10
-0.394913799811292
20
15.1889746622834
30
0
41
1
10
-0.394913799811292
20
13.8156301488903
30
0
41
1
10
-0.394913799811292
20
12.5286535254346
30
0
41
1
10
-0.394913799811292
20
11.4729578043957
30
0
41
1
10
-0.394913799811292
20
10.3283867090429
30
0
41
1
10
-0.394913799811292
20
9.09679950047928
30
0
41
1
10
-0.394913799811292
20
7.77968825069564
30
0
41
1
10
-0.394913799811292
20
6.53483606378791
30
0
41
1
10
-0.394913799811292
20
5.71905630139054
30
0
41
1
10
-0.394913799811292
20
5.38724490303878
30
0
0
SPLINE
5
175
100
AcDbEntity
8
SK1
62
256
6
ByLayer
370
13
48
1
60
0
100
AcDbSpline
70
4
71
3
72
45
73
41
40
0
40
0
40
0
40
0
40
0.013924737574317
40
0.0425174012990758
40
0.0711100650238346
40
0.0997027287485934
40
0.156888056198111
40
0.214073383647629
40
0.242666047372388
40
0.271258711097146
40
0.299851374821905
40
0.328444038546664
40
0.357036702271423
40
0.385629365996182
40
0.414222029720941
40
0.42851836158332
40
0.442814693445699
40
0.471407357170458
40
0.485703689032838
40
0.492851854964027
40
0.500000020895217
40
0.507148186826407
40
0.514296352757596
40
0.528592684619976
40
0.557185348344735
40
0.571481680207114
40
0.585778012069493
40
0.614370675794252
40
0.642963339519011
40
0.67155600324377
40
0.700148666968529
40
0.728741330693287
40
0.757333994418046
40
0.785926658142805
40
0.843111985592323
40
0.90029731304184
40
0.928889976766599
40
0.957482640491358
40
0.986075304216117
40
1
40
1
40
1
40
1
41
1
10
-1.9950399779393
20
17.3200454239691
30
0
41
1
10
-1.9950399779393
20
17.3133442650477
30
0
41
1
10
-1.9950399779393
20
17.2734193804281
30
0
41
1
10
-1.9950399779393
20
17.1138751154123
30
0
41
1
10
-1.9950399779393
20
16.7867763596001
30
0
41
1
10
-1.9950399779393
20
16.1866009265939
30
0
41
1
10
-1.9950399779393
20
15.1524691326423
30
0
41
1
10
-1.9950399779393
20
13.7813331880937
30
0
41
1
10
-1.9950399779393
20
12.4962106263157
30
0
41
1
10
-1.9950399779393
20
11.4421779521075
30
0
41
1
10
-1.9950399779393
20
10.2994799380558
30
0
41
1
10
-1.9950399779393
20
9.07001746022104
30
0
41
1
10
-1.9950399779393
20
7.75535376586828
30
0
41
1
10
-1.9950399779393
20
6.35676341745574
30
0
41
1
10
-1.9950399779393
20
5.12318926412425
30
0
41
1
10
-1.9950399779393
20
4.09531236648536
30
0
41
1
10
-1.9950399779393
20
3.04236295320669
30
0
41
1
10
-1.9950399779393
20
1.95640625727882
30
0
41
1
10
-1.9950399779393
20
0.981337226851394
30
0
41
1
10
-1.9950399779393
20
0.420771319084707
30
0
41
1
10
-1.9950399779393
20
6.88173714E-08
30
0
41
1
10
-1.9950399779393
20
-0.420771221994357
30
0
41
1
10
-1.9950399779393
20
-0.981337209960486
30
0
41
1
10
-1.9950399779393
20
-1.95640624898675
30
0
41
1
10
-1.9950399779393
20
-3.04236280324244
30
0
41
1
10
-1.9950399779393
20
-4.0953123914187
30
0
41
1
10
-1.9950399779393
20
-5.12318891405303
30
0
41
1
10
-1.9950399779393
20
-6.35676356337376
30
0
41
1
10
-1.9950399779393
20
-7.7553535878281
30
0
41
1
10
-1.9950399779393
20
-9.07001720037854
30
0
41
1
10
-1.9950399779393
20
-10.2994801886281
30
0
41
1
10
-1.9950399779393
20
-11.4421777785236
30
0
41
1
10
-1.9950399779393
20
-12.4962104807245
30
0
41
1
10
-1.9950399779393
20
-13.7813335607202
30
0
41
1
10
-1.9950399779393
20
-15.152468715744
30
0
41
1
10
-1.9950399779393
20
-16.1866016937524
30
0
41
1
10
-1.9950399779393
20
-16.786776230537
30
0
41
1
10
-1.9950399779393
20
-17.1138754381145
30
0
41
1
10
-1.9950399779393
20
-17.273419842029
30
0
41
1
10
-1.9950399779393
20
-17.3133444713857
30
0
41
1
10
-1.9950399779393
20
-17.3200455757023
30
0
0
SPLINE
5
176
100
AcDbEntity
8
SK1
62
256
6
ByLayer
370
18
48
1
60
0
100
AcDbSpline
70
4
71
3
72
45
73
41
40
0
40
0
40
0
40
0
40
0.013897065204021
40
0.0424913615118412
40
0.0710856578196613
40
0.0996799541274814
40
0.156868546743122
40
0.214057139358762
40
0.242651435666582
40
0.271245731974402
40
0.299840028282222
40
0.328434324590042
40
0.357028620897862
40
0.385622917205682
40
0.414217213513503
40
0.428514361667413
40
0.442811509821323
40
0.471405806129143
40
0.485702954283053
40
0.492851528360008
40
0.500000102436963
40
0.507148676513918
40
0.514297250590873
40
0.528594398744783
40
0.557188695052603
40
0.571485843206513
40
0.585782991360423
40
0.614377287668243
40
0.642971583976063
40
0.671565880283884
40
0.700160176591704
40
0.728754472899524
40
0.757348769207344
40
0.785943065515164
40
0.843131658130804
40
0.900320250746445
40
0.928914547054265
40
0.957508843362085
40
0.986103139669905
40
1
40
1
40
1
40
1
41
1
10
-2.20000000000002
20
17.5147945434999
30
0
41
1
10
-2.2
20
17.5080193403734
30
0
41
1
10
-2.2
20
17.4676802405326
30
0
41
1
10
-2.2
20
17.3066644250431
30
0
41
1
10
-2.2
20
16.9766929599708
30
0
41
1
10
-2.2
20
16.3719288388599
30
0
41
1
10
-2.2
20
15.3294666616432
30
0
41
1
10
-2.2
20
13.9476224427057
30
0
41
1
10
-2.2
20
12.6535104390874
30
0
41
1
10
-2.2
20
11.5914144609754
30
0
41
1
10
-2.2
20
10.4396347881955
30
0
41
1
10
-2.2
20
9.19987052615136
30
0
41
1
10
-2.2
20
7.87333982787851
30
0
41
1
10
-2.2
20
6.4607857552443
30
0
41
1
10
-2.2
20
5.21252898167785
30
0
41
1
10
-2.2
20
4.17223684682958
30
0
41
1
10
-2.2
20
3.10486150423552
30
0
41
1
10
-2.2
20
1.99745537289451
30
0
41
1
10
-2.2
20
1.00299597482069
30
0
41
1
10
-2.2
20
0.430523794544825
30
0
41
1
10
-2.2
20
2.03164063E-08
30
0
41
1
10
-2.2
20
-0.430523737893537
30
0
41
1
10
-2.2
20
-1.00299590932914
30
0
41
1
10
-2.2
20
-1.99745538275133
30
0
41
1
10
-2.2
20
-3.10486136355075
30
0
41
1
10
-2.2
20
-4.17223690222141
30
0
41
1
10
-2.2
20
-5.21252864051553
30
0
41
1
10
-2.2
20
-6.46078587277509
30
0
41
1
10
-2.2
20
-7.87333968058334
30
0
41
1
10
-2.2
20
-9.19987024087132
30
0
41
1
10
-2.2
20
-10.4396350324424
30
0
41
1
10
-2.2
20
-11.5914143063801
30
0
41
1
10
-2.2
20
-12.6535102764493
30
0
41
1
10
-2.2
20
-13.9476228193307
30
0
41
1
10
-2.2
20
-15.3294662349403
30
0
41
1
10
-2.2
20
-16.3719296090069
30
0
41
1
10
-2.2
20
-16.9766928316826
30
0
41
1
10
-2.2
20
-17.3066647416643
30
0
41
1
10
-2.2
20
-17.4676803348266
30
0
41
1
10
-2.2
20
-17.5080192372689
30
0
41
1
10
-2.20000000000002
20
-17.5147944562912
30
0
0
SPLINE
5
177
100
AcDbEntity
8
SK1
62
256
6
ByLayer
370
18
48
1
60
0
100
AcDbSpline
70
4
71
3
72
45
73
41
40
0
40
0
40
0
40
0
40
0.0275256176042689
40
0.055318230930825
40
0.0831108442573812
40
0.110903457583937
40
0.16648868423705
40
0.222073910890162
40
0.249866524216718
40
0.277659137543274
40
0.30545175086983
40
0.333244364196386
40
0.361036977522942
40
0.388829590849498
40
0.416622204176055
40
0.430518510839333
40
0.444414817502611
40
0.472207430829167
40
0.486103737492445
40
0.493051890824084
40
0.500000044155723
40
0.506948197487362
40
0.513896350819001
40
0.527792657482279
40
0.555585270808835
40
0.569481577472113
40
0.583377884135391
40
0.611170497461947
40
0.638963110788503
40
0.666755724115059
40
0.694548337441616
40
0.722340950768172
40
0.750133564094728
40
0.777926177421284
40
0.833511404074396
40
0.889096630727508
40
0.916889244054064
40
0.94468185738062
40
0.972474470707177
40
1
40
1
40
1
40
1
41
1
10
-28.5
20
16.8545102415201
30
0
41
1
10
-28.5
20
16.8681141426178
30
0
41
1
10
-28.5
20
16.8405420072375
30
0
41
1
10
-28.5
20
16.6531187925377
30
0
41
1
10
-28.5
20
16.3328856609547
30
0
41
1
10
-28.5
20
15.7436769514769
30
0
41
1
10
-28.5
20
14.7294543359372
30
0
41
1
10
-28.5
20
13.3839106046769
30
0
41
1
10
-28.5
20
12.1202723366856
30
0
41
1
10
-28.5
20
11.0855105352455
30
0
41
1
10
-28.5
20
9.96451720849825
30
0
41
1
10
-28.5
20
8.75967545377557
30
0
41
1
10
-28.5
20
7.47337327542297
30
0
41
1
10
-28.5
20
6.10815549439155
30
0
41
1
10
-28.5
20
4.9096720321497
30
0
41
1
10
-28.5
20
3.9114668992739
30
0
41
1
10
-28.5
20
2.89299469927084
30
0
41
1
10
-28.5
20
1.85830102725041
30
0
41
1
10
-28.5
20
0.929573956929886
30
0
41
1
10
-28.5
20
0.39746341502854
30
0
41
1
10
-28.5
20
1.847321585E-07
30
0
41
1
10
-28.5
20
-0.397463221290877
30
0
41
1
10
-28.5
20
-0.929574056191939
30
0
41
1
10
-28.5
20
-1.85830097558352
30
0
41
1
10
-28.5
20
-2.89299452712916
30
0
41
1
10
-28.5
20
-3.91146685141305
30
0
41
1
10
-28.5
20
-4.90967166078667
30
0
41
1
10
-28.5
20
-6.10815570815362
30
0
41
1
10
-28.5
20
-7.47337302390386
30
0
41
1
10
-28.5
20
-8.75967525472745
30
0
41
1
10
-28.5
20
-9.96451747418803
30
0
41
1
10
-28.5
20
-11.0855103162798
30
0
41
1
10
-28.5
20
-12.1202722318355
30
0
41
1
10
-28.5
20
-13.3839109677473
30
0
41
1
10
-28.5
20
-14.7294539424714
30
0
41
1
10
-28.5
20
-15.7436777114932
30
0
41
1
10
-28.5
20
-16.3328855300396
30
0
41
1
10
-28.5
20
-16.653119129773
30
0
41
1
10
-28.5
20
-16.840542398728
30
0
41
1
10
-28.5
20
-16.8681141136348
30
0
41
1
10
-28.5
20
-16.8545104794839
30
0
0
SPLINE
5
178
100
AcDbEntity
8
1
62
256
6
ByLayer
370
18
48
1
60
0
100
AcDbSpline
70
4
71
3
72
83
73
79
40
0
40
0
40
0
40
0
40
0.0068100238750429
40
0.0136848534849492
40
0.0206245976011759
40
0.0276293703709438
40
0.0346992914480519
40
0.0418344861267589
40
0.0490350854788578
40
0.0563012264940714
40
0.0636330522238986
40
0.0710307119290581
40
0.0784928620834395
40
0.086016336773455
40
0.0936010748657857
40
0.101247133559288
40
0.108954575411081
40
0.116723468447921
40
0.124553886279958
40
0.132445908216976
40
0.140399619387217
40
0.148415110858874
40
0.156492479764376
40
0.164631829427556
40
0.172833269493847
40
0.181096916063583
40
0.189422891828565
40
0.197811326212007
40
0.206262355512002
40
0.214776123048649
40
0.22335277931499
40
0.231992482131913
40
0.24069539680718
40
0.249461696298757
40
0.258291561382597
40
0.267185180825166
40
0.276142751560685
40
0.285164478873558
40
0.294250576585987
40
0.30340126725116
40
0.312616766403892
40
0.321894145650164
40
0.33123120504537
40
0.340628093944459
40
0.350084969599424
40
0.359601997311529
40
0.369179350587636
40
0.3788172113012
40
0.388515769857903
40
0.398275225366182
40
0.408095785812869
40
0.41797766824415
40
0.42792109895207
40
0.437926313666859
40
0.447993557755249
40
0.458123086425127
40
0.468315164936755
40
0.478570068820857
40
0.488888084103859
40
0.499269507540561
40
0.559503553245511
40
0.62134266577828
40
0.684685602804788
40
0.74959108990894
40
0.811858118425802
40
0.874677219523857
40
0.905800396287727
40
0.937295365203803
40
0.968636495383807
40
0.984315790805472
40
0.992157687177854
40
0.996079205829761
40
0.99804010881114
40
0.999020596411054
40
0.999510849247377
40
0.999755977925763
40
0.999878542830154
40
1
40
1
40
1
40
1
41
1
10
466.067675282232
20
-22.754751137058
30
0
41
1
10
466.06830942389
20
-22.7647486282391
30
0
41
1
10
466.069583741843
20
-22.7848387489995
30
0
41
1
10
466.071419139915
20
-22.8148724625213
30
0
41
1
10
466.073210143933
20
-22.8450067781473
30
0
41
1
10
466.074950122753
20
-22.875218678019
30
0
41
1
10
466.076640413757
20
-22.9055075009221
30
0
41
1
10
466.078280201811
20
-22.9358664370466
30
0
41
1
10
466.079869268835
20
-22.9662902731441
30
0
41
1
10
466.081407247677
20
-22.9967732855547
30
0
41
1
10
466.082893819998
20
-23.0273098176986
30
0
41
1
10
466.084328582586
20
-23.057892032929
30
0
41
1
10
466.085710902847
20
-23.088507633893
30
0
41
1
10
466.087040060789
20
-23.119144351764
30
0
41
1
10
466.08831571631
20
-23.1497916187931
30
0
41
1
10
466.089537681017
20
-23.1804432965423
30
0
41
1
10
466.090705797697
20
-23.2110933322306
30
0
41
1
10
466.091819913759
20
-23.2417356308308
30
0
41
1
10
466.092879886448
20
-23.2723640472191
30
0
41
1
10
466.093885581259
20
-23.3029723873491
30
0
41
1
10
466.094836872206
20
-23.3335544069295
30
0
41
1
10
466.095733641602
20
-23.3641038107305
30
0
41
1
10
466.09657577998
20
-23.394614251669
30
0
41
1
10
466.097363185982
20
-23.4250793299027
30
0
41
1
10
466.098095766279
20
-23.4554925918684
30
0
41
1
10
466.098773435479
20
-23.4858475292821
30
0
41
1
10
466.099396116061
20
-23.5161375780933
30
0
41
1
10
466.099963738306
20
-23.5463561173948
30
0
41
1
10
466.100476240245
20
-23.5764964682862
30
0
41
1
10
466.100933567609
20
-23.60655189269
30
0
41
1
10
466.101335673792
20
-23.6365155921182
30
0
41
1
10
466.101682519823
20
-23.6663807063889
30
0
41
1
10
466.101974074347
20
-23.696140312291
30
0
41
1
10
466.102210313616
20
-23.7257874221974
30
0
41
1
10
466.102391221492
20
-23.7553149826137
30
0
41
1
10
466.102516789425
20
-23.7847158727134
30
0
41
1
10
466.102587016642
20
-23.8139829026331
30
0
41
1
10
466.102601909483
20
-23.8431088124248
30
0
41
1
10
466.102561484127
20
-23.8720862682091
30
0
41
1
10
466.102465756531
20
-23.9009078518702
30
0
41
1
10
466.102314798286
20
-23.9295627611144
30
0
41
1
10
466.102108618415
20
-23.9580378953486
30
0
41
1
10
466.101847327294
20
-23.9863202834938
30
0
41
1
10
466.101531117026
20
-24.0144001557221
30
0
41
1
10
466.101160151189
20
-24.0422700939421
30
0
41
1
10
466.100734606427
20
-24.0699226149867
30
0
41
1
10
466.100254666023
20
-24.0973501742282
30
0
41
1
10
466.099720521795
20
-24.1245451624632
30
0
41
1
10
466.099132373752
20
-24.1514999045458
30
0
41
1
10
466.098490430378
20
-24.1782066574718
30
0
41
1
10
466.097794908756
20
-24.2046576085336
30
0
41
1
10
466.097046034761
20
-24.2308448733708
30
0
41
1
10
466.096244043251
20
-24.256760493982
30
0
41
1
10
466.095389178258
20
-24.2823964365995
30
0
41
1
10
466.094481693286
20
-24.3077445897403
30
0
41
1
10
466.093521851291
20
-24.3327967612632
30
0
41
1
10
466.092509925908
20
-24.3575446788142
30
0
41
1
10
466.091446198084
20
-24.3819799771499
30
0
41
1
10
466.090330970103
20
-24.4060942345127
30
0
41
1
10
466.087299773402
20
-24.4679017725559
30
0
41
1
10
466.081713634206
20
-24.5621192797205
30
0
41
1
10
466.072604320865
20
-24.6771104887478
30
0
41
1
10
466.06212881291
20
-24.7771451262575
30
0
41
1
10
466.050679262686
20
-24.8589887208501
30
0
41
1
10
466.038527399241
20
-24.9223270631088
30
0
41
1
10
466.028096349424
20
-24.959579650762
30
0
41
1
10
466.019545527454
20
-24.9805350605215
30
0
41
1
10
466.013074895502
20
-24.9917567992098
30
0
41
1
10
466.007631267275
20
-24.9973794599142
30
0
41
1
10
466.003818064973
20
-24.9993445317409
30
0
41
1
10
466.00190947551
20
-24.9998360913671
30
0
41
1
10
466.000954828016
20
-24.999959017035
30
0
41
1
10
466.000477434062
20
-24.9999897543087
30
0
41
1
10
466.000238721715
20
-24.9999974374873
30
0
41
1
10
466.000119361988
20
-24.9999993607823
30
0
41
1
10
466.000059681271
20
-24.9999998381889
30
0
41
1
10
466.000025654823
20
-24.9999999797982
30
0
41
1
10
466.000009410972
20
-24.9999999926839
30
0
41
1
10
465.999999533268
20
-25.0000000003627
30
0
0
SPLINE
5
179
100
AcDbEntity
8
1
62
256
6
ByLayer
370
13
48
1
60
0
100
AcDbSpline
70
4
71
1
72
4
73
2
40
0
40
0
40
1
40
1
41
1
10
465.635350564463
20
-22.9943900756303
30
0
41
1
10
466.067675282232
20
-22.7547511370589
30
0
0
SPLINE
5
17A
100
AcDbEntity
8
1
62
256
6
ByLayer
370
13
48
1
60
0
100
AcDbSpline
70
4
71
3
72
34
73
30
40
0
40
0
40
0
40
0
40
0.0625
40
0.0625
40
0.125
40
0.125
40
0.25
40
0.25
40
0.3125
40
0.3125
40
0.375000000000001
40
0.375000000000001
40
0.500000000000001
40
0.500000000000001
40
0.562500000000001
40
0.562500000000001
40
0.593750000000001
40
0.593750000000001
40
0.625000000000001
40
0.75
40
0.75
40
0.8125
40
0.8125
40
0.84375
40
0.84375
40
0.875
40
0.9375
40
0.9375
40
1
40
1
40
1
40
1
41
1
10
466.5
20
-22.5365853658537
30
0
41
1
10
466.5
20
-22.6373314104483
30
0
41
1
10
466.498725623193
20
-22.7351579663316
30
0
41
1
10
466.494026128838
20
-22.9249759938792
30
0
41
1
10
466.490600456538
20
-23.0169088242218
30
0
41
1
10
466.477575832709
20
-23.2835274913128
30
0
41
1
10
466.465247523275
20
-23.4491666082499
30
0
41
1
10
466.442617490402
20
-23.6795117451516
30
0
41
1
10
466.43437761318
20
-23.7532778952764
30
0
41
1
10
466.41667329215
20
-23.8947236348472
30
0
41
1
10
466.40722530712
20
-23.9622722142623
30
0
41
1
10
466.377321211602
20
-24.1554500642225
30
0
41
1
10
466.355312517615
20
-24.2716211294421
30
0
41
1
10
466.31991839485
20
-24.426998130297
30
0
41
1
10
466.3077213716
20
-24.475641430203
30
0
41
1
10
466.288902986092
20
-24.5438661551302
30
0
41
1
10
466.282544446913
20
-24.5658113771959
30
0
41
1
10
466.269682158228
20
-24.6080642925878
30
0
41
1
10
466.237152682466
20
-24.7096352615529
30
0
41
1
10
466.20291630061
20
-24.7909839098411
30
0
41
1
10
466.160712834102
20
-24.8692332625331
30
0
41
1
10
466.146457520479
20
-24.8920857452443
30
0
41
1
10
466.124852375046
20
-24.9215017564265
30
0
41
1
10
466.117611926543
20
-24.9304980569007
30
0
41
1
10
466.103081239536
20
-24.9468494149342
30
0
41
1
10
466.081206597765
20
-24.968920778016
30
0
41
1
10
466.059139800026
20
-24.9836371974736
30
0
41
1
10
466.029622238173
20
-24.9967241358796
30
0
41
1
10
466.014812739614
20
-25
30
0
41
1
10
466
20
-25
30
0
0
SPLINE
5
17B
100
AcDbEntity
8
1
62
256
6
ByLayer
370
18
48
1
60
0
100
AcDbSpline
70
4
71
3
72
36
73
32
40
0
40
0
40
0
40
0
40
0.0625
40
0.0625
40
0.125
40
0.125
40
0.1875
40
0.1875
40
0.25
40
0.25
40
0.3125
40
0.3125
40
0.375
40
0.375
40
0.4375
40
0.4375
40
0.5
40
0.5
40
0.5625
40
0.5625
40
0.625
40
0.625
40
0.6875
40
0.6875
40
0.75
40
0.75
40
0.8125
40
0.8125
40
0.875
40
0.875
40
1
40
1
40
1
40
1
41
1
10
467.650480947162
20
-24.6294893682058
30
0
41
1
10
467.643862084188
20
-24.6358650377145
30
0
41
1
10
467.63736815804
20
-24.6420854939392
30
0
41
1
10
467.624658212001
20
-24.6541795144029
30
0
41
1
10
467.618465781099
20
-24.6600302465737
30
0
41
1
10
467.606614451507
20
-24.6711317760501
30
0
41
1
10
467.600930365741
20
-24.6764066912077
30
0
41
1
10
467.590113554064
20
-24.6863246581521
30
0
41
1
10
467.584944456052
20
-24.691000029734
30
0
41
1
10
467.575462300344
20
-24.6994157565418
30
0
41
1
10
467.571165979257
20
-24.7031426233273
30
0
41
1
10
467.563582231134
20
-24.7095025996331
30
0
41
1
10
467.560295493777
20
-24.712131438415
30
0
41
1
10
467.555115656292
20
-24.7159495810422
30
0
41
1
10
467.55318093426
20
-24.7171751733806
30
0
41
1
10
467.550745513604
20
-24.7181286395742
30
0
41
1
10
467.550291079597
20
-24.717836383795
30
0
41
1
10
467.550812662286
20
-24.7158184071476
30
0
41
1
10
467.551796471514
20
-24.7140793421216
30
0
41
1
10
467.555138387984
20
-24.7092388666698
30
0
41
1
10
467.557446708715
20
-24.7062051495601
30
0
41
1
10
467.563158317433
20
-24.6990846204169
30
0
41
1
10
467.566592406128
20
-24.6949623448436
30
0
41
1
10
467.57432482138
20
-24.6859171291032
30
0
41
1
10
467.578590882068
20
-24.681029982191
30
0
41
1
10
467.587802061849
20
-24.670638073287
30
0
41
1
10
467.592748132286
20
-24.6651324406482
30
0
41
1
10
467.60325464834
20
-24.6535639456442
30
0
41
1
10
467.608756349683
20
-24.6475660845106
30
0
41
1
10
467.625757992912
20
-24.6291819152152
30
0
41
1
10
467.63781344554
20
-24.616338150569
30
0
41
1
10
467.650480947162
20
-24.6030003410693
30
0
0
SPLINE
5
17C
100
AcDbEntity
8
1
62
256
6
ByLayer
370
18
48
1
60
0
100
AcDbSpline
70
4
71
3
72
8
73
4
40
0
40
0
40
0
40
0
40
1
40
1
40
1
40
1
41
1
10
467.650480947162
20
-24.6030003410693
30
0
41
1
10
467.876008003165
20
-24.3655393957386
30
0
41
1
10
468.100791090601
20
-24.1271433496652
30
0
41
1
10
468.324759526419
20
-23.8877233606912
30
0
0
SPLINE
5
17D
100
AcDbEntity
8
1
62
256
6
ByLayer
370
18
48
1
60
0
100
AcDbSpline
70
4
71
3
72
8
73
4
40
0
40
0
40
0
40
0
40
1
40
1
40
1
40
1
41
1
10
468.324759526419
20
-23.8429985339383
30
0
41
1
10
468.10033706691
20
-24.0525298860216
30
0
41
1
10
467.875567648883
20
-24.2615638584136
30
0
41
1
10
467.650480947162
20
-24.4701429912256
30
0
0
SPLINE
5
17E
100
AcDbEntity
8
1
62
256
6
ByLayer
370
18
48
1
60
0
100
AcDbSpline
70
4
71
3
72
38
73
34
40
0
40
0
40
0
40
0
40
0.0625000000000053
40
0.0625000000000053
40
0.125000000000011
40
0.125000000000011
40
0.187500000000016
40
0.187500000000016
40
0.250000000000021
40
0.250000000000021
40
0.312500000000027
40
0.312500000000027
40
0.375000000000032
40
0.375000000000032
40
0.437500000000037
40
0.437500000000037
40
0.500000000000043
40
0.500000000000043
40
0.531250000000045
40
0.531250000000045
40
0.562500000000048
40
0.562500000000048
40
0.625000000000044
40
0.625000000000044
40
0.687500000000039
40
0.687500000000039
40
0.750000000000034
40
0.750000000000034
40
0.81250000000003
40
0.81250000000003
40
0.875000000000025
40
0.875000000000025
40
1
40
1
40
1
40
1
41
1
10
467.650480947162
20
-24.4701429912256
30
0
41
1
10
467.643726881463
20
-24.4764017224413
30
0
41
1
10
467.637098160743
20
-24.4824675984262
30
0
41
1
10
467.624121587645
20
-24.4941653645858
30
0
41
1
10
467.617742143976
20
-24.4998242703924
30
0
41
1
10
467.605562970483
20
-24.5104136408788
30
0
41
1
10
467.599742695575
20
-24.515363799964
30
0
41
1
10
467.588714807944
20
-24.5244776354345
30
0
41
1
10
467.583471678807
20
-24.5286687146869
30
0
41
1
10
467.573894168183
20
-24.5359672809034
30
0
41
1
10
467.569604727196
20
-24.5390430763004
30
0
41
1
10
467.562140118258
20
-24.5439116287619
30
0
41
1
10
467.558968752714
20
-24.545692521259
30
0
41
1
10
467.55412676766
20
-24.5476893893327
30
0
41
1
10
467.552408786091
20
-24.5479394606952
30
0
41
1
10
467.550449968655
20
-24.5468649480095
30
0
41
1
10
467.550243871428
20
-24.5455532016626
30
0
41
1
10
467.550991933076
20
-24.5425459103022
30
0
41
1
10
467.551417710024
20
-24.5413688368418
30
0
41
1
10
467.552612851189
20
-24.5386745168133
30
0
41
1
10
467.553385026571
20
-24.5371539574101
30
0
41
1
10
467.556141299637
20
-24.5322031740115
30
0
41
1
10
467.558572250333
20
-24.5283601137443
30
0
41
1
10
467.56445428438
20
-24.5197418754225
30
0
41
1
10
467.567937837454
20
-24.5149253101636
30
0
41
1
10
467.575648799551
20
-24.5046892334914
30
0
41
1
10
467.579874304902
20
-24.4992680700743
30
0
41
1
10
467.588959245089
20
-24.4879075907862
30
0
41
1
10
467.593819464948
20
-24.481967630191
30
0
41
1
10
467.604115964568
20
-24.4696181549185
30
0
41
1
10
467.609513235996
20
-24.4632561734392
30
0
41
1
10
467.6261921918
20
-24.4438785061731
30
0
41
1
10
467.638027080278
20
-24.4304881908606
30
0
41
1
10
467.650480947162
20
-24.4166940319327
30
0
0
SPLINE
5
17F
100
AcDbEntity
8
1
62
256
6
ByLayer
370
18
48
1
60
0
100
AcDbSpline
70
4
71
3
72
8
73
4
40
0
40
0
40
0
40
0
40
1
40
1
40
1
40
1
41
1
10
467.650480947162
20
-24.4166940319327
30
0
41
1
10
467.876228917632
20
-24.1666509399749
30
0
41
1
10
468.101019214676
20
-23.9154654531765
30
0
41
1
10
468.324759526419
20
-23.6630274540333
30
0
0
SPLINE
5
180
100
AcDbEntity
8
1
62
256
6
ByLayer
370
18
48
1
60
0
100
AcDbSpline
70
4
71
3
72
8
73
4
40
0
40
0
40
0
40
0
40
1
40
1
40
1
40
1
41
1
10
468.324759526419
20
-23.5875252185438
30
0
41
1
10
468.100236859786
20
-23.7895703804292
30
0
41
1
10
467.875470342809
20
-23.9912532251729
30
0
41
1
10
467.650480947162
20
-24.1926049128576
30
0
0
SPLINE
5
181
100
AcDbEntity
8
1
62
256
6
ByLayer
370
18
48
1
60
0
100
AcDbSpline
70
4
71
3
72
39
73
35
40
0
40
0
40
0
40
0
40
0.0624999999999984
40
0.0624999999999984
40
0.124999999999997
40
0.124999999999997
40
0.187499999999996
40
0.187499999999996
40
0.249999999999994
40
0.249999999999994
40
0.312499999999993
40
0.312499999999993
40
0.343749999999994
40
0.343749999999994
40
0.374999999999995
40
0.406249999999996
40
0.406249999999996
40
0.437499999999997
40
0.437499999999997
40
0.499999999999997
40
0.499999999999997
40
0.562499999999997
40
0.562499999999997
40
0.624999999999997
40
0.624999999999997
40
0.687499999999997
40
0.687499999999997
40
0.749999999999997
40
0.749999999999997
40
0.812499999999997
40
0.812499999999997
40
0.874999999999997
40
0.874999999999997
40
1
40
1
40
1
40
1
41
1
10
467.650480947162
20
-24.1926049128576
30
0
41
1
10
467.643561481925
20
-24.1987974091714
30
0
41
1
10
467.636760597053
20
-24.2047594560294
30
0
41
1
10
467.623428732479
20
-24.2161568732048
30
0
41
1
10
467.616868043973
20
-24.221614922343
30
0
41
1
10
467.604372494835
20
-24.2316571174374
30
0
41
1
10
467.598405523108
20
-24.2362705084991
30
0
41
1
10
467.587120780066
20
-24.2445513660951
30
0
41
1
10
467.581757911793
20
-24.248245222261
30
0
41
1
10
467.572161291116
20
-24.2542618829971
30
0
41
1
10
467.567898801765
20
-24.2566113207269
30
0
41
1
10
467.562409953693
20
-24.2590197111092
30
0
41
1
10
467.56074024976
20
-24.2596301418322
30
0
41
1
10
467.557792033825
20
-24.2604382600566
30
0
41
1
10
467.555212841065
20
-24.2608439299451
30
0
41
1
10
467.553367705005
20
-24.2604482498083
30
0
41
1
10
467.551893890274
20
-24.259646847812
30
0
41
1
10
467.551341802858
20
-24.2590371274925
30
0
41
1
10
467.550274927363
20
-24.2566430276475
30
0
41
1
10
467.550326458122
20
-24.2543028706035
30
0
41
1
10
467.551787967949
20
-24.2482959791915
30
0
41
1
10
467.553220516284
20
-24.2445964956714
30
0
41
1
10
467.557185296634
20
-24.2362910592424
30
0
41
1
10
467.559719213955
20
-24.2316610587576
30
0
41
1
10
467.565737405588
20
-24.2215788782869
30
0
41
1
10
467.569244994022
20
-24.2160956853224
30
0
41
1
10
467.576918114054
20
-24.2046829541805
30
0
41
1
10
467.581098727558
20
-24.1987255135256
30
0
41
1
10
467.590054837743
20
-24.1863774236135
30
0
41
1
10
467.594830979835
20
-24.1799863029414
30
0
41
1
10
467.604926584524
20
-24.1668094826114
30
0
41
1
10
467.61022432905
20
-24.1600533921706
30
0
41
1
10
467.626598565669
20
-24.1395788033848
30
0
41
1
10
467.638226288089
20
-24.1255569553039
30
0
41
1
10
467.650480947162
20
-24.1112111569994
30
0
0
SPLINE
5
182
100
AcDbEntity
8
1
62
256
6
ByLayer
370
18
48
1
60
0
100
AcDbSpline
70
4
71
3
72
8
73
4
40
0
40
0
40
0
40
0
40
1
40
1
40
1
40
1
41
1
10
467.650480947162
20
-24.1112111569994
30
0
41
1
10
467.876507770666
20
-23.8466150387262
30
0
41
1
10
468.101307459449
20
-23.5806365366889
30
0
41
1
10
468.324759526419
20
-23.3131399205598
30
0
0
SPLINE
5
183
100
AcDbEntity
8
1
62
256
6
ByLayer
370
18
48
1
60
0
100
AcDbSpline
70
4
71
3
72
8
73
4
40
0
40
0
40
0
40
0
40
1
40
1
40
1
40
1
41
1
10
468.324759526419
20
-23.2053177327396
30
0
41
1
10
468.100154848045
20
-23.4009956122068
30
0
41
1
10
467.875390693943
20
-23.5964289589472
30
0
41
1
10
467.650480947162
20
-23.7916390605853
30
0
0
SPLINE
5
184
100
AcDbEntity
8
1
62
256
6
ByLayer
370
18
48
1
60
0
100
AcDbSpline
70
4
71
3
72
32
73
28
40
0
40
0
40
0
40
0
40
0.125000000000012
40
0.125000000000012
40
0.187500000000011
40
0.187500000000011
40
0.250000000000009
40
0.250000000000009
40
0.312500000000008
40
0.312500000000008
40
0.375000000000007
40
0.375000000000007
40
0.437500000000005
40
0.437500000000005
40
0.500000000000004
40
0.500000000000004
40
0.562500000000002
40
0.562500000000002
40
0.625000000000001
40
0.625000000000001
40
0.749999999999994
40
0.749999999999994
40
0.812499999999999
40
0.812499999999999
40
0.875000000000003
40
0.875000000000003
40
1
40
1
40
1
40
1
41
1
10
467.650480947162
20
-23.7916390605853
30
0
41
1
10
467.636218452344
20
-23.8040181731086
30
0
41
1
10
467.622240264368
20
-23.8154173152047
30
0
41
1
10
467.602992291188
20
-23.8296153042808
30
0
41
1
10
467.596826112669
20
-23.8338945401531
30
0
41
1
10
467.585150324815
20
-23.8413094412335
30
0
41
1
10
467.579802545074
20
-23.8443419283293
30
0
41
1
10
467.570193548697
20
-23.8489058516384
30
0
41
1
10
467.565917359672
20
-23.8504253367856
30
0
41
1
10
467.5589614839
20
-23.8516753986743
30
0
41
1
10
467.556219248358
20
-23.8514436933257
30
0
41
1
10
467.552246458667
20
-23.8492156646211
30
0
41
1
10
467.551085390741
20
-23.847251677175
30
0
41
1
10
467.550241537348
20
-23.8418614194536
30
0
41
1
10
467.550569080283
20
-23.838382972767
30
0
41
1
10
467.552511726574
20
-23.8303344171844
30
0
41
1
10
467.554109567751
20
-23.8257708187554
30
0
41
1
10
467.558360917358
20
-23.8157342041928
30
0
41
1
10
467.56103952816
20
-23.8102189029186
30
0
41
1
10
467.570274220005
20
-23.7928579231843
30
0
41
1
10
467.578003306719
20
-23.7801749967735
30
0
41
1
10
467.591401058081
20
-23.7598818429372
30
0
41
1
10
467.59613953536
20
-23.7529552766058
30
0
41
1
10
467.605993559771
20
-23.7389641660187
30
0
41
1
10
467.611125160039
20
-23.7318756087926
30
0
41
1
10
467.627074672477
20
-23.7103590621003
30
0
41
1
10
467.638441494712
20
-23.6956828090524
30
0
41
1
10
467.650480947162
20
-23.6807059996443
30
0
0
SPLINE
5
185
100
AcDbEntity
8
1
62
256
6
ByLayer
370
18
48
1
60
0
100
AcDbSpline
70
4
71
3
72
8
73
4
40
0
40
0
40
0
40
0
40
1
40
1
40
1
40
1
41
1
10
467.650480947162
20
-23.6807059996443
30
0
41
1
10
467.876866272618
20
-23.3990877212198
30
0
41
1
10
468.101678442285
20
-23.1158055554848
30
0
41
1
10
468.324759526419
20
-22.8306924641193
30
0
0
SPLINE
5
186
100
AcDbEntity
8
1
62
256
6
ByLayer
370
18
48
1
60
0
100
AcDbSpline
70
4
71
3
72
8
73
4
40
0
40
0
40
0
40
0
40
1
40
1
40
1
40
1
41
1
10
468.324759526419
20
-22.6881625317612
30
0
41
1
10
468.100089025132
20
-22.8786205059025
30
0
41
1
10
467.875326782244
20
-23.0689340213256
30
0
41
1
10
467.650480947162
20
-23.2591159102949
30
0
0
SPLINE
5
187
100
AcDbEntity
8
1
62
256
6
ByLayer
370
18
48
1
60
0
100
AcDbSpline
70
4
71
3
72
41
73
37
40
0
40
0
40
0
40
0
40
0.0625000000000064
40
0.0625000000000064
40
0.125000000000013
40
0.125000000000013
40
0.156250000000017
40
0.156250000000017
40
0.187500000000021
40
0.187500000000021
40
0.250000000000023
40
0.250000000000023
40
0.281250000000023
40
0.281250000000023
40
0.312500000000023
40
0.343750000000024
40
0.343750000000024
40
0.375000000000024
40
0.375000000000024
40
0.437500000000025
40
0.437500000000025
40
0.468750000000028
40
0.468750000000028
40
0.500000000000031
40
0.500000000000031
40
0.562500000000028
40
0.562500000000028
40
0.625000000000024
40
0.625000000000024
40
0.68750000000002
40
0.68750000000002
40
0.750000000000017
40
0.750000000000017
40
0.875000000000008
40
0.875000000000008
40
1
40
1
40
1
40
1
41
1
10
467.650480947162
20
-23.2591159102949
30
0
41
1
10
467.643120671969
20
-23.2653414694157
30
0
41
1
10
467.635804695087
20
-23.2712773588523
30
0
41
1
10
467.621558337367
20
-23.2822363602348
30
0
41
1
10
467.614658110684
20
-23.2872398905797
30
0
41
1
10
467.604698216193
20
-23.2939087063814
30
0
41
1
10
467.601443651369
20
-23.2959915195195
30
0
41
1
10
467.595080260981
20
-23.2998442241153
30
0
41
1
10
467.591968194618
20
-23.3016142220467
30
0
41
1
10
467.583076629913
20
-23.3062945367747
30
0
41
1
10
467.577668862641
20
-23.3086246746207
30
0
41
1
10
467.570442806861
20
-23.3107695863596
30
0
41
1
10
467.568202442333
20
-23.3112498316741
30
0
41
1
10
467.564140466581
20
-23.3117249114428
30
0
41
1
10
467.560469603166
20
-23.3117232866626
30
0
41
1
10
467.557572696077
20
-23.3107769709441
30
0
41
1
10
467.555065784551
20
-23.3093539638441
30
0
41
1
10
467.554012412702
20
-23.3084010300546
30
0
41
1
10
467.551498718449
20
-23.3049318251667
30
0
41
1
10
467.550641696582
20
-23.3017928744914
30
0
41
1
10
467.550431296051
20
-23.2959971988531
30
0
41
1
10
467.550543891767
20
-23.2938771195672
30
0
41
1
10
467.551097439142
20
-23.2893835606951
30
0
41
1
10
467.55153724686
20
-23.2870008336846
30
0
41
1
10
467.553295887259
20
-23.2794861044503
30
0
41
1
10
467.555051097323
20
-23.2739898973757
30
0
41
1
10
467.559557801758
20
-23.2621650826893
30
0
41
1
10
467.562301249488
20
-23.2558684256211
30
0
41
1
10
467.568507240897
20
-23.2428591198074
30
0
41
1
10
467.571983861287
20
-23.236110933697
30
0
41
1
10
467.579584891849
20
-23.2221925717866
30
0
41
1
10
467.583728003621
20
-23.2149922619386
30
0
41
1
10
467.59691541842
20
-23.1930284474522
30
0
41
1
10
467.606613261902
20
-23.1780492255824
30
0
41
1
10
467.627467863824
20
-23.1475539976572
30
0
41
1
10
467.638630045339
20
-23.1320359563952
30
0
41
1
10
467.650480947162
20
-23.1162678662819
30
0
0
SPLINE
5
188
100
AcDbEntity
8
1
62
256
6
ByLayer
370
18
48
1
60
0
100
AcDbSpline
70
4
71
3
72
8
73
4
40
0
40
0
40
0
40
0
40
1
40
1
40
1
40
1
41
1
10
467.650480947162
20
-23.1162678662819
30
0
41
1
10
467.877337890168
20
-22.8144257977413
30
0
41
1
10
468.102167049584
20
-22.5105841760994
30
0
41
1
10
468.324759526419
20
-22.204537010626
30
0
0
SPLINE
5
189
100
AcDbEntity
8
1
62
256
6
ByLayer
370
18
48
1
60
0
100
AcDbSpline
70
4
71
3
72
8
73
4
40
0
40
0
40
0
40
0
40
1
40
1
40
1
40
1
41
1
10
468.324759526419
20
-22.0237655573026
30
0
41
1
10
468.100039125586
20
-22.2102687278776
30
0
41
1
10
467.87527835498
20
-22.3967070563409
30
0
41
1
10
467.650480947162
20
-22.5830864488535
30
0
0
SPLINE
5
18A
100
AcDbEntity
8
1
62
256
6
ByLayer
370
18
48
1
60
0
100
AcDbSpline
70
4
71
3
72
39
73
35
40
0
40
0
40
0
40
0
40
0.0625000000000157
40
0.0625000000000157
40
0.125000000000031
40
0.125000000000031
40
0.187500000000047
40
0.187500000000047
40
0.218750000000048
40
0.218750000000048
40
0.25000000000005
40
0.25000000000005
40
0.312500000000062
40
0.312500000000062
40
0.343750000000066
40
0.343750000000066
40
0.375000000000071
40
0.406250000000075
40
0.406250000000075
40
0.43750000000008
40
0.43750000000008
40
0.500000000000071
40
0.500000000000071
40
0.562500000000062
40
0.562500000000062
40
0.625000000000053
40
0.625000000000053
40
0.687500000000044
40
0.687500000000044
40
0.750000000000034
40
0.750000000000034
40
0.875000000000017
40
0.875000000000017
40
1
40
1
40
1
40
1
41
1
10
467.650480947162
20
-22.5830864488535
30
0
41
1
10
467.642848465984
20
-22.589414534302
30
0
41
1
10
467.635230044314
20
-22.5953906617501
30
0
41
1
10
467.620434193986
20
-22.6061779599126
30
0
41
1
10
467.613255140464
20
-22.6109974845249
30
0
41
1
10
467.599425158374
20
-22.6192459915888
30
0
41
1
10
467.592745263725
20
-22.6226722784097
30
0
41
1
10
467.583692680945
20
-22.626299816829
30
0
41
1
10
467.580816760607
20
-22.6272697003245
30
0
41
1
10
467.575367399923
20
-22.6286973789872
30
0
41
1
10
467.572783455345
20
-22.6291527982104
30
0
41
1
10
467.565725370173
20
-22.6296830301391
30
0
41
1
10
467.561864611698
20
-22.6289563432164
30
0
41
1
10
467.557292459269
20
-22.6263023228392
30
0
41
1
10
467.55596873654
20
-22.6251453113987
30
0
41
1
10
467.553784251942
20
-22.6223872509873
30
0
41
1
10
467.552040779151
20
-22.6191809187844
30
0
41
1
10
467.551098579189
20
-22.6151589316097
30
0
41
1
10
467.550528264205
20
-22.6107578663772
30
0
41
1
10
467.550430700683
20
-22.6083568813502
30
0
41
1
10
467.550654051541
20
-22.6007652352953
30
0
41
1
10
467.551475794025
20
-22.5951597496355
30
0
41
1
10
467.554198267888
20
-22.5830737854475
30
0
41
1
10
467.556114381686
20
-22.5765557654383
30
0
41
1
10
467.560823333971
20
-22.5629298211242
30
0
41
1
10
467.563597798464
20
-22.5558628914158
30
0
41
1
10
467.569844713144
20
-22.5413066108043
30
0
41
1
10
467.573318283136
20
-22.5338165910066
30
0
41
1
10
467.580882685558
20
-22.5184630726735
30
0
41
1
10
467.584984596991
20
-22.5105829559678
30
0
41
1
10
467.597909096523
20
-22.4868430027664
30
0
41
1
10
467.60740422431
20
-22.4707518266123
30
0
41
1
10
467.627855969026
20
-22.4381338925008
30
0
41
1
10
467.638816630045
20
-22.4216059035293
30
0
41
1
10
467.650480947162
20
-22.4048713342158
30
0
0
SPLINE
5
18B
100
AcDbEntity
8
1
62
256
6
ByLayer
370
18
48
1
60
0
100
AcDbSpline
70
4
71
3
72
8
73
4
40
0
40
0
40
0
40
0
40
1
40
1
40
1
40
1
41
1
10
467.650480947162
20
-22.4048713342158
30
0
41
1
10
467.87797677687
20
-22.0784874839773
30
0
41
1
10
468.10282976625
20
-21.7496954266907
30
0
41
1
10
468.324759526419
20
-21.4182396666025
30
0
0
SPLINE
5
18C
100
AcDbEntity
8
1
62
256
6
ByLayer
370
18
48
1
60
0
100
AcDbSpline
70
4
71
3
72
8
73
4
40
0
40
0
40
0
40
0
40
1
40
1
40
1
40
1
41
1
10
468.324759526419
20
-21.1940141333149
30
0
41
1
10
468.100007511727
20
-21.3780816494066
30
0
41
1
10
467.875247737629
20
-21.562136533403
30
0
41
1
10
467.650480947162
20
-21.746179991572
30
0
0
SPLINE
5
18D
100
AcDbEntity
8
1
62
256
6
ByLayer
370
18
48
1
60
0
100
AcDbSpline
70
4
71
3
72
39
73
35
40
0
40
0
40
0
40
0
40
0.0625000000000087
40
0.0625000000000087
40
0.125000000000017
40
0.125000000000017
40
0.156250000000021
40
0.156250000000021
40
0.187500000000024
40
0.187500000000024
40
0.218750000000028
40
0.218750000000028
40
0.250000000000031
40
0.281250000000035
40
0.281250000000035
40
0.312500000000038
40
0.312500000000038
40
0.375000000000045
40
0.375000000000045
40
0.406250000000049
40
0.406250000000049
40
0.437500000000052
40
0.437500000000052
40
0.500000000000051
40
0.500000000000051
40
0.56250000000005
40
0.56250000000005
40
0.625000000000048
40
0.625000000000048
40
0.750000000000032
40
0.750000000000032
40
0.875000000000016
40
0.875000000000016
40
1
40
1
40
1
40
1
41
1
10
467.650480947162
20
-21.746179991572
30
0
41
1
10
467.642517355018
20
-21.752700737072
30
0
41
1
10
467.63453440989
20
-21.7587815916506
30
0
41
1
10
467.619042460543
20
-21.7694623151672
30
0
41
1
10
467.611511726718
20
-21.7740895951821
30
0
41
1
10
467.600621370502
20
-21.7796806806255
30
0
41
1
10
467.597061556649
20
-21.7813124621372
30
0
41
1
10
467.590290341915
20
-21.7839856794466
30
0
41
1
10
467.587053841966
20
-21.785040919009
30
0
41
1
10
467.58089623758
20
-21.7865551188073
30
0
41
1
10
467.577954952722
20
-21.787014546724
30
0
41
1
10
467.572512587958
20
-21.787284276329
30
0
41
1
10
467.567547431314
20
-21.7869134556379
30
0
41
1
10
467.56348717482
20
-21.7853258627772
30
0
41
1
10
467.559865561372
20
-21.7831473720263
30
0
41
1
10
467.558264729514
20
-21.7817488018322
30
0
41
1
10
467.554196953588
20
-21.7767917693807
30
0
41
1
10
467.552440567205
20
-21.772507925753
30
0
41
1
10
467.550959029724
20
-21.7648963564557
30
0
41
1
10
467.550660070545
20
-21.7621461067255
30
0
41
1
10
467.550422720308
20
-21.7563820754731
30
0
41
1
10
467.550481076441
20
-21.7533611718062
30
0
41
1
10
467.551119474506
20
-21.7439343578544
30
0
41
1
10
467.552159177103
20
-21.7371671874764
30
0
41
1
10
467.555239798449
20
-21.7228437690711
30
0
41
1
10
467.557290439547
20
-21.7152746972404
30
0
41
1
10
467.562146245543
20
-21.6997853492488
30
0
41
1
10
467.564959968858
20
-21.6918233983906
30
0
41
1
10
467.574383518436
20
-21.6673835167661
30
0
41
1
10
467.582020418221
20
-21.6502626912241
30
0
41
1
10
467.598905986321
20
-21.6158494363718
30
0
41
1
10
467.608200334979
20
-21.598435293484
30
0
41
1
10
467.628249215424
20
-21.5632547901681
30
0
41
1
10
467.639006636006
20
-21.5454877152687
30
0
41
1
10
467.650480947162
20
-21.5275506630092
30
0
0
SPLINE
5
18E
100
AcDbEntity
8
1
62
256
6
ByLayer
370
18
48
1
60
0
100
AcDbSpline
70
4
71
3
72
8
73
4
40
0
40
0
40
0
40
0
40
1
40
1
40
1
40
1
41
1
10
467.650480947162
20
-21.5275506630092
30
0
41
1
10
467.878876276632
20
-21.1705149416585
30
0
41
1
10
468.103764009202
20
-20.8105598495161
30
0
41
1
10
468.324759526419
20
-20.4473652688735
30
0
0
SPLINE
5
18F
100
AcDbEntity
8
1
62
256
6
ByLayer
370
18
48
1
60
0
100
AcDbSpline
70
4
71
3
72
8
73
4
40
0
40
0
40
0
40
0
40
1
40
1
40
1
40
1
41
1
10
468.324759526419
20
-20.1718025873659
30
0
41
1
10
468.10000187134
20
-20.3554472734957
30
0
41
1
10
467.875242279349
20
-20.5390887989485
30
0
41
1
10
467.650480947162
20
-20.7227274845173
30
0
0
SPLINE
5
190
100
AcDbEntity
8
1
62
256
6
ByLayer
370
18
48
1
60
0
100
AcDbSpline
70
4
71
3
72
38
73
34
40
0
40
0
40
0
40
0
40
0.0624999999999793
40
0.0624999999999793
40
0.0937499999999716
40
0.0937499999999716
40
0.124999999999964
40
0.124999999999964
40
0.18749999999996
40
0.18749999999996
40
0.249999999999956
40
0.249999999999956
40
0.28124999999996
40
0.28124999999996
40
0.312499999999965
40
0.312499999999965
40
0.374999999999966
40
0.374999999999966
40
0.437499999999967
40
0.437499999999967
40
0.499999999999969
40
0.499999999999969
40
0.56249999999997
40
0.56249999999997
40
0.624999999999971
40
0.624999999999971
40
0.687499999999972
40
0.687499999999972
40
0.749999999999973
40
0.749999999999973
40
0.874999999999987
40
0.874999999999987
40
1
40
1
40
1
40
1
41
1
10
467.650480947162
20
-20.7227274845174
30
0
41
1
10
467.642084189611
20
-20.7295879596027
30
0
41
1
10
467.633635577278
20
-20.7358730778346
30
0
41
1
10
467.621331349082
20
-20.7438542779431
30
0
41
1
10
467.617278610407
20
-20.7462841546202
30
0
41
1
10
467.609284196945
20
-20.7506167225567
30
0
41
1
10
467.605312533919
20
-20.7525309641125
30
0
41
1
10
467.59384949108
20
-20.7572404234738
30
0
41
1
10
467.586793021271
20
-20.7590261770072
30
0
41
1
10
467.574217814694
20
-20.7594741859468
30
0
41
1
10
467.568995280752
20
-20.7581391109119
30
0
41
1
10
467.562595860953
20
-20.7540283498169
30
0
41
1
10
467.560701051961
20
-20.7522911875497
30
0
41
1
10
467.557471003325
20
-20.7482678595017
30
0
41
1
10
467.556116901746
20
-20.7459736675127
30
0
41
1
10
467.552741344183
20
-20.7383459141707
30
0
41
1
10
467.551412871276
20
-20.7322137165055
30
0
41
1
10
467.550260898918
20
-20.7189622551589
30
0
41
1
10
467.550404629695
20
-20.7117851145455
30
0
41
1
10
467.551786707427
20
-20.6965886813014
30
0
41
1
10
467.55302900844
20
-20.6885664010888
30
0
41
1
10
467.556428844899
20
-20.6718153503687
30
0
41
1
10
467.558575785074
20
-20.6631531994731
30
0
41
1
10
467.563557184201
20
-20.6455384394753
30
0
41
1
10
467.566399025425
20
-20.6365545230316
30
0
41
1
10
467.5726862554
20
-20.6182825742094
30
0
41
1
10
467.576143791446
20
-20.6089656304771
30
0
41
1
10
467.58354639268
20
-20.5902008455657
30
0
41
1
10
467.587481021919
20
-20.5807754721037
30
0
41
1
10
467.599905559109
20
-20.5523851374537
30
0
41
1
10
467.609009839549
20
-20.5333070438349
30
0
41
1
10
467.628661740995
20
-20.4948880043345
30
0
41
1
10
467.639211392285
20
-20.4755466757466
30
0
41
1
10
467.650480947162
20
-20.4560769820827
30
0
0
SPLINE
5
191
100
AcDbEntity
8
1
62
256
6
ByLayer
370
18
48
1
60
0
100
AcDbSpline
70
4
71
3
72
8
73
4
40
0
40
0
40
0
40
0
40
1
40
1
40
1
40
1
41
1
10
467.650480947162
20
-20.4560769820827
30
0
41
1
10
467.880211532645
20
-20.0591860512804
30
0
41
1
10
468.105152654041
20
-19.6587123242204
30
0
41
1
10
468.324759526419
20
-19.2542482702526
30
0
0
SPLINE
5
192
100
AcDbEntity
8
1
62
256
6
ByLayer
370
18
48
1
60
0
100
AcDbSpline
70
4
71
3
72
8
73
4
40
0
40
0
40
0
40
0
40
1
40
1
40
1
40
1
41
1
10
468.324759526419
20
-18.9147796874403
30
0
41
1
10
468.10004293855
20
-19.1009918745286
30
0
41
1
10
467.87528177088
20
-19.2871322907612
30
0
41
1
10
467.650480947162
20
-19.4732088630914
30
0
0
SPLINE
5
193
100
AcDbEntity
8
1
62
256
6
ByLayer
370
18
48
1
60
0
100
AcDbSpline
70
4
71
3
72
34
73
30
40
0
40
0
40
0
40
0
40
0.0625000000000254
40
0.0625000000000254
40
0.0937500000000381
40
0.0937500000000381
40
0.125000000000051
40
0.125000000000051
40
0.187500000000072
40
0.187500000000072
40
0.250000000000093
40
0.250000000000093
40
0.281250000000097
40
0.281250000000097
40
0.3125000000001
40
0.3125000000001
40
0.375000000000091
40
0.375000000000091
40
0.437500000000082
40
0.437500000000082
40
0.500000000000073
40
0.500000000000073
40
0.625000000000055
40
0.625000000000055
40
0.750000000000037
40
0.750000000000037
40
0.875000000000018
40
0.875000000000018
40
1
40
1
40
1
40
1
41
1
10
467.650480947162
20
-19.4732088630924
30
0
41
1
10
467.641610746045
20
-19.4805510809384
30
0
41
1
10
467.632717594853
20
-19.4870974260139
30
0
41
1
10
467.619328414583
20
-19.4952053949897
30
0
41
1
10
467.614948765931
20
-19.4975617119473
30
0
41
1
10
467.606376490094
20
-19.5014961459086
30
0
41
1
10
467.602156895126
20
-19.5030818509567
30
0
41
1
10
467.590005767027
20
-19.5064329261963
30
0
41
1
10
467.582819857639
20
-19.50675740049
30
0
41
1
10
467.570335823892
20
-19.5034485559455
30
0
41
1
10
467.565449926247
20
-19.4999293623084
30
0
41
1
10
467.559738856258
20
-19.4925438009568
30
0
41
1
10
467.558096977763
20
-19.4897010183206
30
0
41
1
10
467.555363676397
20
-19.4835186121857
30
0
41
1
10
467.554261456695
20
-19.4801742613041
30
0
41
1
10
467.551618606382
20
-19.4695040698853
30
0
41
1
10
467.55074024509
20
-19.4614886218093
30
0
41
1
10
467.550322100162
20
-19.4446421416498
30
0
41
1
10
467.550767880496
20
-19.4357693456113
30
0
41
1
10
467.552650600946
20
-19.4173396015765
30
0
41
1
10
467.554097560382
20
-19.4077483041171
30
0
41
1
10
467.559624326733
20
-19.3783622980697
30
0
41
1
10
467.564840271178
20
-19.3580458003157
30
0
41
1
10
467.57746663017
20
-19.3164151731891
30
0
41
1
10
467.584781622077
20
-19.2954445124742
30
0
41
1
10
467.600983403359
20
-19.2532582502719
30
0
41
1
10
467.609876729726
20
-19.2320416953016
30
0
41
1
10
467.629096511696
20
-19.1893876202437
30
0
41
1
10
467.639424130324
20
-19.1679499081217
30
0
41
1
10
467.650480947162
20
-19.1464023848396
30
0
0
SPLINE
5
194
100
AcDbEntity
8
1
62
256
6
ByLayer
370
18
48
1
60
0
100
AcDbSpline
70
4
71
3
72
8
73
4
40
0
40
0
40
0
40
0
40
1
40
1
40
1
40
1
41
1
10
467.650480947162
20
-19.1464023848396
30
0
41
1
10
467.882352997816
20
-18.6945301612788
30
0
41
1
10
468.107382666912
20
-18.2381665161971
30
0
41
1
10
468.324759526419
20
-17.7767794748912
30
0
0
SPLINE
5
195
100
AcDbEntity
8
1
62
256
6
ByLayer
370
18
48
1
60
0
100
AcDbSpline
70
4
71
3
72
8
73
4
40
0
40
0
40
0
40
0
40
1
40
1
40
1
40
1
41
1
10
468.324759526419
20
-17.3514611989838
30
0
41
1
10
468.100191536751
20
-17.5453578173506
30
0
41
1
10
467.875423713527
20
-17.7389451074583
30
0
41
1
10
467.650480947162
20
-17.9322615979162
30
0
0
SPLINE
5
196
100
AcDbEntity
8
1
62
256
6
ByLayer
370
18
48
1
60
0
100
AcDbSpline
70
4
71
3
72
39
73
35
40
0
40
0
40
0
40
0
40
0.0312500000000049
40
0.0312500000000049
40
0.0625000000000098
40
0.0625000000000098
40
0.0937500000000147
40
0.0937500000000147
40
0.12500000000002
40
0.12500000000002
40
0.156250000000024
40
0.156250000000024
40
0.187500000000029
40
0.187500000000029
40
0.218750000000034
40
0.218750000000034
40
0.250000000000039
40
0.250000000000039
40
0.281250000000044
40
0.281250000000044
40
0.312500000000049
40
0.312500000000049
40
0.375000000000048
40
0.375000000000048
40
0.50000000000004
40
0.50000000000004
40
0.56250000000003
40
0.56250000000003
40
0.62500000000002
40
0.62500000000002
40
0.750000000000013
40
0.750000000000013
40
0.875000000000007
40
1
40
1
40
1
40
1
41
1
10
467.650480947162
20
-17.932261597918
30
0
41
1
10
467.645659559596
20
-17.9364051129035
30
0
41
1
10
467.640801078904
20
-17.9402752725336
30
0
41
1
10
467.630992180374
20
-17.947336656015
30
0
41
1
10
467.626006027204
20
-17.950544709167
30
0
41
1
10
467.616213206618
20
-17.9559198413893
30
0
41
1
10
467.611384546088
20
-17.9581090210066
30
0
41
1
10
467.601890289183
20
-17.9612844521533
30
0
41
1
10
467.597355810905
20
-17.9622204837452
30
0
41
1
10
467.588820720175
20
-17.9627189554139
30
0
41
1
10
467.584759371
20
-17.9622658825154
30
0
41
1
10
467.577453125654
20
-17.9600256025938
30
0
41
1
10
467.574191909539
20
-17.9582620751235
30
0
41
1
10
467.568356163976
20
-17.9536047091898
30
0
41
1
10
467.565807208947
20
-17.9507159173006
30
0
41
1
10
467.561457307646
20
-17.944216322145
30
0
41
1
10
467.559626662752
20
-17.9405816268441
30
0
41
1
10
467.556523269337
20
-17.9326866584442
30
0
41
1
10
467.555247510152
20
-17.9284035299872
30
0
41
1
10
467.55319751331
20
-17.919443414033
30
0
41
1
10
467.552418485904
20
-17.9147636089492
30
0
41
1
10
467.550682498191
20
-17.9002343493949
30
0
41
1
10
467.550325735067
20
-17.8898556133685
30
0
41
1
10
467.550966789172
20
-17.8579922826173
30
0
41
1
10
467.553590221519
20
-17.8355866876121
30
0
41
1
10
467.559524476594
20
-17.8009026027304
30
0
41
1
10
467.561860927053
20
-17.789113806189
30
0
41
1
10
467.567088729835
20
-17.7654205868507
30
0
41
1
10
467.569973709317
20
-17.7535355328583
30
0
41
1
10
467.579321527427
20
-17.7177809868877
30
0
41
1
10
467.58646953122
20
-17.6938130910538
30
0
41
1
10
467.602267862415
20
-17.6456594779338
30
0
41
1
10
467.619577003328
20
-17.5972869331207
30
0
41
1
10
467.639694160572
20
-17.5485106461847
30
0
41
1
10
467.650480947162
20
-17.5240203286135
30
0
0
SPLINE
5
197
100
AcDbEntity
8
1
62
256
6
ByLayer
370
18
48
1
60
0
100
AcDbSpline
70
4
71
3
72
8
73
4
40
0
40
0
40
0
40
0
40
1
40
1
40
1
40
1
41
1
10
467.650480947162
20
-17.5240203286135
30
0
41
1
10
467.886241901321
20
-16.9887487173422
30
0
41
1
10
468.111437539985
20
-16.4476285217346
30
0
41
1
10
468.324759526419
20
-15.8999354929284
30
0
0
SPLINE
5
198
100
AcDbEntity
8
1
62
256
6
ByLayer
370
18
48
1
60
0
100
AcDbSpline
70
4
71
3
72
8
73
4
40
0
40
0
40
0
40
0
40
1
40
1
40
1
40
1
41
1
10
468.324759526419
20
-15.3438916153448
30
0
41
1
10
468.100672937923
20
-15.5561625919072
30
0
41
1
10
467.875878259423
20
-15.7674293885325
30
0
41
1
10
467.650480947162
20
-15.9778415583032
30
0
0
SPLINE
5
199
100
AcDbEntity
8
1
62
256
6
ByLayer
370
18
48
1
60
0
100
AcDbSpline
70
4
71
3
72
39
73
35
40
0
40
0
40
0
40
0
40
0.0312499999999926
40
0.0312499999999926
40
0.0624999999999851
40
0.0624999999999851
40
0.0781249999999836
40
0.0781249999999836
40
0.093749999999982
40
0.093749999999982
40
0.12499999999998
40
0.12499999999998
40
0.156249999999978
40
0.156249999999978
40
0.187499999999976
40
0.187499999999976
40
0.218749999999974
40
0.218749999999974
40
0.249999999999972
40
0.249999999999972
40
0.28124999999997
40
0.28124999999997
40
0.312499999999968
40
0.312499999999968
40
0.374999999999972
40
0.374999999999972
40
0.499999999999972
40
0.499999999999972
40
0.624999999999973
40
0.624999999999973
40
0.749999999999973
40
0.749999999999973
40
0.874999999999987
40
1
40
1
40
1
40
1
41
1
10
467.650480947162
20
-15.977841558305
30
0
41
1
10
467.645070573186
20
-15.9828922331164
30
0
41
1
10
467.639513106979
20
-15.9875792288374
30
0
41
1
10
467.628225225349
20
-15.9957597995138
30
0
41
1
10
467.622572736455
20
-15.999203314172
30
0
41
1
10
467.614077225303
20
-16.0030918810385
30
0
41
1
10
467.611222335286
20
-16.0041768835953
30
0
41
1
10
467.605677702528
20
-16.0057967808801
30
0
41
1
10
467.602973531995
20
-16.0063414516262
30
0
41
1
10
467.595073068045
20
-16.007149022522
30
0
41
1
10
467.590031566255
20
-16.0065324890335
30
0
41
1
10
467.581193349521
20
-16.0032210025211
30
0
41
1
10
467.577280359417
20
-16.0005431411248
30
0
41
1
10
467.570434037439
20
-15.9936129589072
30
0
41
1
10
467.567567506173
20
-15.9894554602356
30
0
41
1
10
467.562642849808
20
-15.9801311836336
30
0
41
1
10
467.560603852079
20
-15.9749764931913
30
0
41
1
10
467.557229405652
20
-15.9641977522339
30
0
41
1
10
467.555875895449
20
-15.9585336597286
30
0
41
1
10
467.553672457203
20
-15.9467890170158
30
0
41
1
10
467.552823959493
20
-15.9407073042584
30
0
41
1
10
467.551532822405
20
-15.9282066799279
30
0
41
1
10
467.551090778585
20
-15.9217691865271
30
0
41
1
10
467.550280304693
20
-15.9022578233618
30
0
41
1
10
467.550409275107
20
-15.888933626274
30
0
41
1
10
467.552194406003
20
-15.8482913762713
30
0
41
1
10
467.555225580055
20
-15.8203143302209
30
0
41
1
10
467.56364088965
20
-15.7632072654731
30
0
41
1
10
467.568989094997
20
-15.7344845311726
30
0
41
1
10
467.581324248186
20
-15.6768917217863
30
0
41
1
10
467.588324868774
20
-15.6479991733814
30
0
41
1
10
467.603732419277
20
-15.5900484071946
30
0
41
1
10
467.620551977068
20
-15.5319314186677
30
0
41
1
10
467.640038964387
20
-15.4735017998071
30
0
41
1
10
467.650480947162
20
-15.4442074830623
30
0
0
SPLINE
5
19A
100
AcDbEntity
8
1
62
256
6
ByLayer
370
18
48
1
60
0
100
AcDbSpline
70
4
71
3
72
8
73
4
40
0
40
0
40
0
40
0
40
1
40
1
40
1
40
1
41
1
10
467.650480947162
20
-15.4442074830623
30
0
41
1
10
467.895186418447
20
-14.7577018893115
30
0
41
1
10
468.120774732857
20
-14.0629544043437
30
0
41
1
10
468.324759526419
20
-13.358893093586
30
0
0
SPLINE
5
19B
100
AcDbEntity
8
1
62
256
6
ByLayer
370
18
48
1
60
0
100
AcDbSpline
70
4
71
3
72
8
73
4
40
0
40
0
40
0
40
0
40
1
40
1
40
1
40
1
41
1
10
468.324759526419
20
-12.5454352922811
30
0
41
1
10
468.102856207575
20
-12.8081293930666
30
0
41
1
10
467.87789393872
20
-13.0672894782531
30
0
41
1
10
467.650480947162
20
-13.3236182349673
30
0
0
SPLINE
5
19C
100
AcDbEntity
8
1
62
256
6
ByLayer
370
18
48
1
60
0
100
AcDbSpline
70
4
71
3
72
38
73
34
40
0
40
0
40
0
40
0
40
0.0312499999999962
40
0.0312499999999962
40
0.0468749999999943
40
0.0468749999999943
40
0.0624999999999926
40
0.0624999999999926
40
0.0781249999999907
40
0.0781249999999907
40
0.0937499999999889
40
0.0937499999999889
40
0.109374999999987
40
0.109374999999987
40
0.124999999999985
40
0.124999999999985
40
0.156249999999986
40
0.156249999999986
40
0.187499999999987
40
0.187499999999987
40
0.249999999999984
40
0.249999999999984
40
0.312499999999981
40
0.312499999999981
40
0.374999999999978
40
0.374999999999978
40
0.499999999999981
40
0.499999999999981
40
0.624999999999984
40
0.624999999999984
40
0.749999999999987
40
0.749999999999987
40
1
40
1
40
1
40
1
41
1
10
467.650480947163
20
-13.3236182349706
30
0
41
1
10
467.643984522043
20
-13.3309406863521
30
0
41
1
10
467.637087099727
20
-13.3376812441222
30
0
41
1
10
467.626354747428
20
-13.3456807010567
30
0
41
1
10
467.622672786077
20
-13.3480197519198
30
0
41
1
10
467.615227174174
20
-13.3516964069813
30
0
41
1
10
467.611531397854
20
-13.3530045516319
30
0
41
1
10
467.604203715131
20
-13.3543660752699
30
0
41
1
10
467.600638398742
20
-13.3543893446796
30
0
41
1
10
467.593959541195
20
-13.3531406766523
30
0
41
1
10
467.590782123263
20
-13.351847986693
30
0
41
1
10
467.58507026222
20
-13.34828207327
30
0
41
1
10
467.582488099225
20
-13.3460113364941
30
0
41
1
10
467.577753050436
20
-13.3407033141978
30
0
41
1
10
467.575612489275
20
-13.3376705393073
30
0
41
1
10
467.569849274635
20
-13.3279202867126
30
0
41
1
10
467.566789889395
20
-13.3204354378219
30
0
41
1
10
467.561775920044
20
-13.3047772034489
30
0
41
1
10
467.559797491318
20
-13.2965426252912
30
0
41
1
10
467.554893629213
20
-13.27104194241
30
0
41
1
10
467.552983754743
20
-13.2528841812448
30
0
41
1
10
467.550722421526
20
-13.2163879167964
30
0
41
1
10
467.550369579247
20
-13.1978998584486
30
0
41
1
10
467.550648562
20
-13.1606122640512
30
0
41
1
10
467.551290415845
20
-13.1418097737327
30
0
41
1
10
467.5543116466
20
-13.0850476350128
30
0
41
1
10
467.557768451239
20
-13.0467387011075
30
0
41
1
10
467.566574464434
20
-12.9694791711001
30
0
41
1
10
467.571943356467
20
-12.9305227713768
30
0
41
1
10
467.584191791777
20
-12.8520814043074
30
0
41
1
10
467.591049423945
20
-12.812771089896
30
0
41
1
10
467.613451439318
20
-12.6948596061426
30
0
41
1
10
467.630794068013
20
-12.6161561624277
30
0
41
1
10
467.650480947162
20
-12.5373639096825
30
0
0
SPLINE
5
19D
100
AcDbEntity
8
1
62
256
6
ByLayer
370
18
48
1
60
0
100
AcDbSpline
70
4
71
3
72
8
73
4
40
0
40
0
40
0
40
0
40
1
40
1
40
1
40
1
41
1
10
467.650480947162
20
-12.5373639096825
30
0
41
1
10
467.936650314553
20
-11.3920361533963
30
0
41
1
10
468.164101740032
20
-10.2315551818875
30
0
41
1
10
468.324759526419
20
-9.05383691704537
30
0
0
SPLINE
5
19E
100
AcDbEntity
8
1
62
256
6
ByLayer
370
18
48
1
60
0
100
AcDbSpline
70
4
71
3
72
10
73
6
40
0
40
0
40
0
40
0
40
0.5
40
0.5
40
1
40
1
40
1
40
1
41
1
10
468.324759526416
20
-6.53983562436119
30
0
41
1
10
468.25334363749
20
-6.91394777515148
30
0
41
1
10
468.158489259992
20
-7.27822115563015
30
0
41
1
10
467.9309865447
20
-7.99090315238246
30
0
41
1
10
467.798334418939
20
-8.33931017858134
30
0
41
1
10
467.650480947162
20
-8.68133613838094
30
0
0
SPLINE
5
19F
100
AcDbEntity
8
1
62
256
6
ByLayer
370
18
48
1
60
0
100
AcDbSpline
70
4
71
3
72
57
73
53
40
0
40
0
40
0
40
0
40
0.125
40
0.125
40
0.249999999999999
40
0.374999999999999
40
0.374999999999999
40
0.499999999999999
40
0.499999999999999
40
0.624999999999998
40
0.624999999999998
40
0.687499999999998
40
0.687499999999998
40
0.749999999999999
40
0.749999999999999
40
0.812499999999999
40
0.812499999999999
40
0.874999999999999
40
0.874999999999999
40
0.90625
40
0.90625
40
0.921875
40
0.921875
40
0.937500000000001
40
0.937500000000001
40
0.945312500000002
40
0.945312500000002
40
0.953125000000003
40
0.953125000000003
40
0.960937500000003
40
0.960937500000003
40
0.964843750000003
40
0.964843750000003
40
0.968750000000003
40
0.968750000000003
40
0.972656250000003
40
0.972656250000003
40
0.976562500000002
40
0.976562500000002
40
0.978515625000002
40
0.978515625000002
40
0.980468750000002
40
0.980468750000002
40
0.982421875000002
40
0.982421875000002
40
0.984375000000002
40
0.984375000000002
40
0.988281250000001
40
0.988281250000001
40
0.992187500000001
40
0.992187500000001
40
1
40
1
40
1
40
1
41
1
10
467.650480947162
20
-5.20552241900097
30
0
41
1
10
467.649474914009
20
-5.35742717692023
30
0
41
1
10
467.647352403027
20
-5.5093180664376
30
0
41
1
10
467.641079448038
20
-5.81307104231266
30
0
41
1
10
467.632780577668
20
-6.11679520448911
30
0
41
1
10
467.621220285853
20
-6.42045756542174
30
0
41
1
10
467.608599227804
20
-6.72408596214515
30
0
41
1
10
467.601754923345
20
-6.87588319884034
30
0
41
1
10
467.587790157286
20
-7.17943940737189
30
0
41
1
10
467.580656945611
20
-7.33119845239054
30
0
41
1
10
467.570656270951
20
-7.55880325319708
30
0
41
1
10
467.567443146172
20
-7.63466586964663
30
0
41
1
10
467.561508805656
20
-7.78637838337642
30
0
41
1
10
467.558783648494
20
-7.86225232686081
30
0
41
1
10
467.554227791731
20
-8.01360192235117
30
0
41
1
10
467.552384521753
20
-8.08911791731467
30
0
41
1
10
467.550304819929
20
-8.23969455938945
30
0
41
1
10
467.550017507499
20
-8.3147647400514
30
0
41
1
10
467.552116127572
20
-8.42678061902893
30
0
41
1
10
467.553241725102
20
-8.4640201769343
30
0
41
1
10
467.556066196098
20
-8.51963782520804
30
0
41
1
10
467.557199844787
20
-8.53813623287263
30
0
41
1
10
467.560032561575
20
-8.57501750617848
30
0
41
1
10
467.561724621638
20
-8.59340168463632
30
0
41
1
10
467.564962866512
20
-8.62083957542106
30
0
41
1
10
467.566160648091
20
-8.62996216256664
30
0
41
1
10
467.568892543204
20
-8.64814192597902
30
0
41
1
10
467.570429233634
20
-8.65722701901245
30
0
41
1
10
467.574003223349
20
-8.6751703894974
30
0
41
1
10
467.576022559128
20
-8.68398056808834
30
0
41
1
10
467.579665375541
20
-8.69677304463298
30
0
41
1
10
467.580983473112
20
-8.70096570128928
30
0
41
1
10
467.583925806698
20
-8.70914096325546
30
0
41
1
10
467.585555704597
20
-8.71313687493404
30
0
41
1
10
467.589214864265
20
-8.72059319090067
30
0
41
1
10
467.591242911041
20
-8.72408197853571
30
0
41
1
10
467.596024190781
20
-8.7301872252601
30
0
41
1
10
467.598791925149
20
-8.73279255037588
30
0
41
1
10
467.603585192062
20
-8.73502813093478
30
0
41
1
10
467.605238544653
20
-8.73546904733732
30
0
41
1
10
467.608667422955
20
-8.73568290628663
30
0
41
1
10
467.61045752744
20
-8.73544033002645
30
0
41
1
10
467.613936585578
20
-8.73433323985262
30
0
41
1
10
467.615671884936
20
-8.73346228202684
30
0
41
1
10
467.61899339339
20
-8.73128844497845
30
0
41
1
10
467.620581409002
20
-8.72999412036478
30
0
41
1
10
467.625186557665
20
-8.72565845068024
30
0
41
1
10
467.628021131566
20
-8.72219009812935
30
0
41
1
10
467.633249794904
20
-8.71485248827457
30
0
41
1
10
467.635679061346
20
-8.71093331943851
30
0
41
1
10
467.642616772462
20
-8.69870333450081
30
0
41
1
10
467.646685962344
20
-8.69011498752855
30
0
41
1
10
467.650480947162
20
-8.68133613838094
30
0
0
SPLINE
5
1A0
100
AcDbEntity
8
1
62
256
6
ByLayer
370
18
48
1
60
0
100
AcDbSpline
70
4
71
3
72
8
73
4
40
0
40
0
40
0
40
0
40
1
40
1
40
1
40
1
41
1
10
467.650480947162
20
-5.20552241900097
30
0
41
1
10
467.651388368233
20
-5.06850747300035
30
0
41
1
10
467.651388368233
20
-4.9314925269997
30
0
41
1
10
467.650480947162
20
-4.79447758099909
30
0
0
SPLINE
5
1A1
100
AcDbEntity
8
1
62
256
6
ByLayer
370
18
48
1
60
0
100
AcDbSpline
70
4
71
3
72
59
73
55
40
0
40
0
40
0
40
0
40
0.125
40
0.125
40
0.249999999999999
40
0.374999999999999
40
0.374999999999999
40
0.499999999999998
40
0.499999999999998
40
0.624999999999998
40
0.624999999999998
40
0.687499999999998
40
0.687499999999998
40
0.749999999999998
40
0.749999999999998
40
0.812499999999998
40
0.812499999999998
40
0.843749999999998
40
0.843749999999998
40
0.874999999999998
40
0.874999999999998
40
0.906249999999998
40
0.906249999999998
40
0.921874999999999
40
0.921874999999999
40
0.937499999999999
40
0.937499999999999
40
0.945312499999999
40
0.945312499999999
40
0.953125
40
0.953125
40
0.9609375
40
0.9609375
40
0.96484375
40
0.96484375
40
0.96875
40
0.96875
40
0.97265625
40
0.97265625
40
0.976562500000001
40
0.976562500000001
40
0.978515625000001
40
0.978515625000001
40
0.980468750000001
40
0.980468750000001
40
0.982421875000001
40
0.982421875000001
40
0.984375000000001
40
0.984375000000001
40
0.988281250000001
40
0.988281250000001
40
0.992187500000001
40
0.992187500000001
40
1
40
1
40
1
40
1
41
1
10
467.650480947162
20
-4.79447758099909
30
0
41
1
10
467.649474529164
20
-4.64251471388164
30
0
41
1
10
467.647350571744
20
-4.49053796568143
30
0
41
1
10
467.641070593963
20
-4.18655560661949
30
0
41
1
10
467.632760419544
20
-3.88254437671779
30
0
41
1
10
467.621178756172
20
-3.578471135879
30
0
41
1
10
467.608531759673
20
-3.27436377042295
30
0
41
1
10
467.601672191192
20
-3.12229304533889
30
0
41
1
10
467.587676377915
20
-2.81811307991163
30
0
41
1
10
467.580530180473
20
-2.66605426235273
30
0
41
1
10
467.570536139854
20
-2.43839190151581
30
0
41
1
10
467.567328862803
20
-2.36256092266663
30
0
41
1
10
467.561413484972
20
-2.21103091425221
30
0
41
1
10
467.558701689912
20
-2.13533160187032
30
0
41
1
10
467.554167978853
20
-1.98409466407665
30
0
41
1
10
467.552334555853
20
-1.90855615929866
30
0
41
1
10
467.550799054593
20
-1.79541145367477
30
0
41
1
10
467.550492739193
20
-1.75772396308992
30
0
41
1
10
467.550469812771
20
-1.68241745721332
30
0
41
1
10
467.550750183483
20
-1.64476113344733
30
0
41
1
10
467.552208755407
20
-1.56976737828575
30
0
41
1
10
467.553373181025
20
-1.53242702314438
30
0
41
1
10
467.556275212278
20
-1.47680109279526
30
0
41
1
10
467.557437968645
20
-1.4583240656921
30
0
41
1
10
467.560336644401
20
-1.42155428916442
30
0
41
1
10
467.562065629678
20
-1.4032594700393
30
0
41
1
10
467.565365531574
20
-1.37603795457693
30
0
41
1
10
467.566584913132
20
-1.36700140207378
30
0
41
1
10
467.569361551694
20
-1.34903242569206
30
0
41
1
10
467.570921073671
20
-1.34008083847715
30
0
41
1
10
467.574516938715
20
-1.32254623548266
30
0
41
1
10
467.576547962152
20
-1.31394003657061
30
0
41
1
10
467.58021552862
20
-1.30145618741173
30
0
41
1
10
467.581543102687
20
-1.29736686038095
30
0
41
1
10
467.584510409302
20
-1.28940126076256
30
0
41
1
10
467.586161611328
20
-1.28549603561791
30
0
41
1
10
467.589888240219
20
-1.27822223260506
30
0
41
1
10
467.591955510826
20
-1.27483725148841
30
0
41
1
10
467.59684579735
20
-1.26899837969745
30
0
41
1
10
467.599637337106
20
-1.26661628239299
30
0
41
1
10
467.604411839463
20
-1.26472938390168
30
0
41
1
10
467.606061767277
20
-1.26439804135336
30
0
41
1
10
467.609492008734
20
-1.26439900739575
30
0
41
1
10
467.611227428267
20
-1.26473772151382
30
0
41
1
10
467.61463552521
20
-1.26599300532953
30
0
41
1
10
467.616332222931
20
-1.26692035388572
30
0
41
1
10
467.61955483406
20
-1.26915176461213
30
0
41
1
10
467.621102908113
20
-1.27046166889051
30
0
41
1
10
467.62560527577
20
-1.27482664274476
30
0
41
1
10
467.628363216431
20
-1.27825235515653
30
0
41
1
10
467.633516183583
20
-1.28556367863081
30
0
41
1
10
467.635914818984
20
-1.2894637385163
30
0
41
1
10
467.642693644436
20
-1.30147160711704
30
0
41
1
10
467.646722359183
20
-1.30996920842151
30
0
41
1
10
467.650480947162
20
-1.31866386161752
30
0
0
SPLINE
5
1A2
100
AcDbEntity
8
1
62
256
6
ByLayer
370
18
48
1
60
0
100
AcDbSpline
70
4
71
3
72
10
73
6
40
0
40
0
40
0
40
0
40
0.5
40
0.5
40
1
40
1
40
1
40
1
41
1
10
467.650480947161
20
-1.31866386161775
30
0
41
1
10
467.798334418938
20
-1.66068982141687
30
0
41
1
10
467.9309865447
20
-2.00909684761527
30
0
41
1
10
468.158489259991
20
-2.7217788443665
30
0
41
1
10
468.253343637489
20
-3.08605222484459
30
0
41
1
10
468.324759526415
20
-3.46016437563429
30
0
0
SPLINE
5
1A3
100
AcDbEntity
8
1
62
256
6
ByLayer
370
18
48
1
60
0
100
AcDbSpline
70
4
71
3
72
8
73
4
40
0
40
0
40
0
40
0
40
1
40
1
40
1
40
1
41
1
10
468.324759526419
20
-0.946163082954683
30
0
41
1
10
468.164101740032
20
0.231555181887472
30
0
41
1
10
467.936650314553
20
1.39203615339622
30
0
41
1
10
467.650480947162
20
2.53736390968246
30
0
0
SPLINE
5
1A4
100
AcDbEntity
8
1
62
256
6
ByLayer
370
18
48
1
60
0
100
AcDbSpline
70
4
71
3
72
42
73
38
40
0
40
0
40
0
40
0
40
0.249999999999994
40
0.249999999999994
40
0.374999999999991
40
0.374999999999991
40
0.499999999999987
40
0.499999999999987
40
0.624999999999984
40
0.624999999999984
40
0.687499999999983
40
0.687499999999983
40
0.749999999999981
40
0.749999999999981
40
0.781249999999983
40
0.781249999999983
40
0.812499999999986
40
0.812499999999986
40
0.843749999999988
40
0.843749999999988
40
0.859374999999989
40
0.859374999999989
40
0.87499999999999
40
0.87499999999999
40
0.890624999999991
40
0.890624999999991
40
0.906249999999992
40
0.906249999999992
40
0.921874999999994
40
0.921874999999994
40
0.937499999999995
40
0.937499999999995
40
0.953124999999996
40
0.953124999999996
40
0.968749999999997
40
0.968749999999997
40
1
40
1
40
1
40
1
41
1
10
467.650480947161
20
2.53736390968246
30
0
41
1
10
467.63076897837
20
2.61625657801241
30
0
41
1
10
467.61346059995
20
2.69484838754954
30
0
41
1
10
467.591140780514
20
2.81227186098147
30
0
41
1
10
467.584320719394
20
2.85133461566434
30
0
41
1
10
467.572124668301
20
2.92928471022262
30
0
41
1
10
467.566742521326
20
2.96817257525154
30
0
41
1
10
467.557864378318
20
3.04573416545699
30
0
41
1
10
467.55434285781
20
3.0844400879742
30
0
41
1
10
467.551271377319
20
3.14217806187324
30
0
41
1
10
467.550630005146
20
3.16123086440584
30
0
41
1
10
467.550377159459
20
3.19882638523859
30
0
41
1
10
467.550757044975
20
3.21737314192143
30
0
41
1
10
467.552486535079
20
3.24462984001573
30
0
41
1
10
467.553258656099
20
3.25362040287681
30
0
41
1
10
467.555324288495
20
3.27135071684893
30
0
41
1
10
467.556619146011
20
3.28011323257641
30
0
41
1
10
467.559941779673
20
3.29718730275096
30
0
41
1
10
467.56194845637
20
3.30541747543921
30
0
41
1
10
467.565733288872
20
3.31707909554299
30
0
41
1
10
467.567125496084
20
3.32085109081439
30
0
41
1
10
467.570248978874
20
3.32809687353617
30
0
41
1
10
467.571992418154
20
3.33159059857067
30
0
41
1
10
467.575857623531
20
3.33803499233548
30
0
41
1
10
467.577978928924
20
3.34099480065316
30
0
41
1
10
467.582717557109
20
3.34622641457736
30
0
41
1
10
467.58536880188
20
3.34851669927173
30
0
41
1
10
467.591140283969
20
3.35201750539358
30
0
41
1
10
467.594278886941
20
3.35324654098017
30
0
41
1
10
467.601038610781
20
3.35441280864805
30
0
41
1
10
467.604547324229
20
3.3543357984658
30
0
41
1
10
467.611812347963
20
3.35291576298351
30
0
41
1
10
467.615579957293
20
3.35154989267076
30
0
41
1
10
467.622949675614
20
3.34785285904556
30
0
41
1
10
467.626634528598
20
3.34549323736826
30
0
41
1
10
467.637401170667
20
3.33740232559126
30
0
41
1
10
467.644079218297
20
3.33083394937947
30
0
41
1
10
467.650480947162
20
3.32361823496726
30
0
0
SPLINE
5
1A5
100
AcDbEntity
8
1
62
256
6
ByLayer
370
18
48
1
60
0
100
AcDbSpline
70
4
71
3
72
8
73
4
40
0
40
0
40
0
40
0
40
1
40
1
40
1
40
1
41
1
10
467.650480947162
20
3.32361823496726
30
0
41
1
10
467.877893938717
20
3.06728947825621
30
0
41
1
10
468.102856207569
20
2.80812939307304
30
0
41
1
10
468.324759526411
20
2.5454352922909
30
0
0
SPLINE
5
1A6
100
AcDbEntity
8
1
62
256
6
ByLayer
370
18
48
1
60
0
100
AcDbSpline
70
4
71
3
72
8
73
4
40
0
40
0
40
0
40
0
40
1
40
1
40
1
40
1
41
1
10
468.324759526419
20
3.358893093586
30
0
41
1
10
468.120774732857
20
4.06295440434363
30
0
41
1
10
467.895186418447
20
4.75770188931139
30
0
41
1
10
467.650480947162
20
5.44420748306226
30
0
0
SPLINE
5
1A7
100
AcDbEntity
8
1
62
256
6
ByLayer
370
18
48
1
60
0
100
AcDbSpline
70
4
71
3
72
40
73
36
40
0
40
0
40
0
40
0
40
0.125000000000003
40
0.125000000000003
40
0.250000000000006
40
0.250000000000006
40
0.375000000000009
40
0.375000000000009
40
0.500000000000012
40
0.500000000000012
40
0.562500000000018
40
0.562500000000018
40
0.625000000000024
40
0.625000000000024
40
0.687500000000031
40
0.687500000000031
40
0.750000000000037
40
0.750000000000037
40
0.781250000000034
40
0.781250000000034
40
0.812500000000031
40
0.812500000000031
40
0.843750000000028
40
0.843750000000028
40
0.875000000000026
40
0.875000000000026
40
0.906250000000023
40
0.906250000000023
40
0.921875000000022
40
0.921875000000022
40
0.93750000000002
40
0.93750000000002
40
0.96875000000001
40
0.96875000000001
40
1
40
1
40
1
40
1
41
1
10
467.650480947162
20
5.44420748306226
30
0
41
1
10
467.640025010736
20
5.47354094588277
30
0
41
1
10
467.630210989745
20
5.50296730764461
30
0
41
1
10
467.611958545041
20
5.56160023228458
30
0
41
1
10
467.603523410692
20
5.59078655284503
30
0
41
1
10
467.588102337403
20
5.64888549281656
30
0
41
1
10
467.581113785878
20
5.67779854521194
30
0
41
1
10
467.5688291768
20
5.7353093306323
30
0
41
1
10
467.56352332279
20
5.76390865542422
30
0
41
1
10
467.557268698592
20
5.80649914666967
30
0
41
1
10
467.555468305322
20
5.8206822963954
30
0
41
1
10
467.552619223369
20
5.8486113407325
30
0
41
1
10
467.551563972929
20
5.86238012842742
30
0
41
1
10
467.550399909879
20
5.88942147328422
30
0
41
1
10
467.550285829804
20
5.9026966836893
30
0
41
1
10
467.55138586223
20
5.92855850520979
30
0
41
1
10
467.552608640832
20
5.94123313026907
30
0
41
1
10
467.555948456209
20
5.9588608230583
30
0
41
1
10
467.557314290988
20
5.9645185412802
30
0
41
1
10
467.560709973981
20
5.97526294264904
30
0
41
1
10
467.562757184409
20
5.98038816815136
30
0
41
1
10
467.567691285185
20
5.98964730968399
30
0
41
1
10
467.570555797839
20
5.99376039591701
30
0
41
1
10
467.57735811212
20
6.00059694040513
30
0
41
1
10
467.581328265331
20
6.00329955266872
30
0
41
1
10
467.590209516905
20
6.00657015800482
30
0
41
1
10
467.595238130169
20
6.0071547338828
30
0
41
1
10
467.603144568994
20
6.00631212420973
30
0
41
1
10
467.605853809948
20
6.00575588771426
30
0
41
1
10
467.611415566325
20
6.00410914666767
30
0
41
1
10
467.614249175209
20
6.0030206655203
30
0
41
1
10
467.622685087213
20
5.99913628534784
30
0
41
1
10
467.628307688267
20
5.99570468914567
30
0
41
1
10
467.639550729521
20
5.98754726072519
30
0
41
1
10
467.645089621271
20
5.98287445141003
30
0
41
1
10
467.650480947162
20
5.97784155830493
30
0
0
SPLINE
5
1A8
100
AcDbEntity
8
1
62
256
6
ByLayer
370
18
48
1
60
0
100
AcDbSpline
70
4
71
3
72
8
73
4
40
0
40
0
40
0
40
0
40
1
40
1
40
1
40
1
41
1
10
467.650480947162
20
5.97784155830317
30
0
41
1
10
467.875878259423
20
5.76742938853241
30
0
41
1
10
468.100672937923
20
5.55616259190717
30
0
41
1
10
468.324759526419
20
5.34389161534477
30
0
0
SPLINE
5
1A9
100
AcDbEntity
8
1
62
256
6
ByLayer
370
18
48
1
60
0
100
AcDbSpline
70
4
71
3
72
8
73
4
40
0
40
0
40
0
40
0
40
1
40
1
40
1
40
1
41
1
10
468.324759526419
20
5.89993549292834
30
0
41
1
10
468.111437539985
20
6.44762852173457
30
0
41
1
10
467.886241901321
20
6.98874871734219
30
0
41
1
10
467.650480947162
20
7.52402032861346
30
0
0
SPLINE
5
1AA
100
AcDbEntity
8
1
62
256
6
ByLayer
370
18
48
1
60
0
100
AcDbSpline
70
4
71
3
72
40
73
36
40
0
40
0
40
0
40
0
40
0.124999999999994
40
0.124999999999994
40
0.249999999999989
40
0.249999999999989
40
0.374999999999983
40
0.374999999999983
40
0.499999999999978
40
0.499999999999978
40
0.562499999999977
40
0.562499999999977
40
0.624999999999976
40
0.624999999999976
40
0.687499999999975
40
0.687499999999975
40
0.718749999999978
40
0.718749999999978
40
0.74999999999998
40
0.74999999999998
40
0.781249999999983
40
0.781249999999983
40
0.812499999999985
40
0.812499999999985
40
0.843749999999988
40
0.843749999999988
40
0.87499999999999
40
0.87499999999999
40
0.906249999999993
40
0.906249999999993
40
0.937499999999995
40
0.937499999999995
40
0.968749999999998
40
0.968749999999998
40
1
40
1
40
1
40
1
41
1
10
467.650480947162
20
7.52402032861346
30
0
41
1
10
467.639690471916
20
7.54851902090937
30
0
41
1
10
467.629613916005
20
7.57294865548877
30
0
41
1
10
467.610849297583
20
7.62166893814194
30
0
41
1
10
467.602160592807
20
7.64595966229561
30
0
41
1
10
467.586289625029
20
7.6943887125299
30
0
41
1
10
467.579096154492
20
7.71855252249159
30
0
41
1
10
467.566584682111
20
7.76659241475653
30
0
41
1
10
467.561339273704
20
7.79015656612427
30
0
41
1
10
467.555481361028
20
7.82460605543008
30
0
41
1
10
467.553867302615
20
7.83593824799172
30
0
41
1
10
467.551487852271
20
7.85822714870946
30
0
41
1
10
467.550718615151
20
7.86923965219526
30
0
41
1
10
467.550336211257
20
7.89048928224679
30
0
41
1
10
467.550714779598
20
7.90067875148344
30
0
41
1
10
467.552465551096
20
7.915065565048
30
0
41
1
10
467.553248182532
20
7.91971019776577
30
0
41
1
10
467.555309097648
20
7.92862485016838
30
0
41
1
10
467.556593904736
20
7.93290109950462
30
0
41
1
10
467.559717301251
20
7.94077561669531
30
0
41
1
10
467.561559358519
20
7.94440024947428
30
0
41
1
10
467.565937706079
20
7.95087774233281
30
0
41
1
10
467.568504767017
20
7.95375190251823
30
0
41
1
10
467.574349248947
20
7.95835750704182
30
0
41
1
10
467.577621102576
20
7.96010347271039
30
0
41
1
10
467.584977180313
20
7.96230488223375
30
0
41
1
10
467.589008029016
20
7.9627276846837
30
0
41
1
10
467.597554413792
20
7.96218830663901
30
0
41
1
10
467.602165047507
20
7.96121031139938
30
0
41
1
10
467.61156352127
20
7.95803052781361
30
0
41
1
10
467.616343834585
20
7.95585324386113
30
0
41
1
10
467.626039774226
20
7.95052099647526
30
0
41
1
10
467.630992916634
20
7.94733636270502
30
0
41
1
10
467.640809613647
20
7.9402688914594
30
0
41
1
10
467.64566607499
20
7.93639951355365
30
0
41
1
10
467.650480947162
20
7.93226159791712
30
0
0
SPLINE
5
1AB
100
AcDbEntity
8
1
62
256
6
ByLayer
370
18
48
1
60
0
100
AcDbSpline
70
4
71
3
72
8
73
4
40
0
40
0
40
0
40
0
40
1
40
1
40
1
40
1
41
1
10
467.650480947162
20
7.93226159791615
30
0
41
1
10
467.875423713527
20
7.73894510745819
30
0
41
1
10
468.100191536751
20
7.54535781735058
30
0
41
1
10
468.324759526419
20
7.35146119898371
30
0
0
SPLINE
5
1AC
100
AcDbEntity
8
1
62
256
6
ByLayer
370
18
48
1
60
0
100
AcDbSpline
70
4
71
3
72
8
73
4
40
0
40
0
40
0
40
0
40
1
40
1
40
1
40
1
41
1
10
468.324759526419
20
7.77677947489113
30
0
41
1
10
468.107382666912
20
8.23816651619705
30
0
41
1
10
467.882352997816
20
8.69453016127872
30
0
41
1
10
467.650480947162
20
9.14640238483958
30
0
0
SPLINE
5
1AD
100
AcDbEntity
8
1
62
256
6
ByLayer
370
18
48
1
60
0
100
AcDbSpline
70
4
71
3
72
40
73
36
40
0
40
0
40
0
40
0
40
0.124999999999998
40
0.124999999999998
40
0.249999999999996
40
0.249999999999996
40
0.374999999999994
40
0.374999999999994
40
0.437499999999995
40
0.437499999999995
40
0.499999999999996
40
0.499999999999996
40
0.562499999999998
40
0.562499999999998
40
0.624999999999999
40
0.624999999999999
40
0.6875
40
0.6875
40
0.718749999999999
40
0.718749999999999
40
0.749999999999999
40
0.749999999999999
40
0.781249999999998
40
0.781249999999998
40
0.812499999999998
40
0.812499999999998
40
0.843749999999997
40
0.843749999999997
40
0.874999999999997
40
0.874999999999997
40
0.937499999999996
40
0.937499999999996
40
0.968749999999998
40
0.968749999999998
40
1
40
1
40
1
40
1
41
1
10
467.650480947162
20
9.14640238483958
30
0
41
1
10
467.639414958228
20
9.16796778270185
30
0
41
1
10
467.629040809078
20
9.18949827818423
30
0
41
1
10
467.609683150239
20
9.23248443205557
30
0
41
1
10
467.600665700982
20
9.25403048225792
30
0
41
1
10
467.584409180772
20
9.29647166063839
30
0
41
1
10
467.577153956557
20
9.31737839548012
30
0
41
1
10
467.56784509696
20
9.34817408247099
30
0
41
1
10
467.565006721943
20
9.35834447277097
30
0
41
1
10
467.55994833633
20
9.37846448887728
30
0
41
1
10
467.557723039423
20
9.38843673902431
30
0
41
1
10
467.554054354314
20
9.40801378137999
30
0
41
1
10
467.552625671844
20
9.41753047952156
30
0
41
1
10
467.550759790623
20
9.43590263268729
30
0
41
1
10
467.550318779816
20
9.44476057189615
30
0
41
1
10
467.550749497916
20
9.46160565458786
30
0
41
1
10
467.551636822927
20
9.46961043770682
30
0
41
1
10
467.554281873644
20
9.48024000518279
30
0
41
1
10
467.555383473851
20
9.48357031541417
30
0
41
1
10
467.55811068237
20
9.48972500719631
30
0
41
1
10
467.559751087798
20
9.49256724841075
30
0
41
1
10
467.5635955558
20
9.49752353577813
30
0
41
1
10
467.565792502249
20
9.49963974055279
30
0
41
1
10
467.570810054821
20
9.50305244188471
30
0
41
1
10
467.573662929114
20
9.50435108560657
30
0
41
1
10
467.579852338377
20
9.50594893745301
30
0
41
1
10
467.583198210382
20
9.50626627341157
30
0
41
1
10
467.59039654148
20
9.50593180130377
30
0
41
1
10
467.594295692839
20
9.50526513931652
30
0
41
1
10
467.606418497699
20
9.50187462243767
30
0
41
1
10
467.614931336129
20
9.49786692547212
30
0
41
1
10
467.628201605806
20
9.48983271770786
30
0
41
1
10
467.632697891773
20
9.48681559981958
30
0
41
1
10
467.641605111237
20
9.4803478822293
30
0
41
1
10
467.646047713552
20
9.47687842666699
30
0
41
1
10
467.650480947162
20
9.47320886309194
30
0
0
SPLINE
5
1AE
100
AcDbEntity
8
1
62
256
6
ByLayer
370
18
48
1
60
0
100
AcDbSpline
70
4
71
3
72
8
73
4
40
0
40
0
40
0
40
0
40
1
40
1
40
1
40
1
41
1
10
467.650480947162
20
9.47320886309137
30
0
41
1
10
467.87528177088
20
9.28713229076115
30
0
41
1
10
468.10004293855
20
9.10099187452857
30
0
41
1
10
468.324759526419
20
8.91477968744024
30
0
0
SPLINE
5
1AF
100
AcDbEntity
8
1
62
256
6
ByLayer
370
18
48
1
60
0
100
AcDbSpline
70
4
71
3
72
8
73
4
40
0
40
0
40
0
40
0
40
1
40
1
40
1
40
1
41
1
10
468.324759526419
20
9.25424827025259
30
0
41
1
10
468.105152654041
20
9.65871232422029
30
0
41
1
10
467.880211532645
20
10.0591860512804
30
0
41
1
10
467.650480947162
20
10.4560769820826
30
0
0
SPLINE
5
1B0
100
AcDbEntity
8
1
62
256
6
ByLayer
370
18
48
1
60
0
100
AcDbSpline
70
4
71
3
72
39
73
35
40
0
40
0
40
0
40
0
40
0.124999999999994
40
0.124999999999994
40
0.249999999999988
40
0.249999999999988
40
0.374999999999981
40
0.374999999999981
40
0.437499999999978
40
0.437499999999978
40
0.499999999999975
40
0.499999999999975
40
0.562499999999972
40
0.562499999999972
40
0.593749999999973
40
0.593749999999973
40
0.624999999999975
40
0.624999999999975
40
0.687499999999983
40
0.687499999999983
40
0.718749999999985
40
0.718749999999985
40
0.749999999999987
40
0.749999999999987
40
0.781249999999989
40
0.781249999999989
40
0.812499999999992
40
0.843749999999994
40
0.843749999999994
40
0.874999999999996
40
0.874999999999996
40
0.937499999999998
40
0.937499999999998
40
1
40
1
40
1
40
1
41
1
10
467.650480947162
20
10.4560769820826
30
0
41
1
10
467.639193035731
20
10.4755783891984
30
0
41
1
10
467.628590160519
20
10.4950150973001
30
0
41
1
10
467.608789608101
20
10.5337506274621
30
0
41
1
10
467.59955440175
20
10.553139477002
30
0
41
1
10
467.582996045851
20
10.5910738569026
30
0
41
1
10
467.575636447461
20
10.6096683647398
30
0
41
1
10
467.566297083473
20
10.6368716168552
30
0
41
1
10
467.563469944102
20
10.645823579614
30
0
41
1
10
467.558498129876
20
10.6634519327067
30
0
41
1
10
467.556355985995
20
10.6721338879737
30
0
41
1
10
467.552992495483
20
10.6887880728007
30
0
41
1
10
467.551755667217
20
10.6968054930674
30
0
41
1
10
467.550731607718
20
10.7082552465152
30
0
41
1
10
467.550529643809
20
10.7119751829311
30
0
41
1
10
467.550447718715
20
10.7191922642159
30
0
41
1
10
467.550569803588
20
10.7227031448462
30
0
41
1
10
467.551489172924
20
10.7326767960532
30
0
41
1
10
467.552823866437
20
10.738626638058
30
0
41
1
10
467.556235634613
20
10.7461914297908
30
0
41
1
10
467.557622786118
20
10.7484972729628
30
0
41
1
10
467.560888621489
20
10.7524800239255
30
0
41
1
10
467.562763444322
20
10.7541622265617
30
0
41
1
10
467.567039967856
20
10.7568546457306
30
0
41
1
10
467.569461523802
20
10.7578691446226
30
0
41
1
10
467.574799687778
20
10.7591280609591
30
0
41
1
10
467.580567979247
20
10.7596147878307
30
0
41
1
10
467.587174135165
20
10.7586005535335
30
0
41
1
10
467.594197904459
20
10.7568396148943
30
0
41
1
10
467.597925489672
20
10.7555764856679
30
0
41
1
10
467.609307892352
20
10.7508672481532
30
0
41
1
10
467.617324482498
20
10.7464633141779
30
0
41
1
10
467.63384879861
20
10.7357246214997
30
0
41
1
10
467.642150093394
20
10.7295341136677
30
0
41
1
10
467.650480947162
20
10.7227274845176
30
0
0
SPLINE
5
1B1
100
AcDbEntity
8
1
62
256
6
ByLayer
370
18
48
1
60
0
100
AcDbSpline
70
4
71
3
72
8
73
4
40
0
40
0
40
0
40
0
40
1
40
1
40
1
40
1
41
1
10
467.650480947162
20
10.7227274845173
30
0
41
1
10
467.875242279349
20
10.5390887989485
30
0
41
1
10
468.10000187134
20
10.3554472734957
30
0
41
1
10
468.324759526419
20
10.1718025873658
30
0
0
SPLINE
5
1B2
100
AcDbEntity
8
1
62
256
6
ByLayer
370
18
48
1
60
0
100
AcDbSpline
70
4
71
3
72
8
73
4
40
0
40
0
40
0
40
0
40
1
40
1
40
1
40
1
41
1
10
468.324759526419
20
10.4473652688735
30
0
41
1
10
468.103764009202
20
10.810559849516
30
0
41
1
10
467.878876276632
20
11.1705149416585
30
0
41
1
10
467.650480947162
20
11.5275506630092
30
0
0
SPLINE
5
1B3
100
AcDbEntity
8
1
62
256
6
ByLayer
370
18
48
1
60
0
100
AcDbSpline
70
4
71
3
72
41
73
37
40
0
40
0
40
0
40
0
40
0.125000000000009
40
0.125000000000009
40
0.187500000000007
40
0.187500000000007
40
0.250000000000006
40
0.250000000000006
40
0.374999999999991
40
0.374999999999991
40
0.437499999999986
40
0.437499999999986
40
0.499999999999982
40
0.499999999999982
40
0.562499999999977
40
0.562499999999977
40
0.624999999999973
40
0.624999999999973
40
0.656249999999973
40
0.656249999999973
40
0.687499999999973
40
0.687499999999973
40
0.718749999999973
40
0.718749999999973
40
0.749999999999973
40
0.749999999999973
40
0.812499999999981
40
0.812499999999981
40
0.843749999999985
40
0.843749999999985
40
0.874999999999989
40
0.906249999999993
40
0.906249999999993
40
0.937499999999997
40
0.937499999999997
40
1
40
1
40
1
40
1
41
1
10
467.650480947162
20
11.5275506630092
30
0
41
1
10
467.638981804677
20
11.5455265324871
30
0
41
1
10
467.62814548197
20
11.5634206151345
30
0
41
1
10
467.612939206481
20
11.5901281849026
30
0
41
1
10
467.608042788563
20
11.5990169496372
30
0
41
1
10
467.598721928767
20
11.6165648982946
30
0
41
1
10
467.594284643271
20
11.6252457634574
30
0
41
1
10
467.581686936374
20
11.6509896479143
30
0
41
1
10
467.574223281786
20
11.6677610781085
30
0
41
1
10
467.564837577099
20
11.6921604462441
30
0
41
1
10
467.562006278076
20
11.7001981661703
30
0
41
1
10
467.557184605238
20
11.7156477088206
30
0
41
1
10
467.555179368067
20
11.7230904973063
30
0
41
1
10
467.552137250522
20
11.7373043165412
30
0
41
1
10
467.551097322754
20
11.7440774273189
30
0
41
1
10
467.550263647968
20
11.7567617390191
30
0
41
1
10
467.550482593648
20
11.7625191878593
30
0
41
1
10
467.551971457481
20
11.7700613230136
30
0
41
1
10
467.552662227263
20
11.7723934928276
30
0
41
1
10
467.554488589318
20
11.7766425722051
30
0
41
1
10
467.555629696968
20
11.7785582671374
30
0
41
1
10
467.558347744801
20
11.781828174281
30
0
41
1
10
467.559929168047
20
11.7831969176479
30
0
41
1
10
467.563569638857
20
11.7853637195283
30
0
41
1
10
467.565645521329
20
11.7861647789784
30
0
41
1
10
467.572537810431
20
11.7876065271336
30
0
41
1
10
467.57792665398
20
11.7872966647606
30
0
41
1
10
467.587151619285
20
11.7850110816938
30
0
41
1
10
467.590446302725
20
11.7839313072075
30
0
41
1
10
467.597241521147
20
11.7812338486901
30
0
41
1
10
467.604247829043
20
11.7780072079684
30
0
41
1
10
467.61163322165
20
11.7738322488324
30
0
41
1
10
467.619193271317
20
11.7692211157922
30
0
41
1
10
467.623071327698
20
11.7666886267638
30
0
41
1
10
467.634714931172
20
11.7586489532194
30
0
41
1
10
467.642563586242
20
11.7526628820392
30
0
41
1
10
467.650480947162
20
11.7461799915722
30
0
0
SPLINE
5
1B4
100
AcDbEntity
8
1
62
256
6
ByLayer
370
18
48
1
60
0
100
AcDbSpline
70
4
71
3
72
8
73
4
40
0
40
0
40
0
40
0
40
1
40
1
40
1
40
1
41
1
10
467.650480947162
20
11.7461799915719
30
0
41
1
10
467.875247737629
20
11.562136533403
30
0
41
1
10
468.100007511727
20
11.3780816494066
30
0
41
1
10
468.324759526419
20
11.1940141333148
30
0
0
SPLINE
5
1B5
100
AcDbEntity
8
1
62
256
6
ByLayer
370
18
48
1
60
0
100
AcDbSpline
70
4
71
3
72
8
73
4
40
0
40
0
40
0
40
0
40
1
40
1
40
1
40
1
41
1
10
468.324759526419
20
11.4182396666025
30
0
41
1
10
468.10282976625
20
11.7496954266907
30
0
41
1
10
467.87797677687
20
12.0784874839773
30
0
41
1
10
467.650480947162
20
12.4048713342158
30
0
0
SPLINE
5
1B6
100
AcDbEntity
8
1
62
256
6
ByLayer
370
18
48
1
60
0
100
AcDbSpline
70
4
71
3
72
34
73
30
40
0
40
0
40
0
40
0
40
0.125000000000005
40
0.125000000000005
40
0.250000000000009
40
0.250000000000009
40
0.312500000000011
40
0.312500000000011
40
0.375000000000013
40
0.375000000000013
40
0.500000000000017
40
0.500000000000017
40
0.562500000000021
40
0.562500000000021
40
0.625000000000024
40
0.625000000000024
40
0.687500000000028
40
0.687500000000028
40
0.718750000000029
40
0.718750000000029
40
0.75000000000003
40
0.75000000000003
40
0.812500000000023
40
0.812500000000023
40
0.875000000000015
40
0.875000000000015
40
0.937500000000008
40
0.937500000000008
40
1
40
1
40
1
40
1
41
1
10
467.650480947162
20
12.4048713342158
30
0
41
1
10
467.638779782576
20
12.4216587678787
30
0
41
1
10
467.627693116502
20
12.4383758860407
30
0
41
1
10
467.607002473869
20
12.4714107933081
30
0
41
1
10
467.597504579954
20
12.4875524832558
30
0
41
1
10
467.584701626499
20
12.5111204626936
30
0
41
1
10
467.580676613219
20
12.518868159681
30
0
41
1
10
467.57317678391
20
12.534117596638
30
0
41
1
10
467.569687169971
20
12.5416532144368
30
0
41
1
10
467.560306547285
20
12.5635746306862
30
0
41
1
10
467.555515793997
20
12.5771559030129
30
0
41
1
10
467.551444442405
20
12.595334081104
30
0
41
1
10
467.550629414815
20
12.6010158296479
30
0
41
1
10
467.550369704541
20
12.6110410235757
30
0
41
1
10
467.550906911697
20
12.6154408318442
30
0
41
1
10
467.553649785601
20
12.6227119306337
30
0
41
1
10
467.555833495619
20
12.625479638909
30
0
41
1
10
467.560418657478
20
12.6281044544242
30
0
41
1
10
467.562180578905
20
12.6287302685931
30
0
41
1
10
467.56612484049
20
12.6294299988261
30
0
41
1
10
467.568286199411
20
12.6295043011147
30
0
41
1
10
467.575316333566
20
12.6289333978027
30
0
41
1
10
467.580743615076
20
12.6274928474924
30
0
41
1
10
467.592956646791
20
12.6225760263927
30
0
41
1
10
467.59950045086
20
12.619204439914
30
0
41
1
10
467.613308831924
20
12.6109620758324
30
0
41
1
10
467.620630234375
20
12.606041751766
30
0
41
1
10
467.635395579301
20
12.5952630873198
30
0
41
1
10
467.642891402848
20
12.5893789353748
30
0
41
1
10
467.650480947162
20
12.5830864488536
30
0
0
SPLINE
5
1B7
100
AcDbEntity
8
1
62
256
6
ByLayer
370
18
48
1
60
0
100
AcDbSpline
70
4
71
3
72
8
73
4
40
0
40
0
40
0
40
0
40
1
40
1
40
1
40
1
41
1
10
467.650480947162
20
12.5830864488535
30
0
41
1
10
467.87527835498
20
12.3967070563409
30
0
41
1
10
468.100039125586
20
12.2102687278776
30
0
41
1
10
468.324759526419
20
12.0237655573025
30
0
0
SPLINE
5
1B8
100
AcDbEntity
8
1
62
256
6
ByLayer
370
18
48
1
60
0
100
AcDbSpline
70
4
71
3
72
8
73
4
40
0
40
0
40
0
40
0
40
1
40
1
40
1
40
1
41
1
10
468.324759526419
20
12.204537010626
30
0
41
1
10
468.102167049584
20
12.5105841760993
30
0
41
1
10
467.877337890168
20
12.8144257977413
30
0
41
1
10
467.650480947162
20
13.1162678662819
30
0
0
SPLINE
5
1B9
100
AcDbEntity
8
1
62
256
6
ByLayer
370
18
48
1
60
0
100
AcDbSpline
70
4
71
3
72
41
73
37
40
0
40
0
40
0
40
0
40
0.062500000000003
40
0.062500000000003
40
0.125000000000006
40
0.125000000000006
40
0.250000000000004
40
0.250000000000004
40
0.312500000000005
40
0.312500000000005
40
0.375000000000006
40
0.375000000000006
40
0.437500000000007
40
0.468750000000007
40
0.468750000000007
40
0.500000000000008
40
0.500000000000008
40
0.562500000000009
40
0.562500000000009
40
0.62500000000001
40
0.62500000000001
40
0.687500000000012
40
0.687500000000012
40
0.750000000000013
40
0.750000000000013
40
0.781250000000013
40
0.781250000000013
40
0.812500000000013
40
0.812500000000013
40
0.87500000000001
40
0.87500000000001
40
0.906250000000009
40
0.906250000000009
40
0.937500000000008
40
0.937500000000008
40
1
40
1
40
1
40
1
41
1
10
467.650480947162
20
13.1162678662819
30
0
41
1
10
467.644530707472
20
13.1241848937819
30
0
41
1
10
467.638734660478
20
13.1320661881963
30
0
41
1
10
467.627462614209
20
13.1477537676446
30
0
41
1
10
467.621983627572
20
13.1555655854397
30
0
41
1
10
467.606226071217
20
13.1786319055696
30
0
41
1
10
467.59655639816
20
13.1936038516693
30
0
41
1
10
467.583525644729
20
13.2153410699518
30
0
41
1
10
467.579429881241
20
13.2224656317339
30
0
41
1
10
467.571814377828
20
13.2364325284526
30
0
41
1
10
467.568318980523
20
13.2432345542673
30
0
41
1
10
467.562151731737
20
13.2562021368569
30
0
41
1
10
467.558116055743
20
13.2654991328198
30
0
41
1
10
467.555124307769
20
13.2740375850842
30
0
41
1
10
467.553390593519
20
13.2795405045769
30
0
41
1
10
467.552653442229
20
13.2822028365412
30
0
41
1
10
467.550910298472
20
13.2897406107664
30
0
41
1
10
467.550352356246
20
13.2942147484468
30
0
41
1
10
467.550659068286
20
13.3018677379402
30
0
41
1
10
467.551551382701
20
13.3050594781882
30
0
41
1
10
467.554942046485
20
13.3096266601921
30
0
41
1
10
467.55744201508
20
13.31105029367
30
0
41
1
10
467.564147905172
20
13.3119608702219
30
0
41
1
10
467.568227742826
20
13.3114399048529
30
0
41
1
10
467.575359496822
20
13.3093034854225
30
0
41
1
10
467.577906330663
20
13.3083642815716
30
0
41
1
10
467.583336023074
20
13.3060366334107
30
0
41
1
10
467.586212296449
20
13.3046487760991
30
0
41
1
10
467.595094710497
20
13.2999585110497
30
0
41
1
10
467.601422754011
20
13.2961049586613
30
0
41
1
10
467.611436330013
20
13.2893955044817
30
0
41
1
10
467.614876803774
20
13.2869917365593
30
0
41
1
10
467.62181975771
20
13.2819650556374
30
0
41
1
10
467.625327553302
20
13.2793394829975
30
0
41
1
10
467.635948792471
20
13.271161122513
30
0
41
1
10
467.643159471795
20
13.2653086512668
30
0
41
1
10
467.650480947162
20
13.259115910295
30
0
0
SPLINE
5
1BA
100
AcDbEntity
8
1
62
256
6
ByLayer
370
18
48
1
60
0
100
AcDbSpline
70
4
71
3
72
8
73
4
40
0
40
0
40
0
40
0
40
1
40
1
40
1
40
1
41
1
10
467.650480947162
20
13.2591159102949
30
0
41
1
10
467.875326782244
20
13.0689340213255
30
0
41
1
10
468.100089025132
20
12.8786205059024
30
0
41
1
10
468.324759526419
20
12.6881625317612
30
0
0
SPLINE
5
1BB
100
AcDbEntity
8
1
62
256
6
ByLayer
370
18
48
1
60
0
100
AcDbSpline
70
4
71
3
72
8
73
4
40
0
40
0
40
0
40
0
40
1
40
1
40
1
40
1
41
1
10
468.324759526419
20
12.8306924641192
30
0
41
1
10
468.101678442285
20
13.1158055554848
30
0
41
1
10
467.876866272618
20
13.3990877212197
30
0
41
1
10
467.650480947162
20
13.6807059996443
30
0
0
SPLINE
5
1BC
100
AcDbEntity
8
1
62
256
6
ByLayer
370
18
48
1
60
0
100
AcDbSpline
70
4
71
3
72
38
73
34
40
0
40
0
40
0
40
0
40
0.0624999999999961
40
0.0624999999999961
40
0.124999999999992
40
0.124999999999992
40
0.249999999999986
40
0.249999999999986
40
0.312499999999984
40
0.312499999999984
40
0.374999999999982
40
0.374999999999982
40
0.43749999999998
40
0.43749999999998
40
0.499999999999978
40
0.499999999999978
40
0.562499999999976
40
0.562499999999976
40
0.624999999999974
40
0.624999999999974
40
0.687499999999971
40
0.687499999999971
40
0.749999999999969
40
0.749999999999969
40
0.781249999999972
40
0.781249999999972
40
0.812499999999974
40
0.812499999999974
40
0.874999999999983
40
0.874999999999983
40
0.937499999999991
40
0.937499999999991
40
1
40
1
40
1
40
1
41
1
10
467.650480947162
20
13.6807059996443
30
0
41
1
10
467.644435066045
20
13.6882269404489
30
0
41
1
10
467.638541009106
20
13.6956954835845
30
0
41
1
10
467.627070710279
20
13.7105219541044
30
0
41
1
10
467.621478397149
20
13.7179019338334
30
0
41
1
10
467.605382543492
20
13.7396367381104
30
0
41
1
10
467.59552307329
20
13.7536213176681
30
0
41
1
10
467.582291758194
20
13.7736882743325
30
0
41
1
10
467.578143409899
20
13.7802241905302
30
0
41
1
10
467.570463431254
20
13.792935050527
30
0
41
1
10
467.566983467967
20
13.7990266725007
30
0
41
1
10
467.560894095359
20
13.8105111646513
30
0
41
1
10
467.558273629461
20
13.815921115396
30
0
41
1
10
467.554041861199
20
13.8259505318495
30
0
41
1
10
467.552432376484
20
13.8305864249236
30
0
41
1
10
467.550538980103
20
13.8385889334806
30
0
41
1
10
467.550233118891
20
13.8420039082263
30
0
41
1
10
467.551141496283
20
13.8474028832892
30
0
41
1
10
467.552342069685
20
13.8493113044687
30
0
41
1
10
467.556322566542
20
13.8514574493095
30
0
41
1
10
467.559156903261
20
13.8516693992415
30
0
41
1
10
467.566155193741
20
13.8503516061791
30
0
41
1
10
467.570327284129
20
13.8488516643691
30
0
41
1
10
467.57754044284
20
13.845411474338
30
0
41
1
10
467.580121827421
20
13.8440551043984
30
0
41
1
10
467.585487525657
20
13.8410134790065
30
0
41
1
10
467.588275661537
20
13.8393280740422
30
0
41
1
10
467.596927885113
20
13.8338227337175
30
0
41
1
10
467.603078037699
20
13.8295564416253
30
0
41
1
10
467.616050433374
20
13.8199786606838
30
0
41
1
10
467.622764082909
20
13.8147458022603
30
0
41
1
10
467.636420273296
20
13.8036638171371
30
0
41
1
10
467.643389119659
20
13.7977944023938
30
0
41
1
10
467.650480947162
20
13.7916390605853
30
0
0
SPLINE
5
1BD
100
AcDbEntity
8
1
62
256
6
ByLayer
370
18
48
1
60
0
100
AcDbSpline
70
4
71
3
72
8
73
4
40
0
40
0
40
0
40
0
40
1
40
1
40
1
40
1
41
1
10
467.650480947162
20
13.7916390605852
30
0
41
1
10
467.875390693943
20
13.5964289589472
30
0
41
1
10
468.100154848045
20
13.4009956122067
30
0
41
1
10
468.324759526419
20
13.2053177327395
30
0
0
SPLINE
5
1BE
100
AcDbEntity
8
1
62
256
6
ByLayer
370
18
48
1
60
0
100
AcDbSpline
70
4
71
3
72
8
73
4
40
0
40
0
40
0
40
0
40
1
40
1
40
1
40
1
41
1
10
468.324759526419
20
13.3131399205597
30
0
41
1
10
468.101307459449
20
13.5806365366888
30
0
41
1
10
467.876507770666
20
13.8466150387261
30
0
41
1
10
467.650480947162
20
14.1112111569994
30
0
0
SPLINE
5
1BF
100
AcDbEntity
8
1
62
256
6
ByLayer
370
18
48
1
60
0
100
AcDbSpline
70
4
71
3
72
37
73
33
40
0
40
0
40
0
40
0
40
0.125000000000003
40
0.125000000000003
40
0.250000000000006
40
0.250000000000006
40
0.312500000000005
40
0.312500000000005
40
0.375000000000005
40
0.375000000000005
40
0.437500000000005
40
0.437500000000005
40
0.468750000000004
40
0.468750000000004
40
0.500000000000004
40
0.531250000000004
40
0.531250000000004
40
0.562500000000004
40
0.562500000000004
40
0.625000000000005
40
0.625000000000005
40
0.656250000000004
40
0.656250000000004
40
0.687500000000002
40
0.687500000000002
40
0.750000000000002
40
0.750000000000002
40
0.812500000000001
40
0.812500000000001
40
0.875000000000001
40
0.875000000000001
40
1
40
1
40
1
40
1
41
1
10
467.650480947162
20
14.1112111569994
30
0
41
1
10
467.638202144537
20
14.1255852187202
30
0
41
1
10
467.626485867576
20
14.1397144945021
30
0
41
1
10
467.604552320067
20
14.1671510631429
30
0
41
1
10
467.594502099815
20
14.1802445976579
30
0
41
1
10
467.581082092083
20
14.1987490698133
30
0
41
1
10
467.57688735265
20
14.20472606789
30
0
41
1
10
467.569160111633
20
14.2162246159392
30
0
41
1
10
467.565703840037
20
14.2216334116341
30
0
41
1
10
467.559712993625
20
14.2316731893742
30
0
41
1
10
467.557175330865
20
14.236307773251
30
0
41
1
10
467.554189582967
20
14.2425686008373
30
0
41
1
10
467.55333114082
20
14.2445439196842
30
0
41
1
10
467.551945089713
20
14.2481706791233
30
0
41
1
10
467.550880306039
20
14.2514915212535
30
0
41
1
10
467.550493173189
20
14.2541672783632
30
0
41
1
10
467.550469840073
20
14.2564968771615
30
0
41
1
10
467.55064329357
20
14.2574911476068
30
0
41
1
10
467.551729677775
20
14.2598627622591
30
0
41
1
10
467.553197894126
20
14.2606567256917
30
0
41
1
10
467.556546564706
20
14.2606368151033
30
0
41
1
10
467.557864176504
20
14.2604245190905
30
0
41
1
10
467.56084962648
20
14.2595937482397
30
0
41
1
10
467.562509311231
20
14.2589798099646
30
0
41
1
10
467.567961306
20
14.256576233022
30
0
41
1
10
467.572230449554
20
14.254223815366
30
0
41
1
10
467.581924074944
20
14.2481356233893
30
0
41
1
10
467.587203153222
20
14.2444931606372
30
0
41
1
10
467.598484907468
20
14.2362099822944
30
0
41
1
10
467.604518790299
20
14.2315432716229
30
0
41
1
10
467.623400016941
20
14.2163577993823
30
0
41
1
10
467.636681697516
20
14.2049543935824
30
0
41
1
10
467.650480947162
20
14.1926049128575
30
0
0
SPLINE
5
1C0
100
AcDbEntity
8
1
62
256
6
ByLayer
370
18
48
1
60
0
100
AcDbSpline
70
4
71
3
72
8
73
4
40
0
40
0
40
0
40
0
40
1
40
1
40
1
40
1
41
1
10
467.650480947162
20
14.1926049128575
30
0
41
1
10
467.875470342809
20
13.9912532251729
30
0
41
1
10
468.100236859786
20
13.7895703804291
30
0
41
1
10
468.324759526419
20
13.5875252185437
30
0
0
SPLINE
5
1C1
100
AcDbEntity
8
1
62
256
6
ByLayer
370
18
48
1
60
0
100
AcDbSpline
70
4
71
3
72
8
73
4
40
0
40
0
40
0
40
0
40
1
40
1
40
1
40
1
41
1
10
468.324759526419
20
13.6630274540333
30
0
41
1
10
468.101019214676
20
13.9154654531765
30
0
41
1
10
467.876228917632
20
14.1666509399748
30
0
41
1
10
467.650480947162
20
14.4166940319326
30
0
0
SPLINE
5
1C2
100
AcDbEntity
8
1
62
256
6
ByLayer
370
18
48
1
60
0
100
AcDbSpline
70
4
71
3
72
37
73
33
40
0
40
0
40
0
40
0
40
0.0624999999999971
40
0.0624999999999971
40
0.124999999999994
40
0.124999999999994
40
0.249999999999989
40
0.249999999999989
40
0.312499999999989
40
0.312499999999989
40
0.374999999999988
40
0.406249999999988
40
0.406249999999988
40
0.437499999999988
40
0.437499999999988
40
0.499999999999988
40
0.499999999999988
40
0.531249999999988
40
0.531249999999988
40
0.562499999999988
40
0.562499999999988
40
0.624999999999991
40
0.624999999999991
40
0.687499999999994
40
0.687499999999994
40
0.749999999999997
40
0.749999999999997
40
0.8125
40
0.8125
40
0.875000000000003
40
0.875000000000003
40
1
40
1
40
1
40
1
41
1
10
467.650480947162
20
14.4166940319326
30
0
41
1
10
467.644233516261
20
14.4236138148035
30
0
41
1
10
467.638128791671
20
14.4304472421319
30
0
41
1
10
467.626224587922
20
14.4439282469415
30
0
41
1
10
467.620408632679
20
14.4505953398455
30
0
41
1
10
467.603696944729
20
14.4700187730248
30
0
41
1
10
467.593459438986
20
14.4822776869191
30
0
41
1
10
467.579801977808
20
14.499359790977
30
0
41
1
10
467.575513158026
20
14.5048653228668
30
0
41
1
10
467.567827277759
20
14.5150761747949
30
0
41
1
10
467.562698992221
20
14.5221718288959
30
0
41
1
10
467.55866279162
20
14.5283005792956
30
0
41
1
10
467.556240243351
20
14.5321488241232
30
0
41
1
10
467.555161120897
20
14.5339584350358
30
0
41
1
10
467.552417952635
20
14.5389021635935
30
0
41
1
10
467.551221826353
20
14.5415884195284
30
0
41
1
10
467.550485616375
20
14.5445985953608
30
0
41
1
10
467.55041909126
20
14.5454340249257
30
0
41
1
10
467.550661814729
20
14.5467128369885
30
0
41
1
10
467.550968230583
20
14.5471605417463
30
0
41
1
10
467.552439131489
20
14.5479324593434
30
0
41
1
10
467.554154903999
20
14.5476875862862
30
0
41
1
10
467.559095757758
20
14.545630029289
30
0
41
1
10
467.562230525272
20
14.5438567909988
30
0
41
1
10
467.569682176899
20
14.5389883407314
30
0
41
1
10
467.574051131848
20
14.535851615375
30
0
41
1
10
467.583612877603
20
14.528557039509
30
0
41
1
10
467.58879748384
20
14.5244110022476
30
0
41
1
10
467.599860114334
20
14.5152650369474
30
0
41
1
10
467.605784818522
20
14.510223577669
30
0
41
1
10
467.624098620595
20
14.4942917137733
30
0
41
1
10
467.637015243456
20
14.4826211375579
30
0
41
1
10
467.650480947162
20
14.4701429912256
30
0
0
SPLINE
5
1C3
100
AcDbEntity
8
1
62
256
6
ByLayer
370
18
48
1
60
0
100
AcDbSpline
70
4
71
3
72
8
73
4
40
0
40
0
40
0
40
0
40
1
40
1
40
1
40
1
41
1
10
467.650480947162
20
14.4701429912256
30
0
41
1
10
467.875567648883
20
14.2615638584136
30
0
41
1
10
468.10033706691
20
14.0525298860215
30
0
41
1
10
468.324759526419
20
13.8429985339382
30
0
0
SPLINE
5
1C4
100
AcDbEntity
8
1
62
256
6
ByLayer
370
18
48
1
60
0
100
AcDbSpline
70
4
71
3
72
8
73
4
40
0
40
0
40
0
40
0
40
1
40
1
40
1
40
1
41
1
10
468.324759526419
20
13.8877233606911
30
0
41
1
10
468.100791090601
20
14.1271433496652
30
0
41
1
10
467.876008003165
20
14.3655393957385
30
0
41
1
10
467.650480947162
20
14.6030003410692
30
0
0
SPLINE
5
1C5
100
AcDbEntity
8
1
62
256
6
ByLayer
370
18
48
1
60
0
100
AcDbSpline
70
4
71
3
72
37
73
33
40
0
40
0
40
0
40
0
40
0.124999999999999
40
0.124999999999999
40
0.187499999999996
40
0.187499999999996
40
0.249999999999993
40
0.249999999999993
40
0.31249999999999
40
0.343749999999989
40
0.343749999999989
40
0.374999999999988
40
0.374999999999988
40
0.437499999999986
40
0.437499999999986
40
0.468749999999986
40
0.468749999999986
40
0.499999999999987
40
0.499999999999987
40
0.562499999999988
40
0.562499999999988
40
0.62499999999999
40
0.62499999999999
40
0.687499999999992
40
0.687499999999992
40
0.749999999999993
40
0.749999999999993
40
0.812499999999995
40
0.812499999999995
40
0.874999999999997
40
0.874999999999997
40
1
40
1
40
1
40
1
41
1
10
467.650480947162
20
14.6030003410692
30
0
41
1
10
467.637713524711
20
14.6164433587645
30
0
41
1
10
467.625555134204
20
14.6293990848537
30
0
41
1
10
467.608569850311
20
14.6477688699773
30
0
41
1
10
467.603108564081
20
14.6537238617308
30
0
41
1
10
467.592645038061
20
14.6652469120385
30
0
41
1
10
467.587628553197
20
14.6708318448452
30
0
41
1
10
467.578394061833
20
14.6812540907382
30
0
41
1
10
467.572016535815
20
14.6885648297593
30
0
41
1
10
467.566579562048
20
14.6950058114147
30
0
41
1
10
467.563185659207
20
14.6990862291317
30
0
41
1
10
467.561600856608
20
14.7010238889255
30
0
41
1
10
467.557303071354
20
14.7063893319181
30
0
41
1
10
467.555014755975
20
14.7094065301894
30
0
41
1
10
467.552553203198
20
14.7129894842049
30
0
41
1
10
467.551893247071
20
14.7140301161126
30
0
41
1
10
467.550941407315
20
14.7157401602286
30
0
41
1
10
467.550646743411
20
14.7164124694591
30
0
41
1
10
467.550307456757
20
14.7178803359909
30
0
41
1
10
467.550804218981
20
14.7181301453525
30
0
41
1
10
467.553323180194
20
14.7170929258188
30
0
41
1
10
467.555303382755
20
14.7158212919829
30
0
41
1
10
467.560517793468
20
14.7119566589441
30
0
41
1
10
467.563756830219
20
14.709360874101
30
0
41
1
10
467.571431586465
20
14.7029148992649
30
0
41
1
10
467.575773222109
20
14.699143259072
30
0
41
1
10
467.585223568068
20
14.6907486294537
30
0
41
1
10
467.59034747327
20
14.6861125346104
30
0
41
1
10
467.601310018783
20
14.6760560925488
30
0
41
1
10
467.607046357809
20
14.670729424597
30
0
41
1
10
467.624771194315
20
14.6541190568011
30
0
41
1
10
467.637325338164
20
14.642161607454
30
0
41
1
10
467.650480947162
20
14.6294893682057
30
0
0
SPLINE
5
1C6
100
AcDbEntity
8
1
62
256
6
ByLayer
370
18
48
1
60
0
100
AcDbSpline
70
4
71
3
72
8
73
4
40
0
40
0
40
0
40
0
40
1
40
1
40
1
40
1
41
1
10
467.650480947162
20
14.6294893682057
30
0
41
1
10
467.875685997486
20
14.4125589107668
30
0
41
1
10
468.100458994954
20
14.1950332762281
30
0
41
1
10
468.324759526419
20
13.97685679321
30
0
0
SPLINE
5
1C7
100
AcDbEntity
8
1
62
256
6
ByLayer
370
18
48
1
60
0
100
AcDbSpline
70
4
71
3
72
8
73
4
40
0
40
0
40
0
40
0
40
1
40
1
40
1
40
1
41
1
10
468.324759526419
20
13.9916716944559
30
0
41
1
10
468.100607863251
20
14.2197546698709
30
0
41
1
10
467.875830405165
20
14.4470125106997
30
0
41
1
10
467.650480947162
20
14.6735161477106
30
0
0
SPLINE
5
1C8
100
AcDbEntity
8
1
62
256
6
ByLayer
370
18
48
1
60
0
100
AcDbSpline
70
4
71
3
72
32
73
28
40
0
40
0
40
0
40
0
40
0.096089397159319
40
0.096089397159319
40
0.192178794318638
40
0.192178794318638
40
0.384357588637266
40
0.384357588637266
40
0.480446985796581
40
0.480446985796581
40
0.528491684376243
40
0.528491684376243
40
0.576536382955905
40
0.576536382955905
40
0.672625780115227
40
0.672625780115227
40
0.720670478694889
40
0.720670478694889
40
0.768715177274552
40
0.768715177274552
40
0.864804574433876
40
0.864804574433876
40
0.912849273013539
40
0.912849273013539
40
0.960893971593201
40
0.960893971593201
40
1
40
1
40
1
40
1
41
1
10
467.650480947162
20
14.6735161477106
30
0
41
1
10
467.643995528497
20
14.6800347829365
30
0
41
1
10
467.637641930967
20
14.6864240983025
30
0
41
1
10
467.625223781212
20
14.6989177330083
30
0
41
1
10
467.619159362558
20
14.7050219490506
30
0
41
1
10
467.601760540395
20
14.7225422830358
30
0
41
1
10
467.591092877904
20
14.7332946246385
30
0
41
1
10
467.576962978984
20
14.7475455477897
30
0
41
1
10
467.572665768936
20
14.7518812199195
30
0
41
1
10
467.566937041454
20
14.7576626687888
30
0
41
1
10
467.565146159727
20
14.7594703034833
30
0
41
1
10
467.561821741835
20
14.7628262012985
30
0
41
1
10
467.560285385348
20
14.7643773132463
30
0
41
1
10
467.556170769704
20
14.7685318245776
30
0
41
1
10
467.554054662599
20
14.7706689842464
30
0
41
1
10
467.551904777518
20
14.7728403855655
30
0
41
1
10
467.551358069514
20
14.7733926014477
30
0
41
1
10
467.550642684802
20
14.7741152032569
30
0
41
1
10
467.550471174801
20
14.7742884504568
30
0
41
1
10
467.550501778366
20
14.7742575373637
30
0
41
1
10
467.551246131199
20
14.7735056170718
30
0
41
1
10
467.553449587003
20
14.77128011912
30
0
41
1
10
467.554366440456
20
14.7703541331463
30
0
41
1
10
467.556507437831
20
14.7681920072893
30
0
41
1
10
467.557735591993
20
14.7669518171103
30
0
41
1
10
467.560231347123
20
14.7644318873774
30
0
41
1
10
467.561451218113
20
14.763200292138
30
0
41
1
10
467.562764838353
20
14.7618741856942
30
0
0
SPLINE
5
1C9
100
AcDbEntity
8
1
62
256
6
ByLayer
370
18
48
1
60
0
100
AcDbSpline
70
4
71
3
72
10
73
6
40
0
40
0
40
0
40
0
40
0.142269625709049
40
0.142269625709049
40
1
40
1
40
1
40
1
41
1
10
467.608041075821
20
14.7162185950398
30
0
41
1
10
467.609918627675
20
14.7143274302816
30
0
41
1
10
467.6118177054
20
14.7124148471827
30
0
41
1
10
467.625296915117
20
14.6988417531482
30
0
41
1
10
467.637586054382
20
14.6864770846455
30
0
41
1
10
467.650480947162
20
14.6735161477106
30
0
0
SPLINE
5
1CA
100
AcDbEntity
8
1
62
256
6
ByLayer
370
18
48
1
60
0
100
AcDbSpline
70
4
71
3
72
36
73
32
40
0
40
0
40
0
40
0
40
0.122294168916005
40
0.122294168916005
40
0.195436321506339
40
0.195436321506339
40
0.232007397801506
40
0.232007397801506
40
0.268578474096673
40
0.268578474096673
40
0.341720626687007
40
0.341720626687007
40
0.378291702982172
40
0.378291702982172
40
0.414862779277337
40
0.414862779277337
40
0.488004931867667
40
0.488004931867667
40
0.524576008162834
40
0.524576008162834
40
0.561147084458002
40
0.561147084458002
40
0.634289237048335
40
0.634289237048335
40
0.707431389638668
40
0.707431389638668
40
0.780573542229002
40
0.780573542229002
40
0.853715694819335
40
0.853715694819335
40
1
40
1
40
1
40
1
41
1
10
467.607729614587
20
-24.7165323184193
30
0
41
1
10
467.598295176105
20
-24.7260353140278
30
0
41
1
10
467.589548040495
20
-24.7348526937601
30
0
41
1
10
467.576962978984
20
-24.7475455477898
30
0
41
1
10
467.572665768936
20
-24.7518812199195
30
0
41
1
10
467.566937041454
20
-24.7576626687888
30
0
41
1
10
467.565146159727
20
-24.7594703034834
30
0
41
1
10
467.561821741835
20
-24.7628262012985
30
0
41
1
10
467.560285385348
20
-24.7643773132463
30
0
41
1
10
467.556170769704
20
-24.7685318245777
30
0
41
1
10
467.554054662599
20
-24.7706689842465
30
0
41
1
10
467.551904777518
20
-24.7728403855656
30
0
41
1
10
467.551358069514
20
-24.7733926014478
30
0
41
1
10
467.550642684802
20
-24.7741152032569
30
0
41
1
10
467.550471174801
20
-24.7742884504568
30
0
41
1
10
467.550501778366
20
-24.7742575373637
30
0
41
1
10
467.551246131199
20
-24.7735056170718
30
0
41
1
10
467.553449587003
20
-24.7712801191201
30
0
41
1
10
467.554366440456
20
-24.7703541331464
30
0
41
1
10
467.556507437831
20
-24.7681920072894
30
0
41
1
10
467.557735591993
20
-24.7669518171103
30
0
41
1
10
467.561863192775
20
-24.7627842351986
30
0
41
1
10
467.565218581561
20
-24.7593968992318
30
0
41
1
10
467.572951716672
20
-24.7515926878474
30
0
41
1
10
467.577252302461
20
-24.7472536906846
30
0
41
1
10
467.586584704884
20
-24.7378414692272
30
0
41
1
10
467.591617667416
20
-24.7327670857882
30
0
41
1
10
467.602342916788
20
-24.7219581556355
30
0
41
1
10
467.607954623723
20
-24.7163048356881
30
0
41
1
10
467.625296915117
20
-24.6988417531483
30
0
41
1
10
467.637586054382
20
-24.6864770846455
30
0
41
1
10
467.650480947162
20
-24.6735161477107
30
0
0
SPLINE
5
1CB
100
AcDbEntity
8
1
62
256
6
ByLayer
370
18
48
1
60
0
100
AcDbSpline
70
4
71
3
72
8
73
4
40
0
40
0
40
0
40
0
40
1
40
1
40
1
40
1
41
1
10
467.650480947162
20
-24.6735161477107
30
0
41
1
10
467.875830405165
20
-24.4470125106998
30
0
41
1
10
468.100607863251
20
-24.2197546698709
30
0
41
1
10
468.324759526419
20
-23.991671694456
30
0
0
SPLINE
5
1CC
100
AcDbEntity
8
1
62
256
6
ByLayer
370
18
48
1
60
0
100
AcDbSpline
70
4
71
3
72
8
73
4
40
0
40
0
40
0
40
0
40
1
40
1
40
1
40
1
41
1
10
468.324759526419
20
-23.97685679321
30
0
41
1
10
468.100458994954
20
-24.1950332762281
30
0
41
1
10
467.875685997486
20
-24.4125589107669
30
0
41
1
10
467.650480947162
20
-24.6294893682058
30
0
0
SPLINE
5
1CD
100
AcDbEntity
8
1
62
256
6
ByLayer
370
18
48
1
60
0
100
AcDbSpline
70
4
71
3
72
60
73
56
40
0
40
0
40
0
40
0
40
0.0161075874728687
40
0.0323222605505195
40
0.0486439616083481
40
0.0650726331557479
40
0.0816082178506601
40
0.0982506585142144
40
0.114999898145533
40
0.131855879936633
40
0.148818547287494
40
0.165887843821231
40
0.183063713399398
40
0.200346100137423
40
0.217734948420179
40
0.235230202917667
40
0.252831808600828
40
0.270539710757483
40
0.288353855008396
40
0.306274187323454
40
0.324300654037977
40
0.342433201869127
40
0.360671777932457
40
0.379016329758564
40
0.397466805309867
40
0.416023152997461
40
0.434685321698144
40
0.453453260771485
40
0.472326920077046
40
0.491306249991681
40
0.510391201426961
40
0.529581725846676
40
0.548877775284413
40
0.568279302361308
40
0.58778626030379
40
0.607398602961491
40
0.627116284825175
40
0.646939261044839
40
0.666867487447782
40
0.68690092055684
40
0.707039517608651
40
0.727283236572017
40
0.747632036166291
40
0.768085875879865
40
0.788644715988706
40
0.809308517574935
40
0.830077242545484
40
0.850950853650769
40
0.871929314503429
40
0.893012589597106
40
0.914200644325232
40
0.935493444999902
40
0.956890958870706
40
0.97839315414364
40
1
40
1
40
1
40
1
41
1
10
466
20
-20.5
30
0
41
1
10
466.000004223372
20
-20.5139622784084
30
0
41
1
10
466.000012698193
20
-20.5419796585004
30
0
41
1
10
466.000081029519
20
-20.5839237606168
30
0
41
1
10
466.000190375541
20
-20.6259798703545
30
0
41
1
10
466.000345090432
20
-20.6681279427222
30
0
41
1
10
466.000544382325
20
-20.7103681144686
30
0
41
1
10
466.000788847537
20
-20.7526950184516
30
0
41
1
10
466.001078702342
20
-20.7951047338594
30
0
41
1
10
466.001414261289
20
-20.8375929056057
30
0
41
1
10
466.001795807669
20
-20.8801552530666
30
0
41
1
10
466.002223628435
20
-20.9227874323819
30
0
41
1
10
466.002698004636
20
-20.9654850736398
30
0
41
1
10
466.003219213878
20
-21.0082437707539
30
0
41
1
10
466.003787529537
20
-21.0510590841382
30
0
41
1
10
466.004403220845
20
-21.0939265399215
30
0
41
1
10
466.005066552745
20
-21.1368416300992
30
0
41
1
10
466.005777785801
20
-21.1797998124321
30
0
41
1
10
466.006537176099
20
-21.2227965104154
30
0
41
1
10
466.007344975144
20
-21.2658271132293
30
0
41
1
10
466.008201429762
20
-21.3088869756956
30
0
41
1
10
466.009106781998
20
-21.3519714182341
30
0
41
1
10
466.010061269015
20
-21.3950757268197
30
0
41
1
10
466.011065122992
20
-21.4381951529401
30
0
41
1
10
466.012118571026
20
-21.4813249135549
30
0
41
1
10
466.01322183502
20
-21.5244601910542
30
0
41
1
10
466.014375131592
20
-21.5675961332194
30
0
41
1
10
466.015578671963
20
-21.6107278531833
30
0
41
1
10
466.016832661859
20
-21.6538504293916
30
0
41
1
10
466.018137301405
20
-21.6969589055645
30
0
41
1
10
466.019492785024
20
-21.7400482906598
30
0
41
1
10
466.020899301328
20
-21.783113558835
30
0
41
1
10
466.022357033019
20
-21.8261496494119
30
0
41
1
10
466.023866156782
20
-21.8691514668398
30
0
41
1
10
466.025426843181
20
-21.9121138806605
30
0
41
1
10
466.027039256557
20
-21.9550317254732
30
0
41
1
10
466.028703554916
20
-21.9978998009001
30
0
41
1
10
466.030419889834
20
-22.040712871552
30
0
41
1
10
466.032188406346
20
-22.0834656669951
30
0
41
1
10
466.03400924284
20
-22.1261528817175
30
0
41
1
10
466.035882530958
20
-22.1687691750949
30
0
41
1
10
466.037808395485
20
-22.2113091713643
30
0
41
1
10
466.039786954251
20
-22.2537674595678
30
0
41
1
10
466.041818318013
20
-22.2961385936104
30
0
41
1
10
466.043902590391
20
-22.3384170918907
30
0
41
1
10
466.046039867616
20
-22.38059743854
30
0
41
1
10
466.048230238977
20
-22.4226740786125
30
0
41
1
10
466.050473784646
20
-22.4646414360242
30
0
41
1
10
466.05277058337
20
-22.5064938459506
30
0
41
1
10
466.055120683035
20
-22.5482258088782
30
0
41
1
10
466.057524210866
20
-22.5898310352178
30
0
41
1
10
466.059980958594
20
-22.6313060373029
30
0
41
1
10
466.062491941624
20
-22.6726366242808
30
0
41
1
10
466.065053536719
20
-22.7138486756626
30
0
41
1
10
466.066799953872
20
-22.7410949357813
30
0
41
1
10
466.067675282232
20
-22.7547511370589
30
0
0
SPLINE
5
1CE
100
AcDbEntity
8
1
62
256
6
ByLayer
370
18
48
1
60
0
100
AcDbSpline
70
4
71
3
72
76
73
72
40
0
40
0
40
0
40
0
40
0.0072444893880527
40
0.014408426400839
40
0.0214918110372645
40
0.0284946432962834
40
0.0354169231769021
40
0.0422586506781787
40
0.0490198257992236
40
0.0557004485391985
40
0.0623005188973221
40
0.068820036872874
40
0.0752590024651899
40
0.081617415673668
40
0.0878952764977724
40
0.0940925849370269
40
0.100209340991028
40
0.106245544659443
40
0.112201195942011
40
0.118076294838545
40
0.123870841348938
40
0.129584835473173
40
0.135218277211302
40
0.140771166563486
40
0.146243503529963
40
0.151635288111079
40
0.156946520307282
40
0.162177200119121
40
0.167327327547265
40
0.172396902592498
40
0.17738592525573
40
0.182294395538001
40
0.187122313440494
40
0.191869678964537
40
0.196536492111614
40
0.201122752883374
40
0.205628461281644
40
0.210053617308433
40
0.214398220965957
40
0.218662272256638
40
0.222845771183127
40
0.226948717748321
40
0.230971111955378
40
0.234912953807733
40
0.238774243309131
40
0.242554980463638
40
0.246255165275673
40
0.249874797750042
40
0.318965070309348
40
0.383667777513488
40
0.443982903997756
40
0.499910446143919
40
0.568074394463956
40
0.632426645265802
40
0.69296732735975
40
0.74969660545251
40
0.76862324549681
40
0.787229859014659
40
0.805516458136585
40
0.82348305564679
40
0.841129665030464
40
0.858456300525427
40
0.875462977178632
40
0.89214971090809
40
0.908516518570827
40
0.924563418037611
40
0.940290428275267
40
0.955697569437523
40
0.970784862965479
40
0.985552331698933
40
1
40
1
40
1
40
1
41
1
10
466
20
-25
30
0
41
1
10
465.999287357861
20
-24.9999794739588
30
0
41
1
10
465.997869997538
20
-24.999938650108
30
0
41
1
10
465.995754893828
20
-24.9996112372637
30
0
41
1
10
465.993662862955
20
-24.9990971454827
30
0
41
1
10
465.99159383902
20
-24.9983843432537
30
0
41
1
10
465.989547839387
20
-24.997484725007
30
0
41
1
10
465.987524859489
20
-24.9964037842353
30
0
41
1
10
465.985524900532
20
-24.995148601378
30
0
41
1
10
465.983547962203
20
-24.9937257400341
30
0
41
1
10
465.981594044591
20
-24.992141800692
30
0
41
1
10
465.979663147678
20
-24.9904032747912
30
0
41
1
10
465.977755271475
20
-24.9885165829667
30
0
41
1
10
465.975870415984
20
-24.9864880648318
30
0
41
1
10
465.974008581213
20
-24.9843239815215
30
0
41
1
10
465.972169767165
20
-24.9820305148895
30
0
41
1
10
465.970353973847
20
-24.9796137675939
30
0
41
1
10
465.968561201265
20
-24.9770797629579
30
0
41
1
10
465.966791449425
20
-24.9744344448996
30
0
41
1
10
465.965044718335
20
-24.9716836778507
30
0
41
1
10
465.963321008001
20
-24.968833246687
30
0
41
1
10
465.96162031843
20
-24.9658888566638
30
0
41
1
10
465.959942649632
20
-24.9628561333569
30
0
41
1
10
465.958288001615
20
-24.9597406226101
30
0
41
1
10
465.956656374386
20
-24.9565477904879
30
0
41
1
10
465.955047767957
20
-24.9532830232338
30
0
41
1
10
465.953462182337
20
-24.9499516272329
30
0
41
1
10
465.951899617536
20
-24.9465588289808
30
0
41
1
10
465.950360073567
20
-24.9431097750561
30
0
41
1
10
465.948843550441
20
-24.9396095320982
30
0
41
1
10
465.947350048172
20
-24.9360630867888
30
0
41
1
10
465.945879566772
20
-24.9324753458384
30
0
41
1
10
465.944432106258
20
-24.9288511359758
30
0
41
1
10
465.943007666644
20
-24.9251952039427
30
0
41
1
10
465.941606247948
20
-24.9215122164904
30
0
41
1
10
465.940227850187
20
-24.9178067603813
30
0
41
1
10
465.938872473381
20
-24.914083342393
30
0
41
1
10
465.93754011755
20
-24.9103463893255
30
0
41
1
10
465.936230782718
20
-24.9066002480117
30
0
41
1
10
465.934944468904
20
-24.9028491853307
30
0
41
1
10
465.933681176151
20
-24.8990973882218
30
0
41
1
10
465.932440904424
20
-24.8953489637098
30
0
41
1
10
465.931223653982
20
-24.8916079388989
30
0
41
1
10
465.930029424031
20
-24.8878782610919
30
0
41
1
10
465.928858217593
20
-24.8841637974663
30
0
41
1
10
465.92771002391
20
-24.8804683363599
30
0
41
1
10
465.926584882044
20
-24.8767955827489
30
0
41
1
10
465.918828886027
20
-24.8511371429987
30
0
41
1
10
465.904734962618
20
-24.7982517395485
30
0
41
1
10
465.884381030389
20
-24.7060876895951
30
0
41
1
10
465.864930035747
20
-24.605022048775
30
0
41
1
10
465.844542995992
20
-24.4877282437395
30
0
41
1
10
465.822943471159
20
-24.3523383504698
30
0
41
1
10
465.799837999124
20
-24.1967550872167
30
0
41
1
10
465.777063240399
20
-24.0355213773928
30
0
41
1
10
465.759103397088
20
-23.9042187024564
30
0
41
1
10
465.746191895118
20
-23.8087396375966
30
0
41
1
10
465.738396635818
20
-23.7508494164027
30
0
41
1
10
465.730583649033
20
-23.6926544296009
30
0
41
1
10
465.722752894531
20
-23.6342256056735
30
0
41
1
10
465.714904385917
20
-23.5756325130506
30
0
41
1
10
465.707038123748
20
-23.5169432510698
30
0
41
1
10
465.699154109468
20
-23.4582244691023
30
0
41
1
10
465.691252354676
20
-23.3995414161011
30
0
41
1
10
465.683332832009
20
-23.3409577543359
30
0
41
1
10
465.675395657366
20
-23.2825362642794
30
0
41
1
10
465.667440428802
20
-23.2243363144379
30
0
41
1
10
465.659468620595
20
-23.1664230505041
30
0
41
1
10
465.651474920531
20
-23.1088341747647
30
0
41
1
10
465.643478555297
20
-23.0517001068777
30
0
41
1
10
465.638040050738
20
-23.0133535003443
30
0
41
1
10
465.635350564468
20
-22.9943900756302
30
0
0
SPLINE
5
1CF
100
AcDbEntity
8
1
62
256
6
ByLayer
370
18
48
1
60
0
100
AcDbSpline
70
4
71
3
72
50
73
46
40
0
40
0
40
0
40
0
40
0.0180629118965067
40
0.0360668607232199
40
0.054011856540822
40
0.0718979095094775
40
0.0897250298901567
40
0.107493228045908
40
0.125202514443243
40
0.142852899653485
40
0.160444394354135
40
0.177977009330308
40
0.195450755476141
40
0.212865643796258
40
0.230221685407255
40
0.247518891539182
40
0.264757273537082
40
0.281936842862551
40
0.299057611095304
40
0.316119589934785
40
0.333122791201788
40
0.350067226840147
40
0.36695290891839
40
0.383779849631464
40
0.400548061302495
40
0.417257556384549
40
0.433908347462431
40
0.45050044725454
40
0.467033868614725
40
0.483508624534181
40
0.499924728143394
40
0.537381524700107
40
0.57457036896205
40
0.611491425614791
40
0.648144862954028
40
0.684530852989497
40
0.720649571552562
40
0.756501198407586
40
0.792085917367365
40
0.827403916412649
40
0.862455387816026
40
0.897240528270314
40
0.931759539021669
40
0.966012626007573
40
1
40
1
40
1
40
1
41
1
10
465.635350564463
20
-22.9943900756303
30
0
41
1
10
465.633876334265
20
-22.983968072844
30
0
41
1
10
465.630932686225
20
-22.9631580879918
30
0
41
1
10
465.626599165492
20
-22.9316993235011
30
0
41
1
10
465.622334889061
20
-22.9001296584639
30
0
41
1
10
465.618145170024
20
-22.8684304909776
30
0
41
1
10
465.61402859173
20
-22.8366099891185
30
0
41
1
10
465.609985531891
20
-22.8046691691695
30
0
41
1
10
465.606015889794
20
-22.7726109401741
30
0
41
1
10
465.602119692283
20
-22.7404376923866
30
0
41
1
10
465.598296932193
20
-22.7081519402161
30
0
41
1
10
465.594547611428
20
-22.6757561507765
30
0
41
1
10
465.590871729471
20
-22.6432527895705
30
0
41
1
10
465.587269286454
20
-22.610644308284
30
0
41
1
10
465.583740282333
20
-22.5779331480151
30
0
41
1
10
465.580284717112
20
-22.5451217383896
30
0
41
1
10
465.576902590782
20
-22.5122124977747
30
0
41
1
10
465.573593903338
20
-22.4792078332005
30
0
41
1
10
465.570358654773
20
-22.4461101403612
30
0
41
1
10
465.56719684508
20
-22.4129218035959
30
0
41
1
10
465.564108474253
20
-22.379645195876
30
0
41
1
10
465.561093542285
20
-22.346282678792
30
0
41
1
10
465.558152049171
20
-22.3128366025425
30
0
41
1
10
465.555283994897
20
-22.2793093059196
30
0
41
1
10
465.552489379485
20
-22.2457031163111
30
0
41
1
10
465.549768202817
20
-22.2120203496469
30
0
41
1
10
465.547120465303
20
-22.1782633105528
30
0
41
1
10
465.544546165384
20
-22.1444342917429
30
0
41
1
10
465.542045308814
20
-22.1105355762384
30
0
41
1
10
465.539617874203
20
-22.0765694291007
30
0
41
1
10
465.536255451372
20
-22.0279581859111
30
0
41
1
10
465.53210060817
20
-21.9644703084691
30
0
41
1
10
465.527352391721
20
-21.8857346961015
30
0
41
1
10
465.522983221403
20
-21.8066312207922
30
0
41
1
10
465.518993052103
20
-21.7271832247243
30
0
41
1
10
465.515381894437
20
-21.6474137682475
30
0
41
1
10
465.512149748714
20
-21.5673456620877
30
0
41
1
10
465.509296601456
20
-21.4870014998185
30
0
41
1
10
465.506822503763
20
-21.4064034967654
30
0
41
1
10
465.504727264763
20
-21.3255740947852
30
0
41
1
10
465.503011587399
20
-21.2445337276396
30
0
41
1
10
465.501672876358
20
-21.1633090674559
30
0
41
1
10
465.500720705252
20
-21.0819025993903
30
0
41
1
10
465.500119754042
20
-21.0004048697216
30
0
41
1
10
465.500039814258
20
-20.9456421099134
30
0
41
1
10
465.5
20
-20.9183673469388
30
0
0
SPLINE
5
1D0
100
AcDbEntity
8
1
62
256
6
ByLayer
370
18
48
1
60
0
100
AcDbSpline
70
4
71
3
72
8
73
4
40
0
40
0
40
0
40
0
40
1
40
1
40
1
40
1
41
1
10
465.5
20
-20.9183673469388
30
0
41
1
10
465.666666666667
20
-20.7789115646259
30
0
41
1
10
465.833333333333
20
-20.639455782313
30
0
41
1
10
466
20
-20.5
30
0
0
SPLINE
5
1D1
100
AcDbEntity
8
SK1
62
256
6
ByLayer
370
18
48
1
60
0
100
AcDbSpline
70
4
71
3
72
11
73
7
40
0
40
0
40
0
40
0
40
0.242589954178611
40
0.502544718947534
40
0.761087572808619
40
1
40
1
40
1
40
1
41
1
10
-0.200000000000003
20
17.5545583467655
30
0
41
1
10
-0.200957889270356
20
17.5289140231062
30
0
41
1
10
-0.211248315226229
20
17.4799022728818
30
0
41
1
10
-0.255179720944128
20
17.4139496110851
30
0
41
1
10
-0.321113897423785
20
17.3707504109673
30
0
41
1
10
-0.369683795840189
20
17.3607068368228
30
0
41
1
10
-0.394913799811292
20
17.3597802673791
30
0
0
SPLINE
5
1D2
100
AcDbEntity
8
SK1
62
256
6
ByLayer
370
18
48
1
60
0
100
AcDbSpline
70
4
71
3
72
11
73
7
40
0
40
0
40
0
40
0
40
0.238912427113142
40
0.497455280942537
40
0.757410045745086
40
1
40
1
40
1
40
1
41
1
10
-0.394913799811292
20
-17.3597801301672
30
0
41
1
10
-0.369683795838398
20
-17.3607066995757
30
0
41
1
10
-0.321113897416438
20
-17.3707502735068
30
0
41
1
10
-0.25517972093634
20
-17.4139494728386
30
0
41
1
10
-0.21124831522458
20
-17.4799021334559
30
0
41
1
10
-0.200957889268722
20
-17.5289138828004
30
0
41
1
10
-0.200000000000003
20
-17.5545582060014
30
0
0
SPLINE
5
1D3
100
AcDbEntity
8
SK1
62
256
6
ByLayer
370
18
48
1
60
0
100
AcDbSpline
70
4
71
2
72
6
73
3
40
0
40
0
40
0
40
1
40
1
40
1
41
1
10
-28.5
20
16.8588088260863
30
0
41
1
10
-29.2499999297871
20
16.4259984461422
30
0
41
1
10
-30
20
15.9931873508859
30
0
0
SPLINE
5
1D4
100
AcDbEntity
8
SK1
62
256
6
ByLayer
370
18
48
1
60
0
100
AcDbSpline
70
4
71
2
72
6
73
3
40
0
40
0
40
0
40
1
40
1
40
1
41
1
10
-30
20
-15.9931874249212
30
0
41
1
10
-29.2499999297894
20
-16.425998517687
30
0
41
1
10
-28.5
20
-16.8588088951667
30
0
0
SPLINE
5
1D5
100
AcDbEntity
8
SK1
62
256
6
ByLayer
370
18
48
1
60
0
100
AcDbSpline
70
4
71
2
72
6
73
3
40
0
40
0
40
0
40
1
40
1
40
1
41
1
10
-0.394913799811292
20
17.3602209523781
30
0
41
1
10
-1.19497688886898
20
17.3401342706943
30
0
41
1
10
-1.9950399779393
20
17.3200475850767
30
0
0
SPLINE
5
1D6
100
AcDbEntity
8
SK1
62
256
6
ByLayer
370
18
48
1
60
0
100
AcDbSpline
70
4
71
2
72
6
73
3
40
0
40
0
40
0
40
1
40
1
40
1
41
1
10
-1.9950399779393
20
-17.3200478774323
30
0
41
1
10
-1.19497688886898
20
-17.340134563042
30
0
41
1
10
-0.394913799811292
20
-17.3602212447177
30
0
0
SPLINE
5
1D7
100
AcDbEntity
8
SK1
62
256
6
ByLayer
370
18
48
1
60
0
100
AcDbSpline
70
4
71
3
72
13
73
9
40
0
40
0
40
0
40
0
40
0.239505987673083
40
0.368426538155688
40
0.500072261058321
40
0.631705987654816
40
0.760593443052916
40
1
40
1
40
1
40
1
41
1
10
-1.9950399779393
20
17.3252686883828
30
0
41
1
10
-2.02110925982341
20
17.3248665791032
30
0
41
1
10
-2.05883863809936
20
17.3310361992814
30
0
41
1
10
-2.10627567686484
20
17.3540696096461
30
0
41
1
10
-2.13886243911925
20
17.3792256041407
30
0
41
1
10
-2.16563490776916
20
17.4104933211739
30
0
41
1
10
-2.19103207710596
20
17.4566915621889
30
0
41
1
10
-2.19909121921685
20
17.4940488942773
30
0
41
1
10
-2.2
20
17.5200961072231
30
0
0
SPLINE
5
1D8
100
AcDbEntity
8
SK1
62
256
6
ByLayer
370
18
48
1
60
0
100
AcDbSpline
70
4
71
3
72
13
73
9
40
0
40
0
40
0
40
0
40
0.239406556342956
40
0.368294011542631
40
0.499927738071791
40
0.631573461053609
40
0.76049401174041
40
1
40
1
40
1
40
1
41
1
10
-2.2
20
-17.5200962264206
30
0
41
1
10
-2.19909121920765
20
-17.4940490135991
30
0
41
1
10
-2.19103207709688
20
-17.4566916816953
30
0
41
1
10
-2.16563490775661
20
-17.4104934409328
30
0
41
1
10
-2.13886243910255
20
-17.379225724067
30
0
41
1
10
-2.106275676847
20
-17.3540697297104
30
0
41
1
10
-2.05883863807624
20
-17.3310363194718
30
0
41
1
10
-2.0211092598112
20
-17.3248666993254
30
0
41
1
10
-1.9950399779393
20
-17.3252688086104
30
0
0
SPLINE
5
1D9
100
AcDbEntity
8
SK1
62
256
6
ByLayer
370
18
48
1
60
0
100
AcDbSpline
70
4
71
2
72
6
73
3
40
0
40
0
40
0
40
1
40
1
40
1
41
1
10
-2.2
20
17.5148287077807
30
0
41
1
10
-15.3499999982431
20
17.1846805562453
30
0
41
1
10
-28.5
20
16.8545313165689
30
0
0
SPLINE
5
1DA
100
AcDbEntity
8
SK1
62
256
6
ByLayer
370
18
48
1
60
0
100
AcDbSpline
70
4
71
2
72
6
73
3
40
0
40
0
40
0
40
1
40
1
40
1
41
1
10
-28.5
20
-16.8545316091351
30
0
41
1
10
-15.3499999982428
20
-17.1846808487114
30
0
41
1
10
-2.2
20
-17.5148290000611
30
0
0
LINE
5
9B
100
AcDbEntity
8
4
62
256
6
ByLayer
370
18
48
0.05
60
0
100
AcDbLine
10
464
20
-5
30
0
11
468
21
-5
31
0
39
0
210
0
220
0
230
1
0
LINE
5
9D
100
AcDbEntity
8
81
62
256
6
ByLayer
370
18
48
1
60
0
100
AcDbLine
10
468
20
-5
30
0
11
473
21
-5
31
0
39
0
210
0
220
0
230
1
0
LINE
5
9E
100
AcDbEntity
8
SK4
62
256
6
ByLayer
370
18
48
0.05
60
0
100
AcDbLine
10
4
20
0
30
0
11
464
21
0
31
0
39
0
210
0
220
0
230
1
0
LINE
5
A0
100
AcDbEntity
8
80
62
256
6
ByLayer
370
18
48
1
60
0
100
AcDbLine
10
0
20
0
30
0
11
-5
21
0
31
0
39
0
210
0
220
0
230
1
0
LINE
5
A1
100
AcDbEntity
8
1
62
256
6
ByLayer
370
18
48
1
60
0
100
AcDbLine
10
472.8
20
7.899495
30
0
11
472.8
21
1.899495
31
0
39
0
210
0
220
0
230
1
0
LINE
5
A3
100
AcDbEntity
8
1
62
256
6
ByLayer
370
13
48
1
60
0
100
AcDbLine
10
468.324503
20
2.453995
30
0
11
472.8
21
2.453995
31
0
39
0
210
0
220
0
230
1
0
LINE
5
A4
100
AcDbEntity
8
1
62
256
6
ByLayer
370
13
48
1
60
0
100
AcDbLine
10
468.324503
20
7.344995
30
0
11
472.8
21
7.344995
31
0
39
0
210
0
220
0
230
1
0
LINE
5
A5
100
AcDbEntity
8
1
62
256
6
ByLayer
370
18
48
1
60
0
100
AcDbLine
10
472.8
20
-11.899495
30
0
11
472.8
21
-17.899495
31
0
39
0
210
0
220
0
230
1
0
LINE
5
A6
100
AcDbEntity
8
1
62
256
6
ByLayer
370
13
48
1
60
0
100
AcDbLine
10
468.324503
20
-17.344995
30
0
11
472.8
21
-17.344995
31
0
39
0
210
0
220
0
230
1
0
LINE
5
A7
100
AcDbEntity
8
1
62
256
6
ByLayer
370
13
48
1
60
0
100
AcDbLine
10
468.324503
20
-12.453995
30
0
11
472.8
21
-12.453995
31
0
39
0
210
0
220
0
230
1
0
LINE
5
A8
100
AcDbEntity
8
1
62
256
6
ByLayer
370
13
48
1
60
0
100
AcDbLine
10
11.461325
20
-7.529667
30
0
11
11.461325
21
-23.83913
31
0
39
0
210
0
220
0
230
1
0
LINE
5
A9
100
AcDbEntity
8
1
62
256
6
ByLayer
370
13
48
1
60
0
100
AcDbLine
10
11.894338
20
-8.055848
30
0
11
11.894338
21
-23.666502
31
0
39
0
210
0
220
0
230
1
0
LINE
5
AA
100
AcDbEntity
8
1
62
256
6
ByLayer
370
13
48
1
60
0
100
AcDbLine
10
8.105662
20
23.666502
30
0
11
8.105662
21
8.055848
31
0
39
0
210
0
220
0
230
1
0
LINE
5
AB
100
AcDbEntity
8
1
62
256
6
ByLayer
370
13
48
1
60
0
100
AcDbLine
10
8.538675
20
23.83913
30
0
11
8.538675
21
7.529667
31
0
39
0
210
0
220
0
230
1
0
LINE
5
AC
100
AcDbEntity
8
1
62
256
6
ByLayer
370
13
48
1
60
0
100
AcDbLine
10
11.461325
20
23.83913
30
0
11
11.461325
21
7.529667
31
0
39
0
210
0
220
0
230
1
0
LINE
5
AD
100
AcDbEntity
8
1
62
256
6
ByLayer
370
13
48
1
60
0
100
AcDbLine
10
11.894338
20
23.666502
30
0
11
11.894338
21
8.055848
31
0
39
0
210
0
220
0
230
1
0
LINE
5
AE
100
AcDbEntity
8
1
62
256
6
ByLayer
370
13
48
1
60
0
100
AcDbLine
10
8.105662
20
-8.055848
30
0
11
8.105662
21
-23.666502
31
0
39
0
210
0
220
0
230
1
0
LINE
5
AF
100
AcDbEntity
8
1
62
256
6
ByLayer
370
13
48
1
60
0
100
AcDbLine
10
8.538675
20
-7.529667
30
0
11
8.538675
21
-23.83913
31
0
39
0
210
0
220
0
230
1
0
LINE
5
B0
100
AcDbEntity
8
1
62
256
6
ByLayer
370
18
48
1
60
0
100
AcDbLine
10
11.461325
20
7.529667
30
0
11
8.538675
21
7.529667
31
0
39
0
210
0
220
0
230
1
0
LINE
5
B1
100
AcDbEntity
8
1
62
256
6
ByLayer
370
18
48
1
60
0
100
AcDbLine
10
8.538675
20
23.83913
30
0
11
11.461325
21
23.83913
31
0
39
0
210
0
220
0
230
1
0
LINE
5
B2
100
AcDbEntity
8
1
62
256
6
ByLayer
370
18
48
1
60
0
100
AcDbLine
10
8.538675
20
-7.529667
30
0
11
11.461325
21
-7.529667
31
0
39
0
210
0
220
0
230
1
0
LINE
5
B3
100
AcDbEntity
8
1
62
256
6
ByLayer
370
18
48
1
60
0
100
AcDbLine
10
11.461325
20
-23.83913
30
0
11
8.538675
21
-23.83913
31
0
39
0
210
0
220
0
230
1
0
LINE
5
B4
100
AcDbEntity
8
1
62
256
6
ByLayer
370
13
48
1
60
0
100
AcDbLine
10
463.8
20
25
30
0
11
463.8
21
-25
31
0
39
0
210
0
220
0
230
1
0
LINE
5
B5
100
AcDbEntity
8
1
62
256
6
ByLayer
370
18
48
1
60
0
100
AcDbLine
10
464
20
24.8
30
0
11
464
21
-24.8
31
0
39
0
210
0
220
0
230
1
0
LINE
5
B6
100
AcDbEntity
8
1
62
256
6
ByLayer
370
18
48
1
60
0
100
AcDbLine
10
0.3
20
-25
30
0
11
0.3
21
25
31
0
39
0
210
0
220
0
230
1
0
LINE
5
B7
100
AcDbEntity
8
1
62
256
6
ByLayer
370
18
48
1
60
0
100
AcDbLine
10
0
20
-24.7
30
0
11
0
21
24.7
31
0
39
0
210
0
220
0
230
1
0
LINE
5
B8
100
AcDbEntity
8
SK1
62
256
6
ByLayer
370
18
48
1
60
0
100
AcDbLine
10
-0.2
20
-6.078431
30
0
11
-0.2
21
-17.833485
31
0
39
0
210
0
220
0
230
1
0
LINE
5
BA
100
AcDbEntity
8
SK1
62
256
6
ByLayer
370
18
48
1
60
0
100
AcDbLine
10
-0.2
20
17.833485
30
0
11
-0.2
21
6.078432
31
0
39
0
210
0
220
0
230
1
0
LINE
5
BB
100
AcDbEntity
8
SK1
62
256
6
ByLayer
370
13
48
1
60
0
100
AcDbLine
10
-1.307107
20
3.918083
30
0
11
-1.307107
21
-3.918083
31
0
39
0
210
0
220
0
230
1
0
LINE
5
BC
100
AcDbEntity
8
SK1
62
256
6
ByLayer
370
18
48
1
60
0
100
AcDbLine
10
-1.99504
20
17.325269
30
0
11
-1.99504
21
17.320045
31
0
39
0
210
0
220
0
230
1
0
LINE
5
BD
100
AcDbEntity
8
SK1
62
256
6
ByLayer
370
18
48
1
60
0
100
AcDbLine
10
-1.99504
20
-17.320045
30
0
11
-1.99504
21
-17.325269
31
0
39
0
210
0
220
0
230
1
0
LINE
5
BE
100
AcDbEntity
8
1
62
256
6
ByLayer
370
18
48
1
60
0
100
AcDbLine
10
468.32476
20
13.887542
30
0
11
468.32476
21
13.976857
31
0
39
0
210
0
220
0
230
1
0
LINE
5
BF
100
AcDbEntity
8
1
62
256
6
ByLayer
370
18
48
1
60
0
100
AcDbLine
10
468.32476
20
-23.976857
30
0
11
468.32476
21
-23.887542
31
0
39
0
210
0
220
0
230
1
0
LINE
5
C0
100
AcDbEntity
8
1
62
256
6
ByLayer
370
13
48
1
60
0
100
AcDbLine
10
467.650481
20
14.602807
30
0
11
467.650481
21
14.629489
31
0
39
0
210
0
220
0
230
1
0
LINE
5
C1
100
AcDbEntity
8
1
62
256
6
ByLayer
370
13
48
1
60
0
100
AcDbLine
10
467.650481
20
-24.629489
30
0
11
467.650481
21
-24.602807
31
0
39
0
210
0
220
0
230
1
0
LINE
5
C2
100
AcDbEntity
8
1
62
256
6
ByLayer
370
18
48
1
60
0
100
AcDbLine
10
468.32476
20
-23.842999
30
0
11
468.32476
21
-23.662842
31
0
39
0
210
0
220
0
230
1
0
LINE
5
C3
100
AcDbEntity
8
1
62
256
6
ByLayer
370
18
48
1
60
0
100
AcDbLine
10
468.32476
20
13.662842
30
0
11
468.32476
21
13.842999
31
0
39
0
210
0
220
0
230
1
0
LINE
5
C4
100
AcDbEntity
8
1
62
256
6
ByLayer
370
13
48
1
60
0
100
AcDbLine
10
467.650481
20
14.416627
30
0
11
467.650481
21
14.470143
31
0
39
0
210
0
220
0
230
1
0
LINE
5
C5
100
AcDbEntity
8
1
62
256
6
ByLayer
370
13
48
1
60
0
100
AcDbLine
10
467.650481
20
-24.470143
30
0
11
467.650481
21
-24.416627
31
0
39
0
210
0
220
0
230
1
0
LINE
5
C6
100
AcDbEntity
8
1
62
256
6
ByLayer
370
18
48
1
60
0
100
AcDbLine
10
468.32476
20
-23.587525
30
0
11
468.32476
21
-23.31313
31
0
39
0
210
0
220
0
230
1
0
LINE
5
C7
100
AcDbEntity
8
1
62
256
6
ByLayer
370
18
48
1
60
0
100
AcDbLine
10
468.32476
20
13.31313
30
0
11
468.32476
21
13.587525
31
0
39
0
210
0
220
0
230
1
0
LINE
5
C8
100
AcDbEntity
8
1
62
256
6
ByLayer
370
13
48
1
60
0
100
AcDbLine
10
467.650481
20
-24.192605
30
0
11
467.650481
21
-24.111162
31
0
39
0
210
0
220
0
230
1
0
LINE
5
C9
100
AcDbEntity
8
1
62
256
6
ByLayer
370
13
48
1
60
0
100
AcDbLine
10
467.650481
20
14.111162
30
0
11
467.650481
21
14.192605
31
0
39
0
210
0
220
0
230
1
0
LINE
5
CA
100
AcDbEntity
8
1
62
256
6
ByLayer
370
18
48
1
60
0
100
AcDbLine
10
468.32476
20
-23.205318
30
0
11
468.32476
21
-22.830489
31
0
39
0
210
0
220
0
230
1
0
LINE
5
CB
100
AcDbEntity
8
1
62
256
6
ByLayer
370
18
48
1
60
0
100
AcDbLine
10
468.32476
20
12.830489
30
0
11
468.32476
21
13.205318
31
0
39
0
210
0
220
0
230
1
0
LINE
5
CC
100
AcDbEntity
8
1
62
256
6
ByLayer
370
13
48
1
60
0
100
AcDbLine
10
467.650481
20
-23.791639
30
0
11
467.650481
21
-23.680651
31
0
39
0
210
0
220
0
230
1
0
LINE
5
CD
100
AcDbEntity
8
1
62
256
6
ByLayer
370
13
48
1
60
0
100
AcDbLine
10
467.650481
20
13.680651
30
0
11
467.650481
21
13.791639
31
0
39
0
210
0
220
0
230
1
0
LINE
5
CE
100
AcDbEntity
8
1
62
256
6
ByLayer
370
18
48
1
60
0
100
AcDbLine
10
468.32476
20
12.204449
30
0
11
468.32476
21
12.688163
31
0
39
0
210
0
220
0
230
1
0
LINE
5
CF
100
AcDbEntity
8
1
62
256
6
ByLayer
370
18
48
1
60
0
100
AcDbLine
10
468.32476
20
-22.688163
30
0
11
468.32476
21
-22.204449
31
0
39
0
210
0
220
0
230
1
0
LINE
5
D0
100
AcDbEntity
8
1
62
256
6
ByLayer
370
13
48
1
60
0
100
AcDbLine
10
467.650481
20
13.116188
30
0
11
467.650481
21
13.259116
31
0
39
0
210
0
220
0
230
1
0
LINE
5
D1
100
AcDbEntity
8
1
62
256
6
ByLayer
370
13
48
1
60
0
100
AcDbLine
10
467.650481
20
-23.259116
30
0
11
467.650481
21
-23.116188
31
0
39
0
210
0
220
0
230
1
0
LINE
5
D2
100
AcDbEntity
8
1
62
256
6
ByLayer
370
18
48
1
60
0
100
AcDbLine
10
468.32476
20
11.418191
30
0
11
468.32476
21
12.023766
31
0
39
0
210
0
220
0
230
1
0
LINE
5
D3
100
AcDbEntity
8
1
62
256
6
ByLayer
370
18
48
1
60
0
100
AcDbLine
10
468.32476
20
-22.023766
30
0
11
468.32476
21
-21.418191
31
0
39
0
210
0
220
0
230
1
0
LINE
5
D4
100
AcDbEntity
8
1
62
256
6
ByLayer
370
13
48
1
60
0
100
AcDbLine
10
467.650481
20
12.404844
30
0
11
467.650481
21
12.583086
31
0
39
0
210
0
220
0
230
1
0
LINE
5
D5
100
AcDbEntity
8
1
62
256
6
ByLayer
370
13
48
1
60
0
100
AcDbLine
10
467.650481
20
-22.583086
30
0
11
467.650481
21
-22.404844
31
0
39
0
210
0
220
0
230
1
0
LINE
5
D6
100
AcDbEntity
8
1
62
256
6
ByLayer
370
18
48
1
60
0
100
AcDbLine
10
468.32476
20
-21.194014
30
0
11
468.32476
21
-20.447336
31
0
39
0
210
0
220
0
230
1
0
LINE
5
D7
100
AcDbEntity
8
1
62
256
6
ByLayer
370
18
48
1
60
0
100
AcDbLine
10
468.32476
20
10.447336
30
0
11
468.32476
21
11.194014
31
0
39
0
210
0
220
0
230
1
0
LINE
5
D8
100
AcDbEntity
8
1
62
256
6
ByLayer
370
13
48
1
60
0
100
AcDbLine
10
467.650481
20
-21.74618
30
0
11
467.650481
21
-21.527523
31
0
39
0
210
0
220
0
230
1
0
LINE
5
D9
100
AcDbEntity
8
1
62
256
6
ByLayer
370
13
48
1
60
0
100
AcDbLine
10
467.650481
20
11.527523
30
0
11
467.650481
21
11.74618
31
0
39
0
210
0
220
0
230
1
0
LINE
5
DA
100
AcDbEntity
8
1
62
256
6
ByLayer
370
18
48
1
60
0
100
AcDbLine
10
468.32476
20
-20.171803
30
0
11
468.32476
21
-19.254246
31
0
39
0
210
0
220
0
230
1
0
LINE
5
DB
100
AcDbEntity
8
1
62
256
6
ByLayer
370
18
48
1
60
0
100
AcDbLine
10
468.32476
20
9.254246
30
0
11
468.32476
21
10.171803
31
0
39
0
210
0
220
0
230
1
0
LINE
5
DC
100
AcDbEntity
8
1
62
256
6
ByLayer
370
13
48
1
60
0
100
AcDbLine
10
467.650481
20
10.456027
30
0
11
467.650481
21
10.722727
31
0
39
0
210
0
220
0
230
1
0
LINE
5
DD
100
AcDbEntity
8
1
62
256
6
ByLayer
370
13
48
1
60
0
100
AcDbLine
10
467.650481
20
-20.722727
30
0
11
467.650481
21
-20.456027
31
0
39
0
210
0
220
0
230
1
0
LINE
5
DE
100
AcDbEntity
8
1
62
256
6
ByLayer
370
18
48
1
60
0
100
AcDbLine
10
468.32476
20
7.776776
30
0
11
468.32476
21
8.91478
31
0
39
0
210
0
220
0
230
1
0
LINE
5
DF
100
AcDbEntity
8
1
62
256
6
ByLayer
370
18
48
1
60
0
100
AcDbLine
10
468.32476
20
-18.91478
30
0
11
468.32476
21
-17.776776
31
0
39
0
210
0
220
0
230
1
0
LINE
5
E0
100
AcDbEntity
8
1
62
256
6
ByLayer
370
13
48
1
60
0
100
AcDbLine
10
467.650481
20
-19.473209
30
0
11
467.650481
21
-19.146205
31
0
39
0
210
0
220
0
230
1
0
LINE
5
E1
100
AcDbEntity
8
1
62
256
6
ByLayer
370
13
48
1
60
0
100
AcDbLine
10
467.650481
20
9.146205
30
0
11
467.650481
21
9.473209
31
0
39
0
210
0
220
0
230
1
0
LINE
5
E2
100
AcDbEntity
8
1
62
256
6
ByLayer
370
18
48
1
60
0
100
AcDbLine
10
468.32476
20
-17.351461
30
0
11
468.32476
21
-15.899779
31
0
39
0
210
0
220
0
230
1
0
LINE
5
E3
100
AcDbEntity
8
1
62
256
6
ByLayer
370
18
48
1
60
0
100
AcDbLine
10
468.32476
20
5.899779
30
0
11
468.32476
21
7.351461
31
0
39
0
210
0
220
0
230
1
0
LINE
5
E4
100
AcDbEntity
8
1
62
256
6
ByLayer
370
13
48
1
60
0
100
AcDbLine
10
467.650481
20
-17.932262
30
0
11
467.650481
21
-17.523683
31
0
39
0
210
0
220
0
230
1
0
LINE
5
E5
100
AcDbEntity
8
1
62
256
6
ByLayer
370
13
48
1
60
0
100
AcDbLine
10
467.650481
20
7.523683
30
0
11
467.650481
21
7.932262
31
0
39
0
210
0
220
0
230
1
0
LINE
5
E6
100
AcDbEntity
8
1
62
256
6
ByLayer
370
18
48
1
60
0
100
AcDbLine
10
468.32476
20
-15.343892
30
0
11
468.32476
21
-13.358834
31
0
39
0
210
0
220
0
230
1
0
LINE
5
E7
100
AcDbEntity
8
1
62
256
6
ByLayer
370
18
48
1
60
0
100
AcDbLine
10
468.32476
20
3.358834
30
0
11
468.32476
21
5.343892
31
0
39
0
210
0
220
0
230
1
0
LINE
5
E8
100
AcDbEntity
8
1
62
256
6
ByLayer
370
13
48
1
60
0
100
AcDbLine
10
467.650481
20
-15.977842
30
0
11
467.650481
21
-15.444044
31
0
39
0
210
0
220
0
230
1
0
LINE
5
E9
100
AcDbEntity
8
1
62
256
6
ByLayer
370
13
48
1
60
0
100
AcDbLine
10
467.650481
20
5.444044
30
0
11
467.650481
21
5.977842
31
0
39
0
210
0
220
0
230
1
0
LINE
5
EA
100
AcDbEntity
8
1
62
256
6
ByLayer
370
18
48
1
60
0
100
AcDbLine
10
468.32476
20
-12.545435
30
0
11
468.32476
21
-9.053785
31
0
39
0
210
0
220
0
230
1
0
LINE
5
EB
100
AcDbEntity
8
1
62
256
6
ByLayer
370
18
48
1
60
0
100
AcDbLine
10
468.32476
20
-0.946215
30
0
11
468.32476
21
2.545435
31
0
39
0
210
0
220
0
230
1
0
LINE
5
EC
100
AcDbEntity
8
1
62
256
6
ByLayer
370
13
48
1
60
0
100
AcDbLine
10
467.650481
20
-13.323618
30
0
11
467.650481
21
-12.537296
31
0
39
0
210
0
220
0
230
1
0
LINE
5
ED
100
AcDbEntity
8
1
62
256
6
ByLayer
370
13
48
1
60
0
100
AcDbLine
10
467.650481
20
2.537296
30
0
11
467.650481
21
3.323618
31
0
39
0
210
0
220
0
230
1
0
LINE
5
EE
100
AcDbEntity
8
1
62
256
6
ByLayer
370
18
48
1
60
0
100
AcDbLine
10
468.32476
20
-6.539836
30
0
11
468.32476
21
-3.460164
31
0
39
0
210
0
220
0
230
1
0
LINE
5
EF
100
AcDbEntity
8
1
62
256
6
ByLayer
370
13
48
1
60
0
100
AcDbLine
10
467.650481
20
-8.681336
30
0
11
467.650481
21
-5.209491
31
0
39
0
210
0
220
0
230
1
0
LINE
5
F0
100
AcDbEntity
8
1
62
256
6
ByLayer
370
13
48
1
60
0
100
AcDbLine
10
467.650481
20
-4.790509
30
0
11
467.650481
21
-1.318664
31
0
39
0
210
0
220
0
230
1
0
LINE
5
F1
100
AcDbEntity
8
1
62
256
6
ByLayer
370
18
48
1
60
0
100
AcDbLine
10
467.32476
20
15
30
0
11
467.32476
21
-25
31
0
39
0
210
0
220
0
230
1
0
LINE
5
F2
100
AcDbEntity
8
1
62
256
6
ByLayer
370
18
48
1
60
0
100
AcDbLine
10
468.32476
20
-23.842999
30
0
11
468.32476
21
-23.887723
31
0
39
0
210
0
220
0
230
1
0
LINE
5
F3
100
AcDbEntity
8
1
62
256
6
ByLayer
370
18
48
1
60
0
100
AcDbLine
10
468.32476
20
-23.587525
30
0
11
468.32476
21
-23.663027
31
0
39
0
210
0
220
0
230
1
0
LINE
5
F4
100
AcDbEntity
8
1
62
256
6
ByLayer
370
18
48
1
60
0
100
AcDbLine
10
468.32476
20
-23.205318
30
0
11
468.32476
21
-23.31314
31
0
39
0
210
0
220
0
230
1
0
LINE
5
F5
100
AcDbEntity
8
1
62
256
6
ByLayer
370
18
48
1
60
0
100
AcDbLine
10
468.32476
20
-22.688163
30
0
11
468.32476
21
-22.830692
31
0
39
0
210
0
220
0
230
1
0
LINE
5
F6
100
AcDbEntity
8
1
62
256
6
ByLayer
370
18
48
1
60
0
100
AcDbLine
10
468.32476
20
-22.023766
30
0
11
468.32476
21
-22.204537
31
0
39
0
210
0
220
0
230
1
0
LINE
5
F7
100
AcDbEntity
8
1
62
256
6
ByLayer
370
18
48
1
60
0
100
AcDbLine
10
468.32476
20
-21.194014
30
0
11
468.32476
21
-21.41824
31
0
39
0
210
0
220
0
230
1
0
LINE
5
F8
100
AcDbEntity
8
1
62
256
6
ByLayer
370
18
48
1
60
0
100
AcDbLine
10
468.32476
20
-20.171803
30
0
11
468.32476
21
-20.447365
31
0
39
0
210
0
220
0
230
1
0
LINE
5
F9
100
AcDbEntity
8
1
62
256
6
ByLayer
370
18
48
1
60
0
100
AcDbLine
10
468.32476
20
-18.91478
30
0
11
468.32476
21
-19.254248
31
0
39
0
210
0
220
0
230
1
0
LINE
5
FA
100
AcDbEntity
8
1
62
256
6
ByLayer
370
18
48
1
60
0
100
AcDbLine
10
468.32476
20
-17.351461
30
0
11
468.32476
21
-17.776779
31
0
39
0
210
0
220
0
230
1
0
LINE
5
FB
100
AcDbEntity
8
1
62
256
6
ByLayer
370
18
48
1
60
0
100
AcDbLine
10
468.32476
20
-15.343892
30
0
11
468.32476
21
-15.899935
31
0
39
0
210
0
220
0
230
1
0
LINE
5
FC
100
AcDbEntity
8
1
62
256
6
ByLayer
370
18
48
1
60
0
100
AcDbLine
10
468.32476
20
-12.545435
30
0
11
468.32476
21
-13.358893
31
0
39
0
210
0
220
0
230
1
0
LINE
5
FD
100
AcDbEntity
8
1
62
256
6
ByLayer
370
18
48
1
60
0
100
AcDbLine
10
468.32476
20
-6.539836
30
0
11
468.32476
21
-9.053837
31
0
39
0
210
0
220
0
230
1
0
LINE
5
FE
100
AcDbEntity
8
1
62
256
6
ByLayer
370
18
48
1
60
0
100
AcDbLine
10
468.32476
20
-0.946163
30
0
11
468.32476
21
-3.460164
31
0
39
0
210
0
220
0
230
1
0
LINE
5
FF
100
AcDbEntity
8
1
62
256
6
ByLayer
370
18
48
1
60
0
100
AcDbLine
10
468.32476
20
3.358893
30
0
11
468.32476
21
2.545435
31
0
39
0
210
0
220
0
230
1
0
LINE
5
100
100
AcDbEntity
8
1
62
256
6
ByLayer
370
18
48
1
60
0
100
AcDbLine
10
468.32476
20
5.899935
30
0
11
468.32476
21
5.343892
31
0
39
0
210
0
220
0
230
1
0
LINE
5
101
100
AcDbEntity
8
1
62
256
6
ByLayer
370
18
48
1
60
0
100
AcDbLine
10
468.32476
20
7.776779
30
0
11
468.32476
21
7.351461
31
0
39
0
210
0
220
0
230
1
0
LINE
5
102
100
AcDbEntity
8
1
62
256
6
ByLayer
370
18
48
1
60
0
100
AcDbLine
10
468.32476
20
9.254248
30
0
11
468.32476
21
8.91478
31
0
39
0
210
0
220
0
230
1
0
LINE
5
103
100
AcDbEntity
8
1
62
256
6
ByLayer
370
18
48
1
60
0
100
AcDbLine
10
468.32476
20
10.447365
30
0
11
468.32476
21
10.171803
31
0
39
0
210
0
220
0
230
1
0
LINE
5
104
100
AcDbEntity
8
1
62
256
6
ByLayer
370
18
48
1
60
0
100
AcDbLine
10
468.32476
20
11.41824
30
0
11
468.32476
21
11.194014
31
0
39
0
210
0
220
0
230
1
0
LINE
5
105
100
AcDbEntity
8
1
62
256
6
ByLayer
370
18
48
1
60
0
100
AcDbLine
10
468.32476
20
12.204537
30
0
11
468.32476
21
12.023766
31
0
39
0
210
0
220
0
230
1
0
LINE
5
106
100
AcDbEntity
8
1
62
256
6
ByLayer
370
18
48
1
60
0
100
AcDbLine
10
468.32476
20
12.830692
30
0
11
468.32476
21
12.688163
31
0
39
0
210
0
220
0
230
1
0
LINE
5
107
100
AcDbEntity
8
1
62
256
6
ByLayer
370
18
48
1
60
0
100
AcDbLine
10
468.32476
20
13.31314
30
0
11
468.32476
21
13.205318
31
0
39
0
210
0
220
0
230
1
0
LINE
5
108
100
AcDbEntity
8
1
62
256
6
ByLayer
370
18
48
1
60
0
100
AcDbLine
10
468.32476
20
13.663027
30
0
11
468.32476
21
13.587525
31
0
39
0
210
0
220
0
230
1
0
LINE
5
109
100
AcDbEntity
8
1
62
256
6
ByLayer
370
18
48
1
60
0
100
AcDbLine
10
468.32476
20
13.887723
30
0
11
468.32476
21
13.842999
31
0
39
0
210
0
220
0
230
1
0
LINE
5
10A
100
AcDbEntity
8
1
62
256
6
ByLayer
370
18
48
1
60
0
100
AcDbLine
10
468.32476
20
13.991672
30
0
11
468.32476
21
13.976857
31
0
39
0
210
0
220
0
230
1
0
LINE
5
10B
100
AcDbEntity
8
1
62
256
6
ByLayer
370
18
48
1
60
0
100
AcDbLine
10
468.32476
20
-23.976857
30
0
11
468.32476
21
-23.991672
31
0
39
0
210
0
220
0
230
1
0
LINE
5
10C
100
AcDbEntity
8
1
62
256
6
ByLayer
370
13
48
1
60
0
100
AcDbLine
10
466.5
20
15
30
0
11
466.5
21
-22.536585
31
0
39
0
210
0
220
0
230
1
0
LINE
5
10D
100
AcDbEntity
8
1
62
256
6
ByLayer
370
18
48
1
60
0
100
AcDbLine
10
464
20
-24.8
30
0
11
464
21
24.8
31
0
39
0
210
0
220
0
230
1
0
LINE
5
10E
100
AcDbEntity
8
1
62
256
6
ByLayer
370
13
48
1
60
0
100
AcDbLine
10
464.2
20
-25
30
0
11
464.2
21
25
31
0
39
0
210
0
220
0
230
1
0
LINE
5
10F
100
AcDbEntity
8
1
62
256
6
ByLayer
370
18
48
1
60
0
100
AcDbLine
10
466
20
24.5
30
0
11
466
21
-20.5
31
0
39
0
210
0
220
0
230
1
0
LINE
5
110
100
AcDbEntity
8
1
62
256
6
ByLayer
370
18
48
1
60
0
100
AcDbLine
10
465.5
20
25
30
0
11
465.5
21
-20.918367
31
0
39
0
210
0
220
0
230
1
0
LINE
5
111
100
AcDbEntity
8
1
62
256
6
ByLayer
370
13
48
1
60
0
100
AcDbLine
10
472.8
20
7.899495
30
0
11
472.8
21
1.899495
31
0
39
0
210
0
220
0
230
1
0
LINE
5
112
100
AcDbEntity
8
1
62
256
6
ByLayer
370
18
48
1
60
0
100
AcDbLine
10
473
20
9.899495
30
0
11
473
21
-0.100505
31
0
39
0
210
0
220
0
230
1
0
LINE
5
113
100
AcDbEntity
8
1
62
256
6
ByLayer
370
13
48
1
60
0
100
AcDbLine
10
478.4
20
9.899495
30
0
11
478.4
21
-0.100505
31
0
39
0
210
0
220
0
230
1
0
LINE
5
114
100
AcDbEntity
8
1
62
256
6
ByLayer
370
18
48
1
60
0
100
AcDbLine
10
479
20
9.299495
30
0
11
479
21
0.499495
31
0
39
0
210
0
220
0
230
1
0
LINE
5
115
100
AcDbEntity
8
1
62
256
6
ByLayer
370
13
48
1
60
0
100
AcDbLine
10
472.8
20
-17.899495
30
0
11
472.8
21
-11.899495
31
0
39
0
210
0
220
0
230
1
0
LINE
5
116
100
AcDbEntity
8
1
62
256
6
ByLayer
370
18
48
1
60
0
100
AcDbLine
10
479
20
-19.299495
30
0
11
479
21
-10.499495
31
0
39
0
210
0
220
0
230
1
0
LINE
5
117
100
AcDbEntity
8
1
62
256
6
ByLayer
370
18
48
1
60
0
100
AcDbLine
10
473
20
-19.899495
30
0
11
473
21
-9.899495
31
0
39
0
210
0
220
0
230
1
0
LINE
5
118
100
AcDbEntity
8
1
62
256
6
ByLayer
370
13
48
1
60
0
100
AcDbLine
10
478.4
20
-19.899495
30
0
11
478.4
21
-9.899495
31
0
39
0
210
0
220
0
230
1
0
LINE
5
119
100
AcDbEntity
8
1
62
256
6
ByLayer
370
18
48
1
60
0
100
AcDbLine
10
463.8
20
25
30
0
11
0.3
21
25
31
0
39
0
210
0
220
0
230
1
0
LINE
5
11A
100
AcDbEntity
8
1
62
256
6
ByLayer
370
18
48
1
60
0
100
AcDbLine
10
0.3
20
-25
30
0
11
463.8
21
-25
31
0
39
0
210
0
220
0
230
1
0
LINE
5
11B
100
AcDbEntity
8
1
62
256
6
ByLayer
370
18
48
1
60
0
100
AcDbLine
10
0
20
-24.7
30
0
11
0.3
21
-25
31
0
39
0
210
0
220
0
230
1
0
LINE
5
11C
100
AcDbEntity
8
1
62
256
6
ByLayer
370
18
48
1
60
0
100
AcDbLine
10
0.3
20
25
30
0
11
0
21
24.7
31
0
39
0
210
0
220
0
230
1
0
LINE
5
11D
100
AcDbEntity
8
1
62
256
6
ByLayer
370
18
48
1
60
0
100
AcDbLine
10
466
20
-25
30
0
11
467.32476
21
-25
31
0
39
0
210
0
220
0
230
1
0
LINE
5
11E
100
AcDbEntity
8
1
62
256
6
ByLayer
370
18
48
1
60
0
100
AcDbLine
10
467.32476
20
15
30
0
11
466.5
21
15
31
0
39
0
210
0
220
0
230
1
0
LINE
5
11F
100
AcDbEntity
8
1
62
256
6
ByLayer
370
18
48
1
60
0
100
AcDbLine
10
467.552123
20
14.772637
30
0
11
467.32476
21
15
31
0
39
0
210
0
220
0
230
1
0
LINE
5
120
100
AcDbEntity
8
1
62
256
6
ByLayer
370
18
48
1
60
0
100
AcDbLine
10
467.32476
20
-25
30
0
11
467.552123
21
-24.772637
31
0
39
0
210
0
220
0
230
1
0
LINE
5
121
100
AcDbEntity
8
1
62
256
6
ByLayer
370
18
48
1
60
0
100
AcDbLine
10
465.5
20
25
30
0
11
464.2
21
25
31
0
39
0
210
0
220
0
230
1
0
LINE
5
122
100
AcDbEntity
8
1
62
256
6
ByLayer
370
18
48
1
60
0
100
AcDbLine
10
464.2
20
-25
30
0
11
466.02
21
-25
31
0
39
0
210
0
220
0
230
1
0
LINE
5
123
100
AcDbEntity
8
1
62
256
6
ByLayer
370
18
48
1
60
0
100
AcDbLine
10
466
20
24.5
30
0
11
465.5
21
25
31
0
39
0
210
0
220
0
230
1
0
LINE
5
124
100
AcDbEntity
8
1
62
256
6
ByLayer
370
18
48
1
60
0
100
AcDbLine
10
468.324609
20
1.899495
30
0
11
472.8
21
1.899495
31
0
39
0
210
0
220
0
230
1
0
LINE
5
125
100
AcDbEntity
8
1
62
256
6
ByLayer
370
18
48
1
60
0
100
AcDbLine
10
472.8
20
7.899495
30
0
11
468.324609
21
7.899495
31
0
39
0
210
0
220
0
230
1
0
LINE
5
126
100
AcDbEntity
8
1
62
256
6
ByLayer
370
18
48
1
60
0
100
AcDbLine
10
473
20
-0.100505
30
0
11
478.4
21
-0.100505
31
0
39
0
210
0
220
0
230
1
0
LINE
5
127
100
AcDbEntity
8
1
62
256
6
ByLayer
370
18
48
1
60
0
100
AcDbLine
10
478.4
20
9.899495
30
0
11
473
21
9.899495
31
0
39
0
210
0
220
0
230
1
0
LINE
5
128
100
AcDbEntity
8
1
62
256
6
ByLayer
370
18
48
1
60
0
100
AcDbLine
10
468.324609
20
-17.899495
30
0
11
472.8
21
-17.899495
31
0
39
0
210
0
220
0
230
1
0
LINE
5
129
100
AcDbEntity
8
1
62
256
6
ByLayer
370
18
48
1
60
0
100
AcDbLine
10
472.8
20
-11.899495
30
0
11
468.324609
21
-11.899495
31
0
39
0
210
0
220
0
230
1
0
LINE
5
12A
100
AcDbEntity
8
1
62
256
6
ByLayer
370
18
48
1
60
0
100
AcDbLine
10
473
20
-19.899495
30
0
11
478.4
21
-19.899495
31
0
39
0
210
0
220
0
230
1
0
LINE
5
12B
100
AcDbEntity
8
1
62
256
6
ByLayer
370
18
48
1
60
0
100
AcDbLine
10
478.4
20
-9.899495
30
0
11
473
21
-9.899495
31
0
39
0
210
0
220
0
230
1
0
LINE
5
12C
100
AcDbEntity
8
SK2
62
256
6
ByLayer
370
18
48
1
60
0
100
AcDbLine
10
-36.6
20
-25
30
0
11
-36.6
21
25
31
0
39
0
210
0
220
0
230
1
0
LINE
5
12E
100
AcDbEntity
8
SK2
62
256
6
ByLayer
370
18
48
1
60
0
100
AcDbLine
10
-1.2875
20
25
30
0
11
-38.6
21
25
31
0
39
0
210
0
220
0
230
1
0
LINE
5
12F
100
AcDbEntity
8
SK2
62
256
6
ByLayer
370
18
48
1
60
0
100
AcDbLine
10
-1.2875
20
-25
30
0
11
-38.6
21
-25
31
0
39
0
210
0
220
0
230
1
0
LINE
5
130
100
AcDbEntity
8
1
62
256
6
ByLayer
370
18
48
1
60
1
100
AcDbLine
10
-36.6
20
25
30
0
11
-36.139216
21
21.500002
31
0
39
0
210
0
220
0
230
1
0
LINE
5
131
100
AcDbEntity
8
1
62
256
6
ByLayer
370
18
48
1
60
1
100
AcDbLine
10
-36.139216
20
21.500002
30
0
11
-37.060784
21
21.499998
31
0
39
0
210
0
220
0
230
1
0
LINE
5
132
100
AcDbEntity
8
1
62
256
6
ByLayer
370
18
48
1
60
1
100
AcDbLine
10
-37.060784
20
21.499998
30
0
11
-36.6
21
25
31
0
39
0
210
0
220
0
230
1
0
LINE
5
133
100
AcDbEntity
8
1
62
256
6
ByLayer
370
18
48
1
60
1
100
AcDbLine
10
-36.6
20
-25
30
0
11
-37.060784
21
-21.500002
31
0
39
0
210
0
220
0
230
1
0
LINE
5
134
100
AcDbEntity
8
1
62
256
6
ByLayer
370
18
48
1
60
1
100
AcDbLine
10
-37.060784
20
-21.500002
30
0
11
-36.139216
21
-21.499998
31
0
39
0
210
0
220
0
230
1
0
LINE
5
135
100
AcDbEntity
8
1
62
256
6
ByLayer
370
18
48
1
60
1
100
AcDbLine
10
-36.139216
20
-21.499998
30
0
11
-36.6
21
-25
31
0
39
0
210
0
220
0
230
1
0
LINE
5
136
100
AcDbEntity
8
SK2
62
256
6
ByLayer
370
18
48
1
60
0
100
AcDbLine
10
499.748181
20
-25
30
0
11
499.748181
21
25
31
0
39
0
210
0
220
0
230
1
0
LINE
5
137
100
AcDbEntity
8
SK2
62
256
6
ByLayer
370
18
48
1
60
0
100
AcDbLine
10
465.3875
20
25
30
0
11
501.748181
21
25
31
0
39
0
210
0
220
0
230
1
0
LINE
5
138
100
AcDbEntity
8
SK2
62
256
6
ByLayer
370
18
48
1
60
0
100
AcDbLine
10
465.3875
20
-25
30
0
11
501.748181
21
-25
31
0
39
0
210
0
220
0
230
1
0
LINE
5
139
100
AcDbEntity
8
1
62
256
6
ByLayer
370
18
48
1
60
1
100
AcDbLine
10
499.748181
20
25
30
0
11
500.208964
21
21.500002
31
0
39
0
210
0
220
0
230
1
0
LINE
5
13A
100
AcDbEntity
8
1
62
256
6
ByLayer
370
18
48
1
60
1
100
AcDbLine
10
500.208964
20
21.500002
30
0
11
499.287397
21
21.499998
31
0
39
0
210
0
220
0
230
1
0
LINE
5
13B
100
AcDbEntity
8
1
62
256
6
ByLayer
370
18
48
1
60
1
100
AcDbLine
10
499.287397
20
21.499998
30
0
11
499.748181
21
25
31
0
39
0
210
0
220
0
230
1
0
LINE
5
13C
100
AcDbEntity
8
1
62
256
6
ByLayer
370
18
48
1
60
1
100
AcDbLine
10
499.748181
20
-25
30
0
11
499.287397
21
-21.500002
31
0
39
0
210
0
220
0
230
1
0
LINE
5
13D
100
AcDbEntity
8
1
62
256
6
ByLayer
370
18
48
1
60
1
100
AcDbLine
10
499.287397
20
-21.500002
30
0
11
500.208964
21
-21.499998
31
0
39
0
210
0
220
0
230
1
0
LINE
5
13E
100
AcDbEntity
8
1
62
256
6
ByLayer
370
18
48
1
60
1
100
AcDbLine
10
500.208964
20
-21.499998
30
0
11
499.748181
21
-25
31
0
39
0
210
0
220
0
230
1
0
LINE
5
13F
100
AcDbEntity
8
SK2
62
256
6
ByLayer
370
13
48
1
60
0
100
AcDbLine
10
488.123181
20
15
30
0
11
488.123181
21
-25
31
0
39
0
210
0
220
0
230
1
0
LINE
5
140
100
AcDbEntity
8
SK2
62
256
6
ByLayer
370
13
48
1
60
0
100
AcDbLine
10
468.91226
20
-25
30
0
11
490.123181
21
-25
31
0
39
0
210
0
220
0
230
1
0
LINE
5
141
100
AcDbEntity
8
SK2
62
256
6
ByLayer
370
13
48
1
60
0
100
AcDbLine
10
468.91226
20
15
30
0
11
490.123181
21
15
31
0
39
0
210
0
220
0
230
1
0
LINE
5
142
100
AcDbEntity
8
1
62
256
6
ByLayer
370
18
48
1
60
1
100
AcDbLine
10
488.123181
20
-25
30
0
11
487.662397
21
-21.500002
31
0
39
0
210
0
220
0
230
1
0
LINE
5
143
100
AcDbEntity
8
1
62
256
6
ByLayer
370
18
48
1
60
1
100
AcDbLine
10
487.662397
20
-21.500002
30
0
11
488.583964
21
-21.499998
31
0
39
0
210
0
220
0
230
1
0
LINE
5
144
100
AcDbEntity
8
1
62
256
6
ByLayer
370
18
48
1
60
1
100
AcDbLine
10
488.583964
20
-21.499998
30
0
11
488.123181
21
-25
31
0
39
0
210
0
220
0
230
1
0
LINE
5
145
100
AcDbEntity
8
1
62
256
6
ByLayer
370
18
48
1
60
1
100
AcDbLine
10
488.123181
20
15
30
0
11
488.583964
21
11.500002
31
0
39
0
210
0
220
0
230
1
0
LINE
5
146
100
AcDbEntity
8
1
62
256
6
ByLayer
370
18
48
1
60
1
100
AcDbLine
10
488.583964
20
11.500002
30
0
11
487.662397
21
11.499998
31
0
39
0
210
0
220
0
230
1
0
LINE
5
147
100
AcDbEntity
8
1
62
256
6
ByLayer
370
18
48
1
60
1
100
AcDbLine
10
487.662397
20
11.499998
30
0
11
488.123181
21
15
31
0
39
0
210
0
220
0
230
1
0
LINE
5
148
100
AcDbEntity
8
SK2
62
256
6
ByLayer
370
18
48
1
60
0
100
AcDbLine
10
0
20
30.600025
30
0
11
468
21
30.600025
31
0
39
0
210
0
220
0
230
1
0
LINE
5
149
100
AcDbEntity
8
SK2
62
256
6
ByLayer
370
18
48
1
60
0
100
AcDbLine
10
468
20
26.5875
30
0
11
468
21
32.600025
31
0
39
0
210
0
220
0
230
1
0
LINE
5
14A
100
AcDbEntity
8
SK2
62
256
6
ByLayer
370
18
48
1
60
0
100
AcDbLine
10
0
20
26.2875
30
0
11
0
21
32.600025
31
0
39
0
210
0
220
0
230
1
0
LINE
5
14B
100
AcDbEntity
8
1
62
256
6
ByLayer
370
18
48
1
60
1
100
AcDbLine
10
468
20
30.600025
30
0
11
464.500002
21
30.139241
31
0
39
0
210
0
220
0
230
1
0
LINE
5
14C
100
AcDbEntity
8
1
62
256
6
ByLayer
370
18
48
1
60
1
100
AcDbLine
10
464.500002
20
30.139241
30
0
11
464.499998
21
31.060809
31
0
39
0
210
0
220
0
230
1
0
LINE
5
14D
100
AcDbEntity
8
1
62
256
6
ByLayer
370
18
48
1
60
1
100
AcDbLine
10
464.499998
20
31.060809
30
0
11
468
21
30.600025
31
0
39
0
210
0
220
0
230
1
0
LINE
5
14E
100
AcDbEntity
8
1
62
256
6
ByLayer
370
18
48
1
60
1
100
AcDbLine
10
0
20
30.600025
30
0
11
3.499998
21
31.060809
31
0
39
0
210
0
220
0
230
1
0
LINE
5
14F
100
AcDbEntity
8
1
62
256
6
ByLayer
370
18
48
1
60
1
100
AcDbLine
10
3.499998
20
31.060809
30
0
11
3.500002
21
30.139241
31
0
39
0
210
0
220
0
230
1
0
LINE
5
150
100
AcDbEntity
8
1
62
256
6
ByLayer
370
18
48
1
60
1
100
AcDbLine
10
3.500002
20
30.139241
30
0
11
0
21
30.600025
31
0
39
0
210
0
220
0
230
1
0
LINE
5
1DF
100
AcDbEntity
8
1
62
256
6
ByLayer
370
18
48
1
60
1
100
AcDbLine
10
-36.6
20
25
30
0
11
-36.139216
21
21.500002
31
0
39
0
210
0
220
0
230
1
0
LINE
5
1E0
100
AcDbEntity
8
1
62
256
6
ByLayer
370
18
48
1
60
1
100
AcDbLine
10
-36.139216
20
21.500002
30
0
11
-37.060784
21
21.499998
31
0
39
0
210
0
220
0
230
1
0
LINE
5
1E1
100
AcDbEntity
8
1
62
256
6
ByLayer
370
18
48
1
60
1
100
AcDbLine
10
-37.060784
20
21.499998
30
0
11
-36.6
21
25
31
0
39
0
210
0
220
0
230
1
0
LINE
5
1E3
100
AcDbEntity
8
1
62
256
6
ByLayer
370
18
48
1
60
1
100
AcDbLine
10
-36.6
20
-25
30
0
11
-37.060784
21
-21.500002
31
0
39
0
210
0
220
0
230
1
0
LINE
5
1E4
100
AcDbEntity
8
1
62
256
6
ByLayer
370
18
48
1
60
1
100
AcDbLine
10
-37.060784
20
-21.500002
30
0
11
-36.139216
21
-21.499998
31
0
39
0
210
0
220
0
230
1
0
LINE
5
1E5
100
AcDbEntity
8
1
62
256
6
ByLayer
370
18
48
1
60
1
100
AcDbLine
10
-36.139216
20
-21.499998
30
0
11
-36.6
21
-25
31
0
39
0
210
0
220
0
230
1
0
LINE
5
1E9
100
AcDbEntity
8
1
62
256
6
ByLayer
370
18
48
1
60
1
100
AcDbLine
10
499.748181
20
25
30
0
11
500.208964
21
21.500002
31
0
39
0
210
0
220
0
230
1
0
LINE
5
1EA
100
AcDbEntity
8
1
62
256
6
ByLayer
370
18
48
1
60
1
100
AcDbLine
10
500.208964
20
21.500002
30
0
11
499.287397
21
21.499998
31
0
39
0
210
0
220
0
230
1
0
LINE
5
1EB
100
AcDbEntity
8
1
62
256
6
ByLayer
370
18
48
1
60
1
100
AcDbLine
10
499.287397
20
21.499998
30
0
11
499.748181
21
25
31
0
39
0
210
0
220
0
230
1
0
LINE
5
1ED
100
AcDbEntity
8
1
62
256
6
ByLayer
370
18
48
1
60
1
100
AcDbLine
10
499.748181
20
-25
30
0
11
499.287397
21
-21.500002
31
0
39
0
210
0
220
0
230
1
0
LINE
5
1EE
100
AcDbEntity
8
1
62
256
6
ByLayer
370
18
48
1
60
1
100
AcDbLine
10
499.287397
20
-21.500002
30
0
11
500.208964
21
-21.499998
31
0
39
0
210
0
220
0
230
1
0
LINE
5
1EF
100
AcDbEntity
8
1
62
256
6
ByLayer
370
18
48
1
60
1
100
AcDbLine
10
500.208964
20
-21.499998
30
0
11
499.748181
21
-25
31
0
39
0
210
0
220
0
230
1
0
LINE
5
1F5
100
AcDbEntity
8
1
62
256
6
ByLayer
370
18
48
1
60
1
100
AcDbLine
10
488.123181
20
-25
30
0
11
487.662397
21
-21.500002
31
0
39
0
210
0
220
0
230
1
0
LINE
5
1F6
100
AcDbEntity
8
1
62
256
6
ByLayer
370
18
48
1
60
1
100
AcDbLine
10
487.662397
20
-21.500002
30
0
11
488.583964
21
-21.499998
31
0
39
0
210
0
220
0
230
1
0
LINE
5
1F7
100
AcDbEntity
8
1
62
256
6
ByLayer
370
18
48
1
60
1
100
AcDbLine
10
488.583964
20
-21.499998
30
0
11
488.123181
21
-25
31
0
39
0
210
0
220
0
230
1
0
LINE
5
1F9
100
AcDbEntity
8
1
62
256
6
ByLayer
370
18
48
1
60
1
100
AcDbLine
10
488.123181
20
15
30
0
11
488.583964
21
11.500002
31
0
39
0
210
0
220
0
230
1
0
LINE
5
1FA
100
AcDbEntity
8
1
62
256
6
ByLayer
370
18
48
1
60
1
100
AcDbLine
10
488.583964
20
11.500002
30
0
11
487.662397
21
11.499998
31
0
39
0
210
0
220
0
230
1
0
LINE
5
1FB
100
AcDbEntity
8
1
62
256
6
ByLayer
370
18
48
1
60
1
100
AcDbLine
10
487.662397
20
11.499998
30
0
11
488.123181
21
15
31
0
39
0
210
0
220
0
230
1
0
LINE
5
1FE
100
AcDbEntity
8
1
62
256
6
ByLayer
370
18
48
1
60
1
100
AcDbLine
10
468
20
30.600025
30
0
11
464.500002
21
30.139241
31
0
39
0
210
0
220
0
230
1
0
LINE
5
1FF
100
AcDbEntity
8
1
62
256
6
ByLayer
370
18
48
1
60
1
100
AcDbLine
10
464.500002
20
30.139241
30
0
11
464.499998
21
31.060809
31
0
39
0
210
0
220
0
230
1
0
LINE
5
200
100
AcDbEntity
8
1
62
256
6
ByLayer
370
18
48
1
60
1
100
AcDbLine
10
464.499998
20
31.060809
30
0
11
468
21
30.600025
31
0
39
0
210
0
220
0
230
1
0
LINE
5
202
100
AcDbEntity
8
1
62
256
6
ByLayer
370
18
48
1
60
1
100
AcDbLine
10
0
20
30.600025
30
0
11
3.499998
21
31.060809
31
0
39
0
210
0
220
0
230
1
0
LINE
5
203
100
AcDbEntity
8
1
62
256
6
ByLayer
370
18
48
1
60
1
100
AcDbLine
10
3.499998
20
31.060809
30
0
11
3.500002
21
30.139241
31
0
39
0
210
0
220
0
230
1
0
LINE
5
204
100
AcDbEntity
8
1
62
256
6
ByLayer
370
18
48
1
60
1
100
AcDbLine
10
3.500002
20
30.139241
30
0
11
0
21
30.600025
31
0
39
0
210
0
220
0
230
1
0
MTEXT
5
1DB
100
AcDbEntity
8
SK2
62
256
6
ByLayer
370
18
48
1
60
0
100
AcDbMText
10
-38.164634
20
-4.530622
30
0
210
0
220
0
230
1
1
%%c
40
3.5
41
0
44
1.084337
50
90
71
7
72
5
7
iso_b_vert
0
MTEXT
5
1DE
100
AcDbEntity
8
SK2
62
256
6
ByLayer
370
18
48
1
60
0
100
AcDbMText
10
-38.164634
20
2.442034
30
0
210
0
220
0
230
1
1
\W0.6740;50
40
3.5
41
0
44
1.084337
50
90
71
7
72
5
7
iso_b_vert
0
MTEXT
5
1E7
100
AcDbEntity
8
SK2
62
256
6
ByLayer
370
18
48
1
60
0
100
AcDbMText
10
498.183547
20
-4.530622
30
0
210
0
220
0
230
1
1
%%c
40
3.5
41
0
44
1.084337
50
90
71
7
72
5
7
iso_b_vert
0
MTEXT
5
1E8
100
AcDbEntity
8
SK2
62
256
6
ByLayer
370
18
48
1
60
0
100
AcDbMText
10
498.183547
20
2.442034
30
0
210
0
220
0
230
1
1
\W0.6740;50
40
3.5
41
0
44
1.084337
50
90
71
7
72
5
7
iso_b_vert
0
MTEXT
5
1F1
100
AcDbEntity
8
SK2
62
256
6
ByLayer
370
18
48
1
60
0
100
AcDbMText
10
485.902297
20
1.807233
30
0
210
0
220
0
230
1
1
\W1.1313;{\H1.88x;)}
40
3.5
41
0
44
1.084337
50
90
71
7
72
5
7
iso_b_vert
0
MTEXT
5
1F2
100
AcDbEntity
8
SK2
62
256
6
ByLayer
370
18
48
1
60
0
100
AcDbMText
10
485.902297
20
-13.942233
30
0
210
0
220
0
230
1
1
\W1.1313;{\H1.88x;(}
40
3.5
41
0
44
1.084337
50
90
71
7
72
5
7
iso_b_vert
0
MTEXT
5
1F3
100
AcDbEntity
8
SK2
62
256
6
ByLayer
370
18
48
1
60
0
100
AcDbMText
10
485.902297
20
-9.714889
30
0
210
0
220
0
230
1
1
%%c
40
3.5
41
0
44
1.084337
50
90
71
7
72
5
7
iso_b_vert
0
MTEXT
5
1F4
100
AcDbEntity
8
SK2
62
256
6
ByLayer
370
18
48
1
60
0
100
AcDbMText
10
485.902297
20
-2.742233
30
0
210
0
220
0
230
1
1
\W0.7361;40
40
3.5
41
0
44
1.084337
50
90
71
7
72
5
7
iso_b_vert
0
MTEXT
5
1FD
100
AcDbEntity
8
SK2
62
256
6
ByLayer
370
18
48
1
60
0
100
AcDbMText
10
230.603034
20
31.632659
30
0
210
0
220
0
230
1
1
\W0.7541;468
40
3.5
41
0
44
1.084337
50
0
71
7
72
5
7
iso_b_vert
0
MTEXT
5
206
100
AcDbEntity
8
SK6
62
256
6
ByLayer
370
18
48
1
60
0
100
AcDbMText
10
201.267894
20
-50.762693
30
0
210
0
220
0
230
1
1
\W0.7759;HT30D-C5 50 468L40
40
3.5
41
0
44
1.084337
50
0
71
7
72
5
7
iso_b_vert
0
HATCH
5
1E2
100
AcDbEntity
8
SK2
62
256
6
ByLayer
370
13
48
1
60
0
100
AcDbHatch
10
0
20
0
30
0
210
0
220
0
230
1
2
ANSI31
70
0
71
0
91
1
92
5
93
3
72
1
10
-36.6
20
25
11
-36.1392162584472
21
21.5000016925532
72
1
10
-36.1392162584472
20
21.5000016925532
11
-37.0607837415528
21
21.4999983074468
72
1
10
-37.0607837415528
20
21.4999983074468
11
-36.6
21
25
97
0
75
0
76
1
52
0
41
0.0062
77
0
78
1
53
45
43
0
44
0
45
-0.0139193969876572
46
0.0139193969876572
79
0
47
0
98
1
10
0
20
0
0
HATCH
5
1E6
100
AcDbEntity
8
SK2
62
256
6
ByLayer
370
13
48
1
60
0
100
AcDbHatch
10
0
20
0
30
0
210
0
220
0
230
1
2
ANSI31
70
0
71
0
91
1
92
5
93
3
72
1
10
-36.6
20
-25
11
-37.0607837415528
21
-21.5000016925532
72
1
10
-37.0607837415528
20
-21.5000016925532
11
-36.1392162584472
21
-21.4999983074468
72
1
10
-36.1392162584472
20
-21.4999983074468
11
-36.6
21
-25
97
0
75
0
76
1
52
0
41
0.0062
77
0
78
1
53
45
43
0
44
0
45
-0.0139193969876572
46
0.0139193969876572
79
0
47
0
98
1
10
0
20
0
0
HATCH
5
1EC
100
AcDbEntity
8
SK2
62
256
6
ByLayer
370
13
48
1
60
0
100
AcDbHatch
10
0
20
0
30
0
210
0
220
0
230
1
2
ANSI31
70
0
71
0
91
1
92
5
93
3
72
1
10
499.748180566759
20
25
11
500.208964308312
21
21.5000016925532
72
1
10
500.208964308312
20
21.5000016925532
11
499.287396825206
21
21.4999983074468
72
1
10
499.287396825206
20
21.4999983074468
11
499.748180566759
21
25
97
0
75
0
76
1
52
0
41
0.0062
77
0
78
1
53
45
43
0
44
0
45
-0.0139193969876572
46
0.0139193969876572
79
0
47
0
98
1
10
0
20
0
0
HATCH
5
1F0
100
AcDbEntity
8
SK2
62
256
6
ByLayer
370
13
48
1
60
0
100
AcDbHatch
10
0
20
0
30
0
210
0
220
0
230
1
2
ANSI31
70
0
71
0
91
1
92
5
93
3
72
1
10
499.748180566759
20
-25
11
499.287396825206
21
-21.5000016925532
72
1
10
499.287396825206
20
-21.5000016925532
11
500.208964308312
21
-21.4999983074468
72
1
10
500.208964308312
20
-21.4999983074468
11
499.748180566759
21
-25
97
0
75
0
76
1
52
0
41
0.0062
77
0
78
1
53
45
43
0
44
0
45
-0.0139193969876572
46
0.0139193969876572
79
0
47
0
98
1
10
0
20
0
0
HATCH
5
1F8
100
AcDbEntity
8
SK2
62
256
6
ByLayer
370
13
48
1
60
0
100
AcDbHatch
10
0
20
0
30
0
210
0
220
0
230
1
2
ANSI31
70
0
71
0
91
1
92
5
93
3
72
1
10
488.123180566759
20
-25
11
487.662396825206
21
-21.5000016925532
72
1
10
487.662396825206
20
-21.5000016925532
11
488.583964308312
21
-21.4999983074468
72
1
10
488.583964308312
20
-21.4999983074468
11
488.123180566759
21
-25
97
0
75
0
76
1
52
0
41
0.0062
77
0
78
1
53
45
43
0
44
0
45
-0.0139193969876572
46
0.0139193969876572
79
0
47
0
98
1
10
0
20
0
0
HATCH
5
1FC
100
AcDbEntity
8
SK2
62
256
6
ByLayer
370
13
48
1
60
0
100
AcDbHatch
10
0
20
0
30
0
210
0
220
0
230
1
2
ANSI31
70
0
71
0
91
1
92
5
93
3
72
1
10
488.123180566759
20
15
11
488.583964308312
21
11.5000016925532
72
1
10
488.583964308312
20
11.5000016925532
11
487.662396825206
21
11.4999983074468
72
1
10
487.662396825206
20
11.4999983074468
11
488.123180566759
21
15
97
0
75
0
76
1
52
0
41
0.0062
77
0
78
1
53
45
43
0
44
0
45
-0.0139193969876572
46
0.0139193969876572
79
0
47
0
98
1
10
0
20
0
0
HATCH
5
201
100
AcDbEntity
8
SK2
62
256
6
ByLayer
370
13
48
1
60
0
100
AcDbHatch
10
0
20
0
30
0
210
0
220
0
230
1
2
ANSI31
70
0
71
0
91
1
92
5
93
3
72
1
10
468
20
30.600025
11
464.500001692553
21
30.1392412584472
72
1
10
464.500001692553
20
30.1392412584472
11
464.499998307447
21
31.0608087415528
72
1
10
464.499998307447
20
31.0608087415528
11
468
21
30.600025
97
0
75
0
76
1
52
0
41
0.0062
77
0
78
1
53
45
43
0
44
0
45
-0.0139193969876572
46
0.0139193969876572
79
0
47
0
98
1
10
0
20
0
0
HATCH
5
205
100
AcDbEntity
8
SK2
62
256
6
ByLayer
370
13
48
1
60
0
100
AcDbHatch
10
0
20
0
30
0
210
0
220
0
230
1
2
ANSI31
70
0
71
0
91
1
92
5
93
3
72
1
10
0
20
30.600025
11
3.4999983074468
21
31.0608087415528
72
1
10
3.4999983074468
20
31.0608087415528
11
3.5000016925532
21
30.1392412584472
72
1
10
3.5000016925532
20
30.1392412584472
11
0
21
30.600025
97
0
75
0
76
1
52
0
41
0.0062
77
0
78
1
53
45
43
0
44
0
45
-0.0139193969876572
46
0.0139193969876572
79
0
47
0
98
1
10
0
20
0
0
ENDSEC
0
SECTION
2
OBJECTS
0
DICTIONARY
5
275
330
0
100
AcDbDictionary
280
0
281
1
3
ACAD_GROUP
350
276
3
ACAD_MLINESTYLE
350
277
0
DICTIONARY
5
276
330
0
100
AcDbDictionary
280
0
281
1
0
DICTIONARY
5
277
330
0
100
AcDbDictionary
280
0
281
1
3
Standard
350
18
0
MLINESTYLE
5
18
330
277
100
AcDbMlineStyle
2
Standard
70
0
3

62
256
51
90
52
90
71
2
49
-0.5
62
256
6
ByLayer
49
0.5
62
256
6
ByLayer
0
RASTERVARIABLES
5
263
330

100
AcDbRasterVariables
90
0
70
1
71
1
72
1
0
ENDSEC
0
EOF
