0
SECTION
2
HEADER
9
$ACADVER
1
AC1015
9
$DWGCODEPAGE
3
ANSI_1252
9
$HANDSEED
5
285
9
$ANGBASE
50
0
9
$ANGDIR
70
0
9
$ATTMODE
70
1
9
$AUNITS
70
0
9
$AUPREC
70
0
9
$CECOLOR
62
256
9
$CELTSCALE
40
1
9
$CELTYPE
6
ByLayer
9
$CELWEIGHT
370
18
9
$CLAYER
8
0
9
$CMLJUST
70
0
9
$CMLSCALE
40
1
9
$CMLSTYLE
2
Standard
9
$DIMSTYLE
2
Standard
9
$TEXTSIZE
40
0.2
9
$TEXTSTYLE
7
Standard
9
$LUNITS
70
2
9
$LUPREC
70
4
9
$EXTNAMES
290
1
9
$INSUNITS
70
4
9
$LTSCALE
40
1
9
$LWDISPLAY
290
1
9
$PDMODE
70
0
9
$PDSIZE
40
0
9
$PLINEGEN
70
0
0
ENDSEC
0
SECTION
2
CLASSES
0
CLASS
1
RASTERVARIABLES
2
AcDbRasterVariables
3
ISM
90
0
280
0
281
0
0
ENDSEC
0
SECTION
2
TABLES
0
TABLE
2
VPORT
5
27b
100
AcDbSymbolTable
0
VPORT
5
1
100
AcDbSymbolTableRecord
100
AcDbViewportTableRecord
2
*Active
70
0
10
0
20
0
11
1
21
1
12
-1
22
1
13
0
23
0
14
0.5
24
0.5
15
10
25
10
16
0
26
0
36
1
17
0
27
0
37
0
0
ENDTAB
0
TABLE
2
LTYPE
5
27c
100
AcDbSymbolTable
0
LTYPE
5
14
100
AcDbSymbolTableRecord
100
AcDbLinetypeTableRecord
70
0
2
ByBlock
3

72
65
73
0
40
0
0
LTYPE
5
15
100
AcDbSymbolTableRecord
100
AcDbLinetypeTableRecord
70
0
2
ByLayer
3

72
65
73
0
40
0
0
LTYPE
5
16
100
AcDbSymbolTableRecord
100
AcDbLinetypeTableRecord
70
0
2
Continuous
3
Solid line
72
65
73
0
40
0
0
LTYPE
5
6E
100
AcDbSymbolTableRecord
100
AcDbLinetypeTableRecord
70
0
2
CENTER
3
____ _ ____ _ ____ _ ____
72
65
73
4
40
47.5
49
22
74
0
49
-8.5
74
0
49
8.5
74
0
49
-8.5
74
0
0
LTYPE
5
6F
100
AcDbSymbolTableRecord
100
AcDbLinetypeTableRecord
70
0
2
DASHED
3
__ __ __ __ __ __ __ __ __
72
65
73
2
40
25.72
49
12.86
74
0
49
-12.86
74
0
0
ENDTAB
0
TABLE
2
LAYER
5
27d
100
AcDbSymbolTable
0
LAYER
5
10
100
AcDbSymbolTableRecord
100
AcDbLayerTableRecord
2
0
70
0
62
7
6
Continuous
290
1
370
-3
390
0
0
LAYER
5
71
100
AcDbSymbolTableRecord
100
AcDbLayerTableRecord
2
2
70
0
62
7
6
Continuous
290
1
370
-3
390
0
0
LAYER
5
98
100
AcDbSymbolTableRecord
100
AcDbLayerTableRecord
2
80
70
0
62
-6
6
Continuous
290
1
370
-3
390
0
0
LAYER
5
9A
100
AcDbSymbolTableRecord
100
AcDbLayerTableRecord
2
81
70
0
62
-3
6
Continuous
290
1
370
-3
390
0
0
LAYER
5
9C
100
AcDbSymbolTableRecord
100
AcDbLayerTableRecord
2
4
70
0
62
-2
6
CENTER
290
1
370
-3
390
0
0
LAYER
5
A2
100
AcDbSymbolTableRecord
100
AcDbLayerTableRecord
2
1
70
0
62
4
6
Continuous
290
1
370
-3
390
0
0
LAYER
5
267
100
AcDbSymbolTableRecord
100
AcDbLayerTableRecord
2
SK4
70
0
62
2
6
CENTER
290
1
370
-3
390
0
0
LAYER
5
268
100
AcDbSymbolTableRecord
100
AcDbLayerTableRecord
2
SK1
70
0
62
4
6
Continuous
290
1
370
-3
390
0
0
LAYER
5
269
100
AcDbSymbolTableRecord
100
AcDbLayerTableRecord
2
SK2
70
0
62
7
6
Continuous
290
1
370
-3
390
0
0
LAYER
5
26a
100
AcDbSymbolTableRecord
100
AcDbLayerTableRecord
2
SK6
70
0
62
5
6
Continuous
290
1
370
-3
390
0
0
ENDTAB
0
TABLE
2
STYLE
5
27e
100
AcDbSymbolTable
0
STYLE
5
11
100
AcDbSymbolTableRecord
100
AcDbTextStyleTableRecord
2
Standard
3
txt
70
0
71
0
40
0
41
1
42
0
50
0
0
STYLE
5
1DF
100
AcDbSymbolTableRecord
100
AcDbTextStyleTableRecord
2
iso_b_vert
3
simplex.shx
70
0
71
0
40
0
41
1
42
0
50
0
0
STYLE
5
1E0
100
AcDbSymbolTableRecord
100
AcDbTextStyleTableRecord
2
DWGDirectTextStyle
3
simplex
70
0
71
0
40
0
41
1
42
0
50
0
0
ENDTAB
0
TABLE
2
DIMSTYLE
5
27f
100
AcDbSymbolTable
100
AcDbDimStyleTable
0
DIMSTYLE
105
27
100
AcDbSymbolTableRecord
100
AcDbDimStyleTableRecord
2
Standard
70
0
3
<>
41
0.18
42
0.0625
44
0.18
140
0.18
147
0.09
73
0
74
0
77
1
271
2
275
0
278
52
280
0
340
11
0
ENDTAB
0
TABLE
2
VIEW
5
280
100
AcDbSymbolTable
0
ENDTAB
0
TABLE
2
UCS
5
281
100
AcDbSymbolTable
0
ENDTAB
0
TABLE
2
APPID
5
282
100
AcDbSymbolTable
0
APPID
5
12
100
AcDbSymbolTableRecord
100
AcDbRegAppTableRecord
2
ACAD
70
0
0
APPID
5
263
100
AcDbSymbolTableRecord
100
AcDbRegAppTableRecord
2
ACAD_MLEADERVER
70
0
0
ENDTAB
0
TABLE
2
BLOCK_RECORD
5
283
100
AcDbSymbolTable
0
BLOCK_RECORD
5
1F
100
AcDbSymbolTableRecord
100
AcDbBlockTableRecord
2
*Model_Space
340
0
70
0
0
BLOCK_RECORD
5
1B
100
AcDbSymbolTableRecord
100
AcDbBlockTableRecord
2
*Paper_Space
340
0
70
0
0
BLOCK_RECORD
5
23
100
AcDbSymbolTableRecord
100
AcDbBlockTableRecord
2
*Paper_Space0
340
0
70
0
0
ENDTAB
0
ENDSEC
0
SECTION
2
BLOCKS
0
BLOCK
5
20
100
AcDbEntity
8
0
100
AcDbBlockBegin
2
*Model_Space
70
0
10
0
20
0
30
0
3
*Model_Space
0
ENDBLK
5
21
100
AcDbEntity
8
0
100
AcDbBlockEnd
0
BLOCK
5
1C
100
AcDbEntity
8
0
100
AcDbBlockBegin
2
*Paper_Space
70
0
10
0
20
0
30
0
3
*Paper_Space
0
ENDBLK
5
1D
100
AcDbEntity
8
0
100
AcDbBlockEnd
0
BLOCK
5
24
100
AcDbEntity
8
0
100
AcDbBlockBegin
2
*Paper_Space0
70
0
10
0
20
0
30
0
3
*Paper_Space0
0
ENDBLK
5
25
100
AcDbEntity
8
0
100
AcDbBlockEnd
0
ENDSEC
0
SECTION
2
ENTITIES
0
ARC
5
155
100
AcDbEntity
8
1
62
256
6
ByLayer
370
18
48
1
60
0
100
AcDbCircle
39
0
10
463.8
20
-24.8
30
0
40
0.2
210
0
220
0
230
1
100
AcDbArc
50
270
51
360
0
ARC
5
156
100
AcDbEntity
8
1
62
256
6
ByLayer
370
18
48
1
60
0
100
AcDbCircle
39
0
10
463.8
20
24.8
30
0
40
0.2
210
0
220
0
230
1
100
AcDbArc
50
360
51
90
0
ARC
5
157
100
AcDbEntity
8
SK1
62
256
6
ByLayer
370
18
48
1
60
0
100
AcDbCircle
39
0
10
-0.6
20
18.75
30
0
40
0.999999999999998
210
0
220
0
230
1
100
AcDbArc
50
293.578178
51
306.869898
0
ARC
5
158
100
AcDbEntity
8
SK1
62
256
6
ByLayer
370
18
48
1
60
0
100
AcDbCircle
39
0
10
-0.6
20
-18.75
30
0
40
0.999999999999998
210
0
220
0
230
1
100
AcDbArc
50
53.130102
51
66.421822
0
ARC
5
159
100
AcDbEntity
8
1
62
256
6
ByLayer
370
18
48
1
60
0
100
AcDbCircle
39
0
10
472.8
20
-8.099495
30
0
40
0.2
210
0
220
0
230
1
100
AcDbArc
50
0
51
90
0
ARC
5
15A
100
AcDbEntity
8
1
62
256
6
ByLayer
370
18
48
1
60
0
100
AcDbCircle
39
0
10
472.8
20
-1.699495
30
0
40
0.2
210
0
220
0
230
1
100
AcDbArc
50
270
51
0
0
ARC
5
15B
100
AcDbEntity
8
1
62
256
6
ByLayer
370
18
48
1
60
0
100
AcDbCircle
39
0
10
478.4
20
-9.299495
30
0
40
0.6
210
0
220
0
230
1
100
AcDbArc
50
270
51
360
0
ARC
5
15C
100
AcDbEntity
8
1
62
256
6
ByLayer
370
18
48
1
60
0
100
AcDbCircle
39
0
10
478.4
20
-0.499495
30
0
40
0.6
210
0
220
0
230
1
100
AcDbArc
50
360
51
90
0
ARC
5
15D
100
AcDbEntity
8
1
62
256
6
ByLayer
370
18
48
1
60
0
100
AcDbCircle
39
0
10
466.5
20
-15.5
30
0
40
0.5
210
0
220
0
230
1
100
AcDbArc
50
90
51
180
0
ARC
5
15E
100
AcDbEntity
8
1
62
256
6
ByLayer
370
18
48
1
60
0
100
AcDbCircle
39
0
10
464.2
20
-24.8
30
0
40
0.2
210
0
220
0
230
1
100
AcDbArc
50
180
51
270
0
ARC
5
15F
100
AcDbEntity
8
1
62
256
6
ByLayer
370
18
48
1
60
0
100
AcDbCircle
39
0
10
464.2
20
24.8
30
0
40
0.2
210
0
220
0
230
1
100
AcDbArc
50
90
51
180
0
ARC
5
160
100
AcDbEntity
8
1
62
256
6
ByLayer
370
18
48
1
60
0
100
AcDbCircle
39
0
10
472.8
20
11.699495
30
0
40
0.2
210
0
220
0
230
1
100
AcDbArc
50
0
51
90
0
ARC
5
161
100
AcDbEntity
8
1
62
256
6
ByLayer
370
18
48
1
60
0
100
AcDbCircle
39
0
10
472.8
20
18.099495
30
0
40
0.2
210
0
220
0
230
1
100
AcDbArc
50
270
51
0
0
ARC
5
162
100
AcDbEntity
8
1
62
256
6
ByLayer
370
18
48
1
60
0
100
AcDbCircle
39
0
10
478.4
20
10.499495
30
0
40
0.6
210
0
220
0
230
1
100
AcDbArc
50
270
51
360
0
ARC
5
163
100
AcDbEntity
8
1
62
256
6
ByLayer
370
18
48
1
60
0
100
AcDbCircle
39
0
10
478.4
20
19.299495
30
0
40
0.6
210
0
220
0
230
1
100
AcDbArc
50
360
51
90
0
ELLIPSE
5
164
100
AcDbEntity
8
1
62
256
6
ByLayer
370
18
48
1
60
0
100
AcDbEllipse
10
-1.056258
20
0
30
0
11
11.7092723497265
21
24.6771864409367
31
0
210
0
220
0
230
1
40
0.341999
41
-1.0818327004893
42
-0.16721307190899
0
ELLIPSE
5
165
100
AcDbEntity
8
1
62
256
6
ByLayer
370
18
48
1
60
0
100
AcDbEllipse
10
21.056258
20
0
30
0
11
11.7092723497269
21
-24.6771864409368
31
0
210
0
220
0
230
1
40
0.341999
41
-2.97437958168081
42
-2.05975995310051
0
ELLIPSE
5
166
100
AcDbEntity
8
1
62
256
6
ByLayer
370
18
48
1
60
0
100
AcDbEllipse
10
21.056258
20
0
30
0
11
11.7092723497277
21
24.6771864409379
31
0
210
0
220
0
230
1
40
0.341999
41
2.05975995310054
42
2.97437958168082
0
ELLIPSE
5
167
100
AcDbEntity
8
1
62
256
6
ByLayer
370
18
48
1
60
0
100
AcDbEllipse
10
-1.056258
20
0
30
0
11
11.7092723497272
21
-24.6771864409375
31
0
210
0
220
0
230
1
40
0.341999
41
0.167213071908985
42
1.08183270048928
0
ELLIPSE
5
168
100
AcDbEntity
8
1
62
256
6
ByLayer
370
13
48
1
60
0
100
AcDbEllipse
10
466.5
20
22.975
30
0
11
0.5
21
0
31
0
210
0
220
0
230
1
40
0.876829
41
-2.61524846552589
42
-1.5707963267949
0
POINT
5
70
100
AcDbEntity
8
2
62
256
6
ByLayer
370
18
48
1
60
0
100
AcDbPoint
10
469
20
14.899495
30
0
39
0
210
0
220
0
230
1
50
360
0
POINT
5
72
100
AcDbEntity
8
2
62
256
6
ByLayer
370
18
48
1
60
0
100
AcDbPoint
10
473
20
14.899495
30
0
39
0
210
0
220
0
230
1
50
360
0
POINT
5
73
100
AcDbEntity
8
2
62
256
6
ByLayer
370
18
48
1
60
0
100
AcDbPoint
10
469
20
-4.899495
30
0
39
0
210
0
220
0
230
1
50
360
0
POINT
5
74
100
AcDbEntity
8
2
62
256
6
ByLayer
370
18
48
1
60
0
100
AcDbPoint
10
357.2
20
17
30
0
39
0
210
0
220
0
230
1
50
360
0
POINT
5
75
100
AcDbEntity
8
2
62
256
6
ByLayer
370
18
48
1
60
0
100
AcDbPoint
10
448
20
0
30
0
39
0
210
0
220
0
230
1
50
360
0
POINT
5
76
100
AcDbEntity
8
2
62
256
6
ByLayer
370
18
48
1
60
0
100
AcDbPoint
10
455
20
0
30
0
39
0
210
0
220
0
230
1
50
360
0
POINT
5
77
100
AcDbEntity
8
2
62
256
6
ByLayer
370
18
48
1
60
0
100
AcDbPoint
10
473
20
14.899495
30
0
39
0
210
0
220
0
230
1
50
360
0
POINT
5
78
100
AcDbEntity
8
2
62
256
6
ByLayer
370
18
48
1
60
0
100
AcDbPoint
10
455
20
0
30
0
39
0
210
0
220
0
230
1
50
360
0
POINT
5
79
100
AcDbEntity
8
2
62
256
6
ByLayer
370
18
48
1
60
0
100
AcDbPoint
10
336
20
0
30
0
39
0
210
0
220
0
230
1
50
360
0
POINT
5
7A
100
AcDbEntity
8
2
62
256
6
ByLayer
370
18
48
1
60
0
100
AcDbPoint
10
395.5
20
0
30
0
39
0
210
0
220
0
230
1
50
360
0
POINT
5
7B
100
AcDbEntity
8
2
62
256
6
ByLayer
370
18
48
1
60
0
100
AcDbPoint
10
465.37476
20
5
30
0
39
0
210
0
220
0
230
1
50
360
0
POINT
5
7C
100
AcDbEntity
8
2
62
256
6
ByLayer
370
18
48
1
60
0
100
AcDbPoint
10
331.1
20
0
30
0
39
0
210
0
220
0
230
1
50
360
0
POINT
5
7D
100
AcDbEntity
8
2
62
256
6
ByLayer
370
18
48
1
60
0
100
AcDbPoint
10
335.3
20
0
30
0
39
0
210
0
220
0
230
1
50
360
0
POINT
5
7E
100
AcDbEntity
8
2
62
256
6
ByLayer
370
18
48
1
60
0
100
AcDbPoint
10
340
20
0
30
0
39
0
210
0
220
0
230
1
50
360
0
POINT
5
7F
100
AcDbEntity
8
2
62
256
6
ByLayer
370
18
48
1
60
0
100
AcDbPoint
10
335.55
20
0
30
0
39
0
210
0
220
0
230
1
50
360
0
POINT
5
80
100
AcDbEntity
8
2
62
256
6
ByLayer
370
18
48
1
60
0
100
AcDbPoint
10
339.5
20
0
30
0
39
0
210
0
220
0
230
1
50
360
0
POINT
5
81
100
AcDbEntity
8
2
62
256
6
ByLayer
370
18
48
1
60
0
100
AcDbPoint
10
331.1
20
0
30
0
39
0
210
0
220
0
230
1
50
360
0
POINT
5
82
100
AcDbEntity
8
2
62
256
6
ByLayer
370
18
48
1
60
0
100
AcDbPoint
10
430.8
20
17
30
0
39
0
210
0
220
0
230
1
50
360
0
POINT
5
83
100
AcDbEntity
8
2
62
256
6
ByLayer
370
18
48
1
60
0
100
AcDbPoint
10
469
20
-4.899495
30
0
39
0
210
0
220
0
230
1
50
360
0
POINT
5
84
100
AcDbEntity
8
2
62
256
6
ByLayer
370
18
48
1
60
0
100
AcDbPoint
10
448
20
0
30
0
39
0
210
0
220
0
230
1
50
360
0
POINT
5
85
100
AcDbEntity
8
2
62
256
6
ByLayer
370
18
48
1
60
0
100
AcDbPoint
10
340
20
0
30
0
39
0
210
0
220
0
230
1
50
360
0
POINT
5
86
100
AcDbEntity
8
2
62
256
6
ByLayer
370
18
48
1
60
0
100
AcDbPoint
10
448
20
0
30
0
39
0
210
0
220
0
230
1
50
360
0
POINT
5
87
100
AcDbEntity
8
2
62
256
6
ByLayer
370
18
48
1
60
0
100
AcDbPoint
10
443.4
20
0
30
0
39
0
210
0
220
0
230
1
50
360
0
POINT
5
88
100
AcDbEntity
8
2
62
256
6
ByLayer
370
18
48
1
60
0
100
AcDbPoint
10
394
20
0
30
0
39
0
210
0
220
0
230
1
50
360
0
POINT
5
89
100
AcDbEntity
8
2
62
256
6
ByLayer
370
18
48
1
60
0
100
AcDbPoint
10
344.6
20
0
30
0
39
0
210
0
220
0
230
1
50
360
0
POINT
5
8A
100
AcDbEntity
8
2
62
256
6
ByLayer
370
18
48
1
60
0
100
AcDbPoint
10
430.8
20
17
30
0
39
0
210
0
220
0
230
1
50
360
0
POINT
5
8B
100
AcDbEntity
8
2
62
256
6
ByLayer
370
18
48
1
60
0
100
AcDbPoint
10
340
20
0
30
0
39
0
210
0
220
0
230
1
50
360
0
POINT
5
8C
100
AcDbEntity
8
2
62
256
6
ByLayer
370
18
48
1
60
0
100
AcDbPoint
10
357.2
20
17
30
0
39
0
210
0
220
0
230
1
50
360
0
POINT
5
8D
100
AcDbEntity
8
2
62
256
6
ByLayer
370
18
48
1
60
0
100
AcDbPoint
10
455
20
0
30
0
39
0
210
0
220
0
230
1
50
360
0
POINT
5
8E
100
AcDbEntity
8
2
62
256
6
ByLayer
370
18
48
1
60
0
100
AcDbPoint
10
468
20
5
30
0
39
0
210
0
220
0
230
1
50
360
0
POINT
5
8F
100
AcDbEntity
8
2
62
256
6
ByLayer
370
18
48
1
60
0
100
AcDbPoint
10
440
20
0
30
0
39
0
210
0
220
0
230
1
50
360
0
POINT
5
90
100
AcDbEntity
8
2
62
256
6
ByLayer
370
18
48
1
60
0
100
AcDbPoint
10
465.37476
20
5
30
0
39
0
210
0
220
0
230
1
50
360
0
POINT
5
91
100
AcDbEntity
8
2
62
256
6
ByLayer
370
18
48
1
60
0
100
AcDbPoint
10
468
20
5
30
0
39
0
210
0
220
0
230
1
50
360
0
POINT
5
92
100
AcDbEntity
8
2
62
256
6
ByLayer
370
18
48
1
60
0
100
AcDbPoint
10
464
20
0
30
0
39
0
210
0
220
0
230
1
50
360
0
POINT
5
93
100
AcDbEntity
8
2
62
256
6
ByLayer
370
50
48
1
60
0
100
AcDbPoint
10
448.5
20
0
30
0
39
0
210
0
220
0
230
1
50
360
0
POINT
5
94
100
AcDbEntity
8
2
62
256
6
ByLayer
370
18
48
1
60
0
100
AcDbPoint
10
448
20
0
30
0
39
0
210
0
220
0
230
1
50
360
0
POINT
5
95
100
AcDbEntity
8
2
62
256
6
ByLayer
370
50
48
1
60
0
100
AcDbPoint
10
473
20
0
30
0
39
0
210
0
220
0
230
1
50
360
0
POINT
5
96
100
AcDbEntity
8
2
62
256
6
ByLayer
370
18
48
1
60
0
100
AcDbPoint
10
464
20
0
30
0
39
0
210
0
220
0
230
1
50
360
0
POINT
5
97
100
AcDbEntity
8
80
62
256
6
ByLayer
370
18
48
1
60
0
100
AcDbPoint
10
0
20
0
30
0
39
0
210
0
220
0
230
1
50
360
0
POINT
5
99
100
AcDbEntity
8
81
62
256
6
ByLayer
370
18
48
1
60
0
100
AcDbPoint
10
468
20
5
30
0
39
0
210
0
220
0
230
1
50
360
0
SPLINE
5
169
100
AcDbEntity
8
1
62
256
6
ByLayer
370
18
48
1
60
0
100
AcDbSpline
70
4
71
3
72
26
73
22
40
0
40
0
40
0
40
0
40
0.0624999999999861
40
0.0624999999999861
40
0.093749999999983
40
0.093749999999983
40
0.12499999999998
40
0.12499999999998
40
0.249999999999978
40
0.249999999999978
40
0.374999999999976
40
0.374999999999976
40
0.437499999999977
40
0.437499999999977
40
0.499999999999978
40
0.499999999999978
40
0.62499999999998
40
0.62499999999998
40
0.749999999999984
40
0.749999999999984
40
1
40
1
40
1
40
1
41
1
10
11.4613248654053
20
23.8391299750502
30
0
41
1
10
11.47720131202
20
23.8391299750502
30
0
41
1
10
11.4927843117433
20
23.8386381480422
30
0
41
1
10
11.5157579869924
20
23.8372273769847
30
0
41
1
10
11.5233488813097
20
23.8366445991221
30
0
41
1
10
11.5384012334118
20
23.8352611656444
30
0
41
1
10
11.5458956692736
20
23.8344558067494
30
0
41
1
10
11.5824040005112
20
23.8299833264008
30
0
41
1
10
11.6089650834004
20
23.8249896713849
30
0
41
1
10
11.6582924559949
20
23.8130059693789
30
0
41
1
10
11.6801688454704
20
23.8062336877525
30
0
41
1
10
11.7102266942347
20
23.7952700628808
30
0
41
1
10
11.7197736129841
20
23.7914778883489
30
0
41
1
10
11.7380555263964
20
23.7836514357394
30
0
41
1
10
11.7468017366173
20
23.7796095569562
30
0
41
1
10
11.7716769242358
20
23.7673085978343
30
0
41
1
10
11.7865761040499
20
23.7588292909636
30
0
41
1
10
11.8138519277099
20
23.7414211400326
30
0
41
1
10
11.8262196262292
20
23.7324910902464
30
0
41
1
10
11.8602443227468
20
23.7051129235881
30
0
41
1
10
11.8788862370738
20
23.686033116806
30
0
41
1
10
11.8943375672976
20
23.6665017920808
30
0
0
SPLINE
5
16A
100
AcDbEntity
8
1
62
256
6
ByLayer
370
18
48
1
60
0
100
AcDbSpline
70
4
71
3
72
30
73
26
40
0
40
0
40
0
40
0
40
0.249999999999991
40
0.249999999999991
40
0.374999999999989
40
0.374999999999989
40
0.437499999999986
40
0.437499999999986
40
0.499999999999983
40
0.499999999999983
40
0.624999999999982
40
0.624999999999982
40
0.687499999999979
40
0.687499999999979
40
0.749999999999977
40
0.749999999999977
40
0.812499999999975
40
0.812499999999975
40
0.843749999999977
40
0.843749999999977
40
0.874999999999979
40
0.874999999999979
40
0.937499999999989
40
0.937499999999989
40
1
40
1
40
1
40
1
41
1
10
11.8943375672974
20
8.05584836782785
30
0
41
1
10
11.878892303015
20
7.99849169434924
30
0
41
1
10
11.8604037172645
20
7.94218253951269
30
0
41
1
10
11.8264575712213
20
7.8599101249543
30
0
41
1
10
11.8140962699691
20
7.83285506058505
30
0
41
1
10
11.7935837333005
20
7.79297622996168
30
0
41
1
10
11.7864159259844
20
7.77980127287393
30
0
41
1
10
11.7713191828915
20
7.7537248218664
30
0
41
1
10
11.7633824368151
20
7.74081492713992
30
0
41
1
10
11.7384769785308
20
7.70292805784942
30
0
41
1
10
11.7203772593317
20
7.67866353751197
30
0
41
1
10
11.6901125047558
20
7.64434849039856
30
0
41
1
10
11.6794995583259
20
7.63327217102545
30
0
41
1
10
11.6573691354905
20
7.61232137865164
30
0
41
1
10
11.6458165560481
20
7.60240297286811
30
0
41
1
10
11.6215461384039
20
7.5839002553621
30
0
41
1
10
11.6088302857938
20
7.57531366225032
30
0
41
1
10
11.5886665813883
20
7.56368345606452
30
0
41
1
10
11.5817366894218
20
7.56000567013072
30
0
41
1
10
11.5676991017995
20
7.55323657194799
30
0
41
1
10
11.5605721090664
20
7.55013193108823
30
0
41
1
10
11.5388449404601
20
7.54171396614043
30
0
41
1
10
11.5239007732522
20
7.53729092133949
30
0
41
1
10
11.4929356027574
20
7.53123335639162
30
0
41
1
10
11.4771758168221
20
7.52966679426493
30
0
41
1
10
11.4613248654053
20
7.5296667942649
30
0
0
SPLINE
5
16B
100
AcDbEntity
8
1
62
256
6
ByLayer
370
18
48
1
60
0
100
AcDbSpline
70
4
71
3
72
26
73
22
40
0
40
0
40
0
40
0
40
0.0624999999999966
40
0.0624999999999966
40
0.093749999999995
40
0.093749999999995
40
0.124999999999993
40
0.124999999999993
40
0.249999999999984
40
0.249999999999984
40
0.374999999999974
40
0.374999999999974
40
0.437499999999972
40
0.437499999999972
40
0.499999999999971
40
0.499999999999971
40
0.624999999999977
40
0.624999999999977
40
0.749999999999983
40
0.749999999999983
40
1
40
1
40
1
40
1
41
1
10
8.5386751345949
20
7.52966679426518
30
0
41
1
10
8.5227986879802
20
7.52966679426518
30
0
41
1
10
8.50721568825685
20
7.53122440152961
30
0
41
1
10
8.48424201300782
20
7.53568798536668
30
0
41
1
10
8.47665111869046
20
7.53753139400646
30
0
41
1
10
8.46159876658844
20
7.54190496002266
30
0
41
1
10
8.45410433072657
20
7.54444995843582
30
0
41
1
10
8.41759599948902
20
7.55857361750117
30
0
41
1
10
8.39103491659978
20
7.57431556968123
30
0
41
1
10
8.34170754400525
20
7.61190750686276
30
0
41
1
10
8.31983115452981
20
7.63307325241215
30
0
41
1
10
8.28977330576544
20
7.66715495165656
30
0
41
1
10
8.28022638701604
20
7.67891539799635
30
0
41
1
10
8.26194447360371
20
7.70312184666886
30
0
41
1
10
8.25319826338287
20
7.71559105034078
30
0
41
1
10
8.22832307576434
20
7.75343444963912
30
0
41
1
10
8.21342389595027
20
7.77938351245618
30
0
41
1
10
8.18614807229021
20
7.83234954293013
30
0
41
1
10
8.17378037377098
20
7.85937042586593
30
0
41
1
10
8.13975567725338
20
7.94172327888199
30
0
41
1
10
8.1211137629263
20
7.99846916820715
30
0
41
1
10
8.10566243270256
20
8.05584836782779
30
0
0
SPLINE
5
16C
100
AcDbEntity
8
1
62
256
6
ByLayer
370
18
48
1
60
0
100
AcDbSpline
70
4
71
3
72
30
73
26
40
0
40
0
40
0
40
0
40
0.249999999999994
40
0.249999999999994
40
0.374999999999993
40
0.374999999999993
40
0.437499999999994
40
0.437499999999994
40
0.499999999999995
40
0.499999999999995
40
0.624999999999999
40
0.624999999999999
40
0.687500000000001
40
0.687500000000001
40
0.750000000000003
40
0.750000000000003
40
0.812500000000005
40
0.812500000000005
40
0.843750000000003
40
0.843750000000003
40
0.875000000000001
40
0.875000000000001
40
0.9375
40
0.9375
40
1
40
1
40
1
40
1
41
1
10
8.10566243270277
20
23.6665017920808
30
0
41
1
10
8.12110769698518
20
23.6860254491251
30
0
41
1
10
8.1395962827356
20
23.704958919593
30
0
41
1
10
8.17354242877889
20
23.7323123198156
30
0
41
1
10
8.18590373003104
20
23.7412544902041
30
0
41
1
10
8.20641626669965
20
23.7543620682906
30
0
41
1
10
8.21358407401574
20
23.7586801045418
30
0
41
1
10
8.22868081710863
20
23.7672030231185
30
0
41
1
10
8.23661756318505
20
23.7714105724814
30
0
41
1
10
8.2615230214693
20
23.7837256270429
30
0
41
1
10
8.2796227406685
20
23.7915679133937
30
0
41
1
10
8.30988749524438
20
23.8026065911346
30
0
41
1
10
8.32050044167428
20
23.8061604830514
30
0
41
1
10
8.34263086450964
20
23.812868038308
30
0
41
1
10
8.35418344395202
20
23.816035844018
30
0
41
1
10
8.3784538615963
20
23.8219342456095
30
0
41
1
10
8.39116971420638
20
23.8246655611124
30
0
41
1
10
8.41133341861186
20
23.8283593459881
30
0
41
1
10
8.4182633105784
20
23.8295263669799
30
0
41
1
10
8.43230089820068
20
23.8316728303992
30
0
41
1
10
8.43942789093381
20
23.8326565134121
30
0
41
1
10
8.4611550595401
20
23.8353222152631
30
0
41
1
10
8.476099226748
20
23.8367207404254
30
0
41
1
10
8.50706439724283
20
23.8386353263249
30
0
41
1
10
8.52282418317812
20
23.8391299750504
30
0
41
1
10
8.5386751345949
20
23.8391299750504
30
0
0
SPLINE
5
16D
100
AcDbEntity
8
1
62
256
6
ByLayer
370
18
48
1
60
0
100
AcDbSpline
70
4
71
3
72
26
73
22
40
0
40
0
40
0
40
0
40
0.0625000000000005
40
0.0625000000000005
40
0.0937499999999977
40
0.0937499999999977
40
0.124999999999995
40
0.124999999999995
40
0.249999999999996
40
0.249999999999996
40
0.374999999999997
40
0.374999999999997
40
0.437499999999997
40
0.437499999999997
40
0.499999999999998
40
0.499999999999998
40
0.625000000000002
40
0.625000000000002
40
0.750000000000003
40
0.750000000000003
40
1
40
1
40
1
40
1
41
1
10
8.53867513459478
20
-23.8391299750503
30
0
41
1
10
8.52279868798007
20
-23.8391299750503
30
0
41
1
10
8.50721568825672
20
-23.8386381480423
30
0
41
1
10
8.48424201300769
20
-23.8372273769848
30
0
41
1
10
8.47665111869033
20
-23.8366445991222
30
0
41
1
10
8.46159876658831
20
-23.8352611656445
30
0
41
1
10
8.45410433072644
20
-23.8344558067495
30
0
41
1
10
8.41759599948891
20
-23.8299833264009
30
0
41
1
10
8.39103491659966
20
-23.8249896713849
30
0
41
1
10
8.34170754400513
20
-23.813005969379
30
0
41
1
10
8.31983115452968
20
-23.8062336877526
30
0
41
1
10
8.28977330576532
20
-23.7952700628808
30
0
41
1
10
8.28022638701593
20
-23.791477888349
30
0
41
1
10
8.26194447360358
20
-23.7836514357396
30
0
41
1
10
8.25319826338274
20
-23.7796095569563
30
0
41
1
10
8.22832307576421
20
-23.7673085978344
30
0
41
1
10
8.21342389595016
20
-23.7588292909636
30
0
41
1
10
8.18614807229008
20
-23.7414211400327
30
0
41
1
10
8.17378037377087
20
-23.7324910902464
30
0
41
1
10
8.13975567725326
20
-23.7051129235882
30
0
41
1
10
8.12111376292617
20
-23.6860331168061
30
0
41
1
10
8.10566243270243
20
-23.6665017920809
30
0
0
SPLINE
5
16E
100
AcDbEntity
8
1
62
256
6
ByLayer
370
18
48
1
60
0
100
AcDbSpline
70
4
71
3
72
30
73
26
40
0
40
0
40
0
40
0
40
0.249999999999998
40
0.249999999999998
40
0.374999999999999
40
0.374999999999999
40
0.437499999999999
40
0.437499999999999
40
0.5
40
0.5
40
0.624999999999994
40
0.624999999999994
40
0.687499999999989
40
0.687499999999989
40
0.749999999999984
40
0.749999999999984
40
0.812499999999979
40
0.812499999999979
40
0.843749999999979
40
0.843749999999979
40
0.87499999999998
40
0.87499999999998
40
0.93749999999999
40
0.93749999999999
40
1
40
1
40
1
40
1
41
1
10
8.10566243270264
20
-8.05584836782791
30
0
41
1
10
8.12110769698505
20
-7.9984916943493
30
0
41
1
10
8.13959628273547
20
-7.94218253951271
30
0
41
1
10
8.17354242877877
20
-7.85991012495433
30
0
41
1
10
8.18590373003093
20
-7.83285506058508
30
0
41
1
10
8.20641626669953
20
-7.79297622996168
30
0
41
1
10
8.21358407401561
20
-7.77980127287395
30
0
41
1
10
8.2286808171085
20
-7.75372482186643
30
0
41
1
10
8.23661756318494
20
-7.74081492713992
30
0
41
1
10
8.26152302146919
20
-7.70292805784942
30
0
41
1
10
8.27962274066839
20
-7.67866353751197
30
0
41
1
10
8.30988749524425
20
-7.64434849039856
30
0
41
1
10
8.32050044167416
20
-7.63327217102548
30
0
41
1
10
8.34263086450952
20
-7.61232137865164
30
0
41
1
10
8.35418344395191
20
-7.60240297286811
30
0
41
1
10
8.37845386159619
20
-7.58390025536212
30
0
41
1
10
8.39116971420626
20
-7.57531366225032
30
0
41
1
10
8.41133341861173
20
-7.56368345606452
30
0
41
1
10
8.41826331057828
20
-7.56000567013075
30
0
41
1
10
8.43230089820057
20
-7.55323657194799
30
0
41
1
10
8.43942789093369
20
-7.55013193108823
30
0
41
1
10
8.46115505953999
20
-7.54171396614046
30
0
41
1
10
8.47609922674788
20
-7.53729092133949
30
0
41
1
10
8.5070643972427
20
-7.53123335639162
30
0
41
1
10
8.52282418317802
20
-7.52966679426493
30
0
41
1
10
8.53867513459478
20
-7.52966679426493
30
0
0
SPLINE
5
16F
100
AcDbEntity
8
1
62
256
6
ByLayer
370
18
48
1
60
0
100
AcDbSpline
70
4
71
3
72
26
73
22
40
0
40
0
40
0
40
0
40
0.062500000000004
40
0.062500000000004
40
0.0937500000000052
40
0.0937500000000052
40
0.125000000000006
40
0.125000000000006
40
0.250000000000012
40
0.250000000000012
40
0.375000000000017
40
0.375000000000017
40
0.437500000000019
40
0.437500000000019
40
0.50000000000002
40
0.50000000000002
40
0.625000000000013
40
0.625000000000013
40
0.750000000000006
40
0.750000000000006
40
1
40
1
40
1
40
1
41
1
10
11.4613248654052
20
-7.5296667942653
30
0
41
1
10
11.4772013120199
20
-7.5296667942653
30
0
41
1
10
11.4927843117432
20
-7.53122440152973
30
0
41
1
10
11.5157579869922
20
-7.53568798536679
30
0
41
1
10
11.5233488813096
20
-7.53753139400658
30
0
41
1
10
11.5384012334116
20
-7.54190496002278
30
0
41
1
10
11.5458956692735
20
-7.54444995843593
30
0
41
1
10
11.582404000511
20
-7.55857361750128
30
0
41
1
10
11.6089650834002
20
-7.57431556968132
30
0
41
1
10
11.6582924559948
20
-7.61190750686285
30
0
41
1
10
11.6801688454702
20
-7.63307325241223
30
0
41
1
10
11.7102266942346
20
-7.66715495165664
30
0
41
1
10
11.719773612984
20
-7.67891539799641
30
0
41
1
10
11.7380555263963
20
-7.70312184666895
30
0
41
1
10
11.7468017366171
20
-7.71559105034083
30
0
41
1
10
11.7716769242357
20
-7.75343444963917
30
0
41
1
10
11.7865761040497
20
-7.77938351245623
30
0
41
1
10
11.8138519277098
20
-7.83234954293016
30
0
41
1
10
11.826219626229
20
-7.85937042586596
30
0
41
1
10
11.8602443227466
20
-7.94172327888202
30
0
41
1
10
11.8788862370737
20
-7.99846916820727
30
0
41
1
10
11.8943375672975
20
-8.05584836782791
30
0
0
SPLINE
5
170
100
AcDbEntity
8
1
62
256
6
ByLayer
370
18
48
1
60
0
100
AcDbSpline
70
4
71
3
72
30
73
26
40
0
40
0
40
0
40
0
40
0.249999999999998
40
0.249999999999998
40
0.374999999999996
40
0.374999999999996
40
0.437499999999996
40
0.437499999999996
40
0.499999999999995
40
0.499999999999995
40
0.624999999999996
40
0.624999999999996
40
0.687499999999998
40
0.687499999999998
40
0.749999999999999
40
0.749999999999999
40
0.8125
40
0.8125
40
0.84375
40
0.84375
40
0.875000000000001
40
0.875000000000001
40
0.937500000000001
40
0.937500000000001
40
1
40
1
40
1
40
1
41
1
10
11.8943375672972
20
-23.6665017920809
30
0
41
1
10
11.8788923030148
20
-23.6860254491252
30
0
41
1
10
11.8604037172644
20
-23.7049589195931
30
0
41
1
10
11.8264575712211
20
-23.7323123198157
30
0
41
1
10
11.814096269969
20
-23.7412544902042
30
0
41
1
10
11.7935837333004
20
-23.7543620682907
30
0
41
1
10
11.7864159259843
20
-23.7586801045418
30
0
41
1
10
11.7713191828914
20
-23.7672030231186
30
0
41
1
10
11.763382436815
20
-23.7714105724815
30
0
41
1
10
11.7384769785307
20
-23.7837256270429
30
0
41
1
10
11.7203772593315
20
-23.7915679133937
30
0
41
1
10
11.6901125047556
20
-23.8026065911347
30
0
41
1
10
11.6794995583257
20
-23.8061604830515
30
0
41
1
10
11.6573691354904
20
-23.8128680383081
30
0
41
1
10
11.645816556048
20
-23.8160358440181
30
0
41
1
10
11.6215461384037
20
-23.8219342456095
30
0
41
1
10
11.6088302857937
20
-23.8246655611125
30
0
41
1
10
11.5886665813882
20
-23.8283593459882
30
0
41
1
10
11.5817366894216
20
-23.8295263669799
30
0
41
1
10
11.5676991017994
20
-23.8316728303992
30
0
41
1
10
11.5605721090662
20
-23.8326565134122
30
0
41
1
10
11.5388449404599
20
-23.8353222152631
30
0
41
1
10
11.523900773252
20
-23.8367207404254
30
0
41
1
10
11.4929356027572
20
-23.838635326325
30
0
41
1
10
11.4771758168219
20
-23.8391299750505
30
0
41
1
10
11.4613248654052
20
-23.8391299750505
30
0
0
SPLINE
5
171
100
AcDbEntity
8
SK1
62
256
6
ByLayer
370
18
48
1
60
0
100
AcDbSpline
70
4
71
3
72
45
73
41
40
0
40
0
40
0
40
0
40
0.023694308406506
40
0.0517123121015246
40
0.0797303157965431
40
0.107748319491562
40
0.163784326881599
40
0.219820334271636
40
0.247838337966654
40
0.275856341661673
40
0.303874345356691
40
0.33189234905171
40
0.359910352746729
40
0.387928356441747
40
0.415946360136766
40
0.429955361984275
40
0.443964363831784
40
0.471982367526803
40
0.485991369374312
40
0.492995870298067
40
0.500000371221821
40
0.507004872145576
40
0.51400937306933
40
0.52801837491684
40
0.556036378611858
40
0.570045380459367
40
0.584054382306877
40
0.612072386001895
40
0.640090389696914
40
0.668108393391932
40
0.696126397086951
40
0.72414440078197
40
0.752162404476988
40
0.780180408172007
40
0.836216415562044
40
0.892252422952081
40
0.920270426647099
40
0.948288430342118
40
0.976306434037136
40
1
40
1
40
1
40
1
41
1
10
-30.0000000000001
20
-15.9931892289493
30
0
41
1
10
-30.0000000000001
20
-15.9976541759382
30
0
41
1
10
-30.0000000000001
20
-15.9670776542371
30
0
41
1
10
-30.0000000000001
20
-15.7965331178348
30
0
41
1
10
-30.0000000000001
20
-15.4890632796304
30
0
41
1
10
-30.0000000000001
20
-14.9202435431777
30
0
41
1
10
-30
20
-13.943032723557
30
0
41
1
10
-30
20
-12.645067835693
30
0
41
1
10
-30
20
-11.4213703621899
30
0
41
1
10
-30
20
-10.4224345134303
30
0
41
1
10
-30
20
-9.34179268341296
30
0
41
1
10
-30
20
-8.18272261240918
30
0
41
1
10
-30
20
-6.94914665451265
30
0
41
1
10
-30
20
-5.64597210397014
30
0
41
1
10
-30
20
-4.51272453462835
30
0
41
1
10
-30
20
-3.56968201835684
30
0
41
1
10
-30
20
-2.61530592334955
30
0
41
1
10
-30
20
-1.67591474804144
30
0
41
1
10
-30
20
-0.833341855678839
30
0
41
1
10
-30
20
-0.354131622770325
30
0
41
1
10
-30
20
4.002278899E-07
30
0
41
1
10
-30
20
0.354131996183867
30
0
41
1
10
-30
20
0.833341540478585
30
0
41
1
10
-30
20
1.67591488034611
30
0
41
1
10
-30
20
2.61530613672127
30
0
41
1
10
-30
20
3.56968220154863
30
0
41
1
10
-30
20
4.51272494557492
30
0
41
1
10
-30
20
5.64597176408029
30
0
41
1
10
-30
20
6.9491470426357
30
0
41
1
10
-30
20
8.18272269843553
30
0
41
1
10
-30
20
9.34179238961883
30
0
41
1
10
-30
20
10.4224348167647
30
0
41
1
10
-30
20
11.421370391299
30
0
41
1
10
-29.9999999999999
20
12.6450674903884
30
0
41
1
10
-29.9999999999999
20
13.9430330734597
30
0
41
1
10
-29.9999999999999
20
14.9202427964399
30
0
41
1
10
-29.9999999999999
20
15.4890634139889
30
0
41
1
10
-29.9999999999999
20
15.7965327535814
30
0
41
1
10
-29.9999999999999
20
15.9670755073527
30
0
41
1
10
-29.9999999999999
20
15.9976531612384
30
0
41
1
10
-29.9999999999999
20
15.993189537597
30
0
0
SPLINE
5
172
100
AcDbEntity
8
SK1
62
256
6
ByLayer
370
18
48
1
60
0
100
AcDbSpline
70
4
71
3
72
38
73
34
40
0
40
0
40
0
40
0
40
0.249999999999998
40
0.249999999999998
40
0.375000000000001
40
0.375000000000001
40
0.500000000000003
40
0.500000000000003
40
0.625000000000006
40
0.625000000000006
40
0.687500000000004
40
0.687500000000004
40
0.750000000000002
40
0.750000000000002
40
0.8125
40
0.8125
40
0.843749999999999
40
0.843749999999999
40
0.874999999999998
40
0.874999999999998
40
0.906249999999997
40
0.906249999999997
40
0.921874999999998
40
0.921874999999998
40
0.937499999999998
40
0.937499999999998
40
0.953124999999999
40
0.953124999999999
40
0.968749999999999
40
0.968749999999999
40
0.984375
40
0.984375
40
1
40
1
40
1
40
1
41
1
10
-0.200000000000031
20
-6.07843116862739
30
0
41
1
10
-0.200329859654758
20
-6.01357702681145
30
0
41
1
10
-0.201930655445125
20
-5.94848814748187
30
0
41
1
10
-0.207062820514764
20
-5.85044931358604
30
0
41
1
10
-0.209234214279547
20
-5.81770188154789
30
0
41
1
10
-0.214779228537822
20
-5.7520569459719
30
0
41
1
10
-0.218149341071367
20
-5.71913713924792
30
0
41
1
10
-0.226581907125819
20
-5.65322539656964
30
0
41
1
10
-0.23161643342155
20
-5.620292949023
30
0
41
1
10
-0.241184891539987
20
-5.57099638970087
30
0
41
1
10
-0.244723140953283
20
-5.55455058376108
30
0
41
1
10
-0.252718404682383
20
-5.52188785992811
30
0
41
1
10
-0.257164394743967
20
-5.50568135296518
30
0
41
1
10
-0.267422418729069
20
-5.47365965349914
30
0
41
1
10
-0.273206407019245
20
-5.45783596374676
30
0
41
1
10
-0.283724888362059
20
-5.43464123738514
30
0
41
1
10
-0.287542348293513
20
-5.42700107315446
30
0
41
1
10
-0.296164698039107
20
-5.41201401791534
30
0
41
1
10
-0.301003751719023
20
-5.4046119981478
30
0
41
1
10
-0.312019326339566
20
-5.39094692539047
30
0
41
1
10
-0.318249907556009
20
-5.3846016561252
30
0
41
1
10
-0.328982330604305
20
-5.37709874944116
30
0
41
1
10
-0.332865959292448
20
-5.37490714744831
30
0
41
1
10
-0.340905624745275
20
-5.37162929612282
30
0
41
1
10
-0.345153788553759
20
-5.37051023807425
30
0
41
1
10
-0.353672033871206
20
-5.36955188220813
30
0
41
1
10
-0.357904387099637
20
-5.36969675293608
30
0
41
1
10
-0.366271728735995
20
-5.37110702101791
30
0
41
1
10
-0.370241250613844
20
-5.37233602993433
30
0
41
1
10
-0.377868038063724
20
-5.37555831609177
30
0
41
1
10
-0.381539373885118
20
-5.37756780385982
30
0
41
1
10
-0.388473887026279
20
-5.38206549938215
30
0
41
1
10
-0.391760928947534
20
-5.3845619683195
30
0
41
1
10
-0.394913799811306
20
-5.38724256160015
30
0
0
SPLINE
5
173
100
AcDbEntity
8
SK1
62
256
6
ByLayer
370
18
48
1
60
0
100
AcDbSpline
70
4
71
3
72
38
73
34
40
0
40
0
40
0
40
0
40
0.0156249999999985
40
0.0156249999999985
40
0.031249999999997
40
0.031249999999997
40
0.0468749999999954
40
0.0468749999999954
40
0.0624999999999939
40
0.0624999999999939
40
0.0781249999999924
40
0.0781249999999924
40
0.0937499999999909
40
0.0937499999999909
40
0.124999999999989
40
0.124999999999989
40
0.156249999999988
40
0.156249999999988
40
0.187499999999987
40
0.187499999999987
40
0.249999999999987
40
0.249999999999987
40
0.312499999999986
40
0.312499999999986
40
0.374999999999986
40
0.374999999999986
40
0.499999999999989
40
0.499999999999989
40
0.624999999999992
40
0.624999999999992
40
0.749999999999995
40
0.749999999999995
40
1
40
1
40
1
40
1
41
1
10
-0.394913799809089
20
5.38724490303883
30
0
41
1
10
-0.39178183295067
20
5.38458208568073
30
0
41
1
10
-0.388519962703782
20
5.3821033059937
30
0
41
1
10
-0.381650196472492
20
5.37763658736256
30
0
41
1
10
-0.378006935713074
20
5.375632334519
30
0
41
1
10
-0.37042357919718
20
5.37240298219777
30
0
41
1
10
-0.366503702076443
20
5.37117873901857
30
0
41
1
10
-0.358331183030103
20
5.36974313779842
30
0
41
1
10
-0.35401586551319
20
5.36955368909108
30
0
41
1
10
-0.345568573158786
20
5.37043109064084
30
0
41
1
10
-0.341321667103003
20
5.37150405183556
30
0
41
1
10
-0.333263890221929
20
5.37470929745368
30
0
41
1
10
-0.329419339218248
20
5.37683593115611
30
0
41
1
10
-0.318577749103355
20
5.38430052549947
30
0
41
1
10
-0.312400979321524
20
5.3905410449475
30
0
41
1
10
-0.301354650858116
20
5.40411801099182
30
0
41
1
10
-0.296591327986164
20
5.41134235290909
30
0
41
1
10
-0.287922394076205
20
5.42628126698924
30
0
41
1
10
-0.284017391060829
20
5.43403466061338
30
0
41
1
10
-0.273296210573378
20
5.45757128507671
30
0
41
1
10
-0.267463037667539
20
5.47353830586394
30
0
41
1
10
-0.257144178245866
20
5.50574351678881
30
0
41
1
10
-0.252692130238927
20
5.52198910291142
30
0
41
1
10
-0.244699800125943
20
5.55465646091182
30
0
41
1
10
-0.241167183894689
20
5.57107991706769
30
0
41
1
10
-0.231573562776489
20
5.6205357075076
30
0
41
1
10
-0.226533735280668
20
5.65356559342112
30
0
41
1
10
-0.218124597314059
20
5.71937115218196
30
0
41
1
10
-0.214765406462959
20
5.75220767186599
30
0
41
1
10
-0.20923073586448
20
5.81775962891592
30
0
41
1
10
-0.20706153420231
20
5.85047499196546
30
0
41
1
10
-0.201932717755398
20
5.94845143863401
30
0
41
1
10
-0.200330038101555
20
6.01354333629556
30
0
41
1
10
-0.199999999999974
20
6.0784324458115
30
0
0
SPLINE
5
174
100
AcDbEntity
8
SK1
62
256
6
ByLayer
370
13
48
1
60
0
100
AcDbSpline
70
4
71
3
72
20
73
16
40
0
40
0
40
0
40
0
40
0.0453685402471898
40
0.113618264799547
40
0.181867989351904
40
0.250117713904261
40
0.318367438456618
40
0.386617163008975
40
0.454866887561332
40
0.591366336666046
40
0.727865785770759
40
0.796115510323116
40
0.864365234875473
40
0.93261495942783
40
1
40
1
40
1
40
1
41
1
10
-0.394913799811306
20
-5.38724256160785
30
0
41
1
10
-0.394913799811306
20
-5.7190547501427
30
0
41
1
10
-0.39491379981132
20
-6.5348354946259
30
0
41
1
10
-0.39491379981132
20
-7.7796880789966
30
0
41
1
10
-0.39491379981132
20
-9.09679923539034
30
0
41
1
10
-0.394913799811334
20
-10.3283869583107
30
0
41
1
10
-0.394913799811334
20
-11.4729576347282
30
0
41
1
10
-0.394913799811334
20
-12.5286533763275
30
0
41
1
10
-0.394913799811349
20
-13.8156305223415
30
0
41
1
10
-0.394913799811349
20
-15.1889742433629
30
0
41
1
10
-0.394913799811349
20
-16.224825355641
30
0
41
1
10
-0.394913799811349
20
-16.8259463034278
30
0
41
1
10
-0.394913799811349
20
-17.1536380024563
30
0
41
1
10
-0.394913799811363
20
-17.3456596441964
30
0
41
1
10
-0.394913799811363
20
-17.3741382160049
30
0
41
1
10
-0.394913799811391
20
-17.360218892807
30
0
0
SPLINE
5
175
100
AcDbEntity
8
SK1
62
256
6
ByLayer
370
18
48
1
60
0
100
AcDbSpline
70
4
71
3
72
50
73
46
40
0
40
0
40
0
40
0
40
0.0312500000000015
40
0.0312500000000015
40
0.0468750000000022
40
0.0468750000000022
40
0.0625000000000029
40
0.0625000000000029
40
0.0781250000000036
40
0.0781250000000036
40
0.0937500000000043
40
0.0937500000000043
40
0.109375000000005
40
0.109375000000005
40
0.125000000000006
40
0.125000000000006
40
0.140625000000006
40
0.140625000000006
40
0.156250000000007
40
0.156250000000007
40
0.187500000000007
40
0.187500000000007
40
0.218750000000006
40
0.218750000000006
40
0.250000000000006
40
0.250000000000006
40
0.281250000000005
40
0.281250000000005
40
0.312500000000005
40
0.312500000000005
40
0.375000000000004
40
0.375000000000004
40
0.437500000000003
40
0.437500000000003
40
0.500000000000001
40
0.500000000000001
40
0.625
40
0.625
40
0.6875
40
0.6875
40
0.75
40
0.75
40
0.875
40
0.875
40
1
40
1
40
1
40
1
41
1
10
-0.394913799811306
20
-5.38724256160785
30
0
41
1
10
-0.411056331481717
20
-5.40096705709072
30
0
41
1
10
-0.428167571421099
20
-5.41359596702645
30
0
41
1
10
-0.455974774655175
20
-5.43013648208
30
0
41
1
10
-0.465658214707005
20
-5.43526409556435
30
0
41
1
10
-0.485484698823498
20
-5.44430592701531
30
0
41
1
10
-0.495657428995102
20
-5.44824432393753
30
0
41
1
10
-0.516608715435055
20
-5.45476351226009
30
0
41
1
10
-0.527386860231843
20
-5.45734523281897
30
0
41
1
10
-0.549664818445294
20
-5.46089328829356
30
0
41
1
10
-0.560930035443789
20
-5.46180969649637
30
0
41
1
10
-0.583365846617895
20
-5.4618713105761
30
0
41
1
10
-0.594591467840047
20
-5.46102572365922
30
0
41
1
10
-0.617058166617767
20
-5.45757599588921
30
0
41
1
10
-0.627999143283219
20
-5.45501931647436
30
0
41
1
10
-0.649331735085596
20
-5.44848807488125
30
0
41
1
10
-0.659758151599846
20
-5.44449947952501
30
0
41
1
10
-0.68003652504504
20
-5.43533205618732
30
0
41
1
10
-0.689742098894584
20
-5.43022628481572
30
0
41
1
10
-0.717826906306115
20
-5.41366379171245
30
0
41
1
10
-0.735187935399352
20
-5.40097830060952
30
0
41
1
10
-0.768034946557933
20
-5.3733304614868
30
0
41
1
10
-0.783237057424174
20
-5.35859529837754
30
0
41
1
10
-0.811836627358687
20
-5.32802442998909
30
0
41
1
10
-0.825257514876
20
-5.31215335693128
30
0
41
1
10
-0.85080730255018
20
-5.27953884086708
30
0
41
1
10
-0.8629322094869
20
-5.26279281423712
30
0
41
1
10
-0.886169886076814
20
-5.22860723544372
30
0
41
1
10
-0.897260448987041
20
-5.21119248410571
30
0
41
1
10
-0.929029640850743
20
-5.15857889561175
30
0
41
1
10
-0.948347177186236
20
-5.12284414993096
30
0
41
1
10
-0.98448753502646
20
-5.05043807526351
30
0
41
1
10
-1.00129416978025
20
-5.013761649543
30
0
41
1
10
-1.03304457478235
20
-4.93966608077309
30
0
41
1
10
-1.04798244371666
20
-4.90224508459647
30
0
41
1
10
-1.09059413059556
20
-4.78904752584498
30
0
41
1
10
-1.11609621830425
20
-4.71234577760799
30
0
41
1
10
-1.15135515985605
20
-4.5958383808707
30
0
41
1
10
-1.16260343866755
20
-4.55673847320071
30
0
41
1
10
-1.18417456263644
20
-4.47826299864514
30
0
41
1
10
-1.19450305218302
20
-4.4388689467043
30
0
41
1
10
-1.22429462395719
20
-4.32024366329264
30
0
41
1
10
-1.24257202444836
20
-4.24057073726357
30
0
41
1
10
-1.2766185980946
20
-4.08013408760161
30
0
41
1
10
-1.29238372607519
20
-3.99936988902869
30
0
41
1
10
-1.30710678118656
20
-3.91808269248793
30
0
0
SPLINE
5
176
100
AcDbEntity
8
SK1
62
256
6
ByLayer
370
18
48
1
60
0
100
AcDbSpline
70
4
71
3
72
53
73
49
40
0
40
0
40
0
40
0
40
0.125000000000001
40
0.125000000000001
40
0.250000000000003
40
0.250000000000003
40
0.312500000000002
40
0.312500000000002
40
0.375000000000001
40
0.375000000000001
40
0.499999999999999
40
0.499999999999999
40
0.562499999999999
40
0.562499999999999
40
0.624999999999998
40
0.624999999999998
40
0.687499999999997
40
0.687499999999997
40
0.718749999999997
40
0.718749999999997
40
0.749999999999997
40
0.749999999999997
40
0.781249999999997
40
0.781249999999997
40
0.812499999999997
40
0.812499999999997
40
0.843749999999997
40
0.843749999999997
40
0.859374999999997
40
0.859374999999997
40
0.874999999999998
40
0.874999999999998
40
0.890624999999998
40
0.890624999999998
40
0.898437499999998
40
0.898437499999998
40
0.906249999999998
40
0.906249999999998
40
0.921874999999998
40
0.929687499999998
40
0.929687499999998
40
0.937499999999998
40
0.937499999999998
40
0.968749999999999
40
0.968749999999999
40
0.984374999999999
40
0.984374999999999
40
1
40
1
40
1
40
1
41
1
10
-1.30710678118653
20
3.91808311129773
30
0
41
1
10
-1.29239108240532
20
3.99932964943409
30
0
41
1
10
-1.27663490881504
20
4.08005058420358
30
0
41
1
10
-1.24261095077243
20
4.24039497937329
30
0
41
1
10
-1.22434718173433
20
4.32001891689725
30
0
41
1
10
-1.19458151328423
20
4.43856580615747
30
0
41
1
10
-1.18426257821703
20
4.47793290560355
30
0
41
1
10
-1.16271294340756
20
4.55635268985432
30
0
41
1
10
-1.15147501748677
20
4.5954305661744
30
0
41
1
10
-1.11622081339451
20
4.71196262616607
30
0
41
1
10
-1.09072783956063
20
4.78866062339225
30
0
41
1
10
-1.04815216411873
20
4.90181336669082
30
0
41
1
10
-1.03323011355691
20
4.93921284702577
30
0
41
1
10
-1.00152410230018
20
5.01324987497111
30
0
41
1
10
-0.98474588609686
20
5.04988928444075
30
0
41
1
10
-0.948685190430865
20
5.12220258194967
30
0
41
1
10
-0.929418355061529
20
5.15788155457776
30
0
41
1
10
-0.897760317588393
20
5.21039425330486
30
0
41
1
10
-0.886742970836536
20
5.22772922691752
30
0
41
1
10
-0.863513824307958
20
5.26197522516887
30
0
41
1
10
-0.851357742368592
20
5.27880041053595
30
0
41
1
10
-0.825828436847445
20
5.31146357138681
30
0
41
1
10
-0.812437519911782
20
5.32733553299153
30
0
41
1
10
-0.783971777383854
20
5.35785904442616
30
0
41
1
10
-0.768905931142385
20
5.37251692611164
30
0
41
1
10
-0.736341322354477
20
5.40008757388526
30
0
41
1
10
-0.718704728837906
20
5.41307616107983
30
0
41
1
10
-0.690494000998498
20
5.42981903443433
30
0
41
1
10
-0.680770506186036
20
5.43496537787158
30
0
41
1
10
-0.660532703009238
20
5.4441860527954
30
0
41
1
10
-0.650045797816972
20
5.44823342219186
30
0
41
1
10
-0.628779113836003
20
5.45481846069109
30
0
41
1
10
-0.617932285477181
20
5.4573891634796
30
0
41
1
10
-0.601299914959739
20
5.46002170773141
30
0
41
1
10
-0.595695338837004
20
5.46069496960084
30
0
41
1
10
-0.58435691270013
20
5.46160478770395
30
0
41
1
10
-0.578637021974231
20
5.46183701163628
30
0
41
1
10
-0.561675487241899
20
5.46185622962994
30
0
41
1
10
-0.544917445528725
20
5.46054034675203
30
0
41
1
10
-0.528445210270363
20
5.45734844847985
30
0
41
1
10
-0.51752538903331
20
5.45481548249097
30
0
41
1
10
-0.512078734988151
20
5.4533397528954
30
0
41
1
10
-0.485450985324846
20
5.44513209892821
30
0
41
1
10
-0.465729936503891
20
5.43590631685379
30
0
41
1
10
-0.437770416117473
20
5.4193273215547
30
0
41
1
10
-0.428743917867379
20
5.41334179407008
30
0
41
1
10
-0.411386251483421
20
5.40075705360888
30
0
41
1
10
-0.403020392726987
20
5.39413717786437
30
0
41
1
10
-0.394913799811278
20
5.38724490303858
30
0
0
SPLINE
5
177
100
AcDbEntity
8
SK1
62
256
6
ByLayer
370
13
48
1
60
0
100
AcDbSpline
70
4
71
3
72
20
73
16
40
0
40
0
40
0
40
0
40
0.0673842632293754
40
0.135634051878643
40
0.203883840527912
40
0.27213362917718
40
0.408633206475716
40
0.545132783774252
40
0.61338257242352
40
0.681632361072788
40
0.749882149722056
40
0.818131938371324
40
0.886381727020592
40
0.95463151566986
40
1
40
1
40
1
40
1
41
1
10
-0.394913799811221
20
17.3602193112056
30
0
41
1
10
-0.394913799811249
20
17.3741378069706
30
0
41
1
10
-0.394913799811235
20
17.3456582492957
30
0
41
1
10
-0.394913799811221
20
17.1536376810083
30
0
41
1
10
-0.394913799811235
20
16.8259464323311
30
0
41
1
10
-0.394913799811235
20
16.2248245878661
30
0
41
1
10
-0.394913799811235
20
15.1889746622834
30
0
41
1
10
-0.394913799811235
20
13.8156301488903
30
0
41
1
10
-0.394913799811249
20
12.5286535254346
30
0
41
1
10
-0.394913799811249
20
11.4729578043957
30
0
41
1
10
-0.394913799811249
20
10.3283867090429
30
0
41
1
10
-0.394913799811263
20
9.09679950047928
30
0
41
1
10
-0.394913799811263
20
7.77968825069564
30
0
41
1
10
-0.394913799811263
20
6.53483606378791
30
0
41
1
10
-0.394913799811263
20
5.71905630139054
30
0
41
1
10
-0.394913799811278
20
5.38724490303881
30
0
0
SPLINE
5
178
100
AcDbEntity
8
SK1
62
256
6
ByLayer
370
18
48
1
60
0
100
AcDbSpline
70
4
71
3
72
38
73
34
40
0
40
0
40
0
40
0
40
0.0624999999999996
40
0.0624999999999996
40
0.124999999999999
40
0.124999999999999
40
0.249999999999999
40
0.249999999999999
40
0.374999999999998
40
0.374999999999998
40
0.390624999999998
40
0.390624999999998
40
0.406249999999998
40
0.406249999999998
40
0.437499999999998
40
0.437499999999998
40
0.499999999999998
40
0.499999999999998
40
0.562499999999998
40
0.562499999999998
40
0.624999999999999
40
0.624999999999999
40
0.749999999999999
40
0.749999999999999
40
0.781249999999999
40
0.781249999999999
40
0.812499999999999
40
0.812499999999999
40
0.874999999999999
40
0.874999999999999
40
0.9375
40
0.9375
40
1
40
1
40
1
40
1
41
1
10
-1.30710678118656
20
-3.91808269248796
30
0
41
1
10
-1.33526487251861
20
-3.76261955749285
30
0
41
1
10
-1.36267126502634
20
-3.6063109858577
30
0
41
1
10
-1.41562242099805
20
-3.29187611045597
30
0
41
1
10
-1.44117770353178
20
-3.13375373985019
30
0
41
1
10
-1.51435013598103
20
-2.65639932915295
30
0
41
1
10
-1.55846884179033
20
-2.33418302861881
30
0
41
1
10
-1.63296978491243
20
-1.68004719877024
30
0
41
1
10
-1.66337509736468
20
-1.34813830750838
30
0
41
1
10
-1.68707319146451
20
-0.968091690681803
30
0
41
1
10
-1.68955923537888
20
-0.925771372654168
30
0
41
1
10
-1.69422507481973
20
-0.840939584978429
30
0
41
1
10
-1.69640659794261
20
-0.798386309984579
30
0
41
1
10
-1.70245250680871
20
-0.670897601193587
30
0
41
1
10
-1.70582437938029
20
-0.586052568901891
30
0
41
1
10
-1.71388361409092
20
-0.331968562037986
30
0
41
1
10
-1.71646782396985
20
-0.16318710130588
30
0
41
1
10
-1.71636335941632
20
0.173213348331899
30
0
41
1
10
-1.71367008139578
20
0.34083166255536
30
0
41
1
10
-1.70293626023371
20
0.674902568806175
30
0
41
1
10
-1.69494665814693
20
0.841362289300548
30
0
41
1
10
-1.66399327242202
20
1.33914312869118
30
0
41
1
10
-1.63408221528162
20
1.66887252592326
30
0
41
1
10
-1.5876007265538
20
2.07872253566578
30
0
41
1
10
-1.57784909269046
20
2.16057674059007
30
0
41
1
10
-1.5574977199426
20
2.32406172494171
30
0
41
1
10
-1.54688933197929
20
2.40575612114202
30
0
41
1
10
-1.51394731043965
20
2.65007047288918
30
0
41
1
10
-1.49055743488208
20
2.81150726182861
30
0
41
1
10
-1.44149329508792
20
3.13180385741541
30
0
41
1
10
-1.41582315096535
20
3.29066553946589
30
0
41
1
10
-1.36271475580055
20
3.60607338167011
30
0
41
1
10
-1.33526589565591
20
3.76261441071909
30
0
41
1
10
-1.30710678118653
20
3.91808311129771
30
0
0
SPLINE
5
179
100
AcDbEntity
8
SK1
62
256
6
ByLayer
370
13
48
1
60
0
100
AcDbSpline
70
4
71
3
72
45
73
41
40
0
40
0
40
0
40
0
40
0.0139247374480002
40
0.0425174011681708
40
0.0711100648883414
40
0.099702728608512
40
0.156888056048853
40
0.214073383489194
40
0.242666047209365
40
0.271258710929536
40
0.299851374649706
40
0.328444038369877
40
0.357036702090047
40
0.385629365810218
40
0.414222029530389
40
0.428518361390474
40
0.442814693250559
40
0.47140735697073
40
0.485703688830815
40
0.492851854760858
40
0.5000000206909
40
0.507148186620943
40
0.514296352550986
40
0.528592684411071
40
0.557185348131242
40
0.571481679991327
40
0.585778011851412
40
0.614370675571583
40
0.642963339291753
40
0.671556003011924
40
0.700148666732095
40
0.728741330452265
40
0.757333994172436
40
0.785926657892607
40
0.843111985332948
40
0.900297312773289
40
0.928889976493459
40
0.95748264021363
40
0.986075303933801
40
1
40
1
40
1
40
1
41
1
10
-1.99503997793923
20
17.3200454237899
30
0
41
1
10
-1.99503997793923
20
17.3133442648147
30
0
41
1
10
-1.99503997793921
20
17.2734193801497
30
0
41
1
10
-1.99503997793923
20
17.1138751154124
30
0
41
1
10
-1.99503997793923
20
16.7867763596001
30
0
41
1
10
-1.99503997793924
20
16.1866009265939
30
0
41
1
10
-1.99503997793924
20
15.1524691326423
30
0
41
1
10
-1.99503997793924
20
13.7813331880937
30
0
41
1
10
-1.99503997793926
20
12.4962106263157
30
0
41
1
10
-1.99503997793926
20
11.4421779521075
30
0
41
1
10
-1.99503997793926
20
10.2994799380558
30
0
41
1
10
-1.99503997793926
20
9.07001746022104
30
0
41
1
10
-1.99503997793927
20
7.75535376586828
30
0
41
1
10
-1.99503997793927
20
6.35676341745574
30
0
41
1
10
-1.99503997793928
20
5.12318926412428
30
0
41
1
10
-1.99503997793928
20
4.09531236648536
30
0
41
1
10
-1.99503997793928
20
3.04236295320669
30
0
41
1
10
-1.99503997793928
20
1.95640625727882
30
0
41
1
10
-1.9950399779393
20
0.981337226851394
30
0
41
1
10
-1.9950399779393
20
0.420771319084707
30
0
41
1
10
-1.9950399779393
20
6.88173714E-08
30
0
41
1
10
-1.9950399779393
20
-0.420771221994329
30
0
41
1
10
-1.9950399779393
20
-0.981337209960486
30
0
41
1
10
-1.9950399779393
20
-1.95640624898675
30
0
41
1
10
-1.99503997793931
20
-3.04236280324244
30
0
41
1
10
-1.99503997793931
20
-4.0953123914187
30
0
41
1
10
-1.99503997793931
20
-5.12318891405303
30
0
41
1
10
-1.99503997793933
20
-6.35676356337376
30
0
41
1
10
-1.99503997793933
20
-7.7553535878281
30
0
41
1
10
-1.99503997793933
20
-9.07001720037854
30
0
41
1
10
-1.99503997793934
20
-10.2994801886281
30
0
41
1
10
-1.99503997793934
20
-11.4421777785236
30
0
41
1
10
-1.99503997793934
20
-12.4962104807245
30
0
41
1
10
-1.99503997793934
20
-13.7813335607202
30
0
41
1
10
-1.99503997793936
20
-15.152468715744
30
0
41
1
10
-1.99503997793936
20
-16.1866016937524
30
0
41
1
10
-1.99503997793936
20
-16.786776230537
30
0
41
1
10
-1.99503997793936
20
-17.1138754381145
30
0
41
1
10
-1.99503997793936
20
-17.2734198426675
30
0
41
1
10
-1.99503997793937
20
-17.3133444719201
30
0
41
1
10
-1.99503997793937
20
-17.3200455761131
30
0
0
SPLINE
5
17A
100
AcDbEntity
8
SK1
62
256
6
ByLayer
370
18
48
1
60
0
100
AcDbSpline
70
4
71
3
72
45
73
41
40
0
40
0
40
0
40
0
40
0.0138970640442253
40
0.0424913603481462
40
0.0710856566520672
40
0.0996799529559881
40
0.15686854556383
40
0.214057138171672
40
0.242651434475593
40
0.271245730779514
40
0.299840027083435
40
0.328434323387356
40
0.357028619691277
40
0.385622915995197
40
0.414217212299118
40
0.428514360451079
40
0.442811508603039
40
0.47140580490696
40
0.485702953058921
40
0.492851527134901
40
0.500000101210881
40
0.507148675286861
40
0.514297249362842
40
0.528594397514802
40
0.557188693818723
40
0.571485841970684
40
0.585782990122644
40
0.614377286426565
40
0.642971582730486
40
0.671565879034407
40
0.700160175338328
40
0.728754471642249
40
0.75734876794617
40
0.785943064250091
40
0.843131656857932
40
0.900320249465774
40
0.928914545769695
40
0.957508842073616
40
0.986103138377537
40
1
40
1
40
1
40
1
41
1
10
-2.19999999999993
20
17.5147945418064
30
0
41
1
10
-2.19999999999993
20
17.5080193381749
30
0
41
1
10
-2.19999999999993
20
17.4676802379099
30
0
41
1
10
-2.19999999999993
20
17.3066644250431
30
0
41
1
10
-2.19999999999993
20
16.9766929599708
30
0
41
1
10
-2.19999999999993
20
16.3719288388599
30
0
41
1
10
-2.19999999999995
20
15.3294666616433
30
0
41
1
10
-2.19999999999995
20
13.9476224427057
30
0
41
1
10
-2.19999999999996
20
12.6535104390874
30
0
41
1
10
-2.19999999999996
20
11.5914144609754
30
0
41
1
10
-2.19999999999996
20
10.4396347881955
30
0
41
1
10
-2.19999999999996
20
9.19987052615136
30
0
41
1
10
-2.19999999999997
20
7.87333982787851
30
0
41
1
10
-2.19999999999997
20
6.46078575524433
30
0
41
1
10
-2.19999999999997
20
5.21252898167785
30
0
41
1
10
-2.19999999999999
20
4.17223684682958
30
0
41
1
10
-2.19999999999999
20
3.10486150423554
30
0
41
1
10
-2.19999999999999
20
1.99745537289451
30
0
41
1
10
-2.2
20
1.00299597482069
30
0
41
1
10
-2.2
20
0.430523794544854
30
0
41
1
10
-2.2
20
2.03164063E-08
30
0
41
1
10
-2.2
20
-0.430523737893537
30
0
41
1
10
-2.2
20
-1.00299590932914
30
0
41
1
10
-2.2
20
-1.9974553827513
30
0
41
1
10
-2.20000000000002
20
-3.10486136355075
30
0
41
1
10
-2.20000000000002
20
-4.17223690222139
30
0
41
1
10
-2.20000000000002
20
-5.21252864051553
30
0
41
1
10
-2.20000000000002
20
-6.46078587277509
30
0
41
1
10
-2.20000000000003
20
-7.87333968058334
30
0
41
1
10
-2.20000000000003
20
-9.19987024087132
30
0
41
1
10
-2.20000000000005
20
-10.4396350324424
30
0
41
1
10
-2.20000000000005
20
-11.5914143063801
30
0
41
1
10
-2.20000000000005
20
-12.6535102764493
30
0
41
1
10
-2.20000000000005
20
-13.9476228193307
30
0
41
1
10
-2.20000000000006
20
-15.3294662349403
30
0
41
1
10
-2.20000000000006
20
-16.3719296090069
30
0
41
1
10
-2.20000000000006
20
-16.9766928316826
30
0
41
1
10
-2.20000000000006
20
-17.3066647416643
30
0
41
1
10
-2.20000000000006
20
-17.4676803377582
30
0
41
1
10
-2.20000000000006
20
-17.5080192397263
30
0
41
1
10
-2.20000000000006
20
-17.5147944581842
30
0
0
SPLINE
5
17B
100
AcDbEntity
8
SK1
62
256
6
ByLayer
370
18
48
1
60
0
100
AcDbSpline
70
4
71
3
72
45
73
41
40
0
40
0
40
0
40
0
40
0.0275256173138213
40
0.0553182306465307
40
0.0831108439792402
40
0.11090345731195
40
0.166488683977369
40
0.222073910642788
40
0.249866523975497
40
0.277659137308207
40
0.305451750640916
40
0.333244363973625
40
0.361036977306335
40
0.388829590639044
40
0.416622203971754
40
0.430518510638108
40
0.444414817304463
40
0.472207430637173
40
0.486103737303527
40
0.493051890636705
40
0.500000043969882
40
0.50694819730306
40
0.513896350636237
40
0.527792657302592
40
0.555585270635301
40
0.569481577301656
40
0.583377883968011
40
0.61117049730072
40
0.638963110633429
40
0.666755723966139
40
0.694548337298848
40
0.722340950631558
40
0.750133563964267
40
0.777926177296977
40
0.833511403962395
40
0.889096630627814
40
0.916889243960524
40
0.944681857293233
40
0.972474470625943
40
1
40
1
40
1
40
1
41
1
10
-28.5
20
16.8545102419598
30
0
41
1
10
-28.5
20
16.8681141423222
30
0
41
1
10
-28.4999999999999
20
16.8405420065688
30
0
41
1
10
-28.4999999999999
20
16.6531187925378
30
0
41
1
10
-28.4999999999999
20
16.3328856609548
30
0
41
1
10
-28.4999999999999
20
15.743676951477
30
0
41
1
10
-28.4999999999999
20
14.7294543359373
30
0
41
1
10
-28.5
20
13.383910604677
30
0
41
1
10
-28.5
20
12.1202723366857
30
0
41
1
10
-28.5
20
11.0855105352456
30
0
41
1
10
-28.5
20
9.96451720849836
30
0
41
1
10
-28.5
20
8.75967545377569
30
0
41
1
10
-28.5
20
7.47337327542309
30
0
41
1
10
-28.5
20
6.10815549439164
30
0
41
1
10
-28.5
20
4.90967203214981
30
0
41
1
10
-28.5
20
3.91146689927399
30
0
41
1
10
-28.5
20
2.89299469927096
30
0
41
1
10
-28.5
20
1.85830102725052
30
0
41
1
10
-28.5
20
0.92957395693
30
0
41
1
10
-28.5
20
0.397463415028625
30
0
41
1
10
-28.5
20
1.847322437E-07
30
0
41
1
10
-28.5
20
-0.397463221290792
30
0
41
1
10
-28.5
20
-0.929574056191825
30
0
41
1
10
-28.5
20
-1.8583009755834
30
0
41
1
10
-28.5
20
-2.89299452712905
30
0
41
1
10
-28.5
20
-3.91146685141297
30
0
41
1
10
-28.5
20
-4.90967166078656
30
0
41
1
10
-28.5
20
-6.10815570815353
30
0
41
1
10
-28.5
20
-7.47337302390375
30
0
41
1
10
-28.5
20
-8.75967525472734
30
0
41
1
10
-28.5
20
-9.96451747418791
30
0
41
1
10
-28.5
20
-11.0855103162797
30
0
41
1
10
-28.5
20
-12.1202722318354
30
0
41
1
10
-28.5000000000001
20
-13.3839109677472
30
0
41
1
10
-28.5000000000001
20
-14.7294539424714
30
0
41
1
10
-28.5000000000001
20
-15.743677711493
30
0
41
1
10
-28.5000000000001
20
-16.3328855300395
30
0
41
1
10
-28.5000000000001
20
-16.6531191297729
30
0
41
1
10
-28.5000000000001
20
-16.8405423988973
30
0
41
1
10
-28.5000000000001
20
-16.8681141137097
30
0
41
1
10
-28.5000000000001
20
-16.8545104793724
30
0
0
SPLINE
5
17C
100
AcDbEntity
8
1
62
256
6
ByLayer
370
18
48
1
60
0
100
AcDbSpline
70
4
71
3
72
74
73
70
40
0
40
0
40
0
40
0
40
0.0075024758933664
40
0.0148992199183553
40
0.0222838275355076
40
0.029655676465152
40
0.0370148586585027
40
0.044361484071623
40
0.0516956615374001
40
0.0590174987848201
40
0.0663271024572219
40
0.0736245781311402
40
0.0809100303340371
40
0.0881835625619989
40
0.0954452772970443
40
0.102695276024102
40
0.10993365924767
40
0.117160526508159
40
0.124375976397935
40
0.13158010657706
40
0.138773013788735
40
0.145954793874551
40
0.153125541789216
40
0.160285351615353
40
0.167434316577783
40
0.174572151227108
40
0.181696970112388
40
0.188808589599454
40
0.195907112467903
40
0.20299264037258
40
0.210065273861699
40
0.217125112394245
40
0.22417225435727
40
0.231206797082912
40
0.238228836864868
40
0.245238468974715
40
0.252235787677649
40
0.316747179426755
40
0.379892843275313
40
0.441730493081836
40
0.502156069324697
40
0.523556877992396
40
0.544685813032418
40
0.565545342093674
40
0.586137744176477
40
0.606465117787052
40
0.626529388577497
40
0.646332316515475
40
0.665875502622874
40
0.685160395319473
40
0.704179925308677
40
0.722921093945599
40
0.741385566936025
40
0.759575129005814
40
0.777491414198033
40
0.795135912582951
40
0.812509976600284
40
0.829614827063496
40
0.846451558853518
40
0.863021146326649
40
0.879324448459494
40
0.895362213751704
40
0.911135084905637
40
0.926643603300433
40
0.941878976062404
40
0.956831121297612
40
0.971501264692092
40
0.985890545639715
40
1
40
1
40
1
40
1
41
1
10
466
20
24.9999999999983
30
0
41
1
10
466.000521894441
20
24.9999752851214
30
0
41
1
10
466.001558328299
20
24.9999262036727
30
0
41
1
10
466.003108169379
20
24.9995318592562
30
0
41
1
10
466.004648351702
20
24.9989085727683
30
0
41
1
10
466.006185065585
20
24.9980330865688
30
0
41
1
10
466.007718001871
20
24.9969128186647
30
0
41
1
10
466.009246905403
20
24.9955474026726
30
0
41
1
10
466.010771524938
20
24.9939385287223
30
0
41
1
10
466.012291611741
20
24.9920873194632
30
0
41
1
10
466.013806919526
20
24.9899950318009
30
0
41
1
10
466.015317204292
20
24.9876628695858
30
0
41
1
10
466.016822224263
20
24.9850920339086
30
0
41
1
10
466.018321739772
20
24.9822837098881
30
0
41
1
10
466.019815513172
20
24.9792390704279
30
0
41
1
10
466.021303308735
20
24.9759592754354
30
0
41
1
10
466.022784892562
20
24.9724454722493
30
0
41
1
10
466.024260032486
20
24.9686987957405
30
0
41
1
10
466.025728497987
20
24.9647203684973
30
0
41
1
10
466.0271900601
20
24.960511300985
30
0
41
1
10
466.028644491327
20
24.9560726917074
30
0
41
1
10
466.030091565543
20
24.9514056273685
30
0
41
1
10
466.031531057934
20
24.9465111830238
30
0
41
1
10
466.032962744856
20
24.9413904222459
30
0
41
1
10
466.034386378844
20
24.9360444914235
30
0
41
1
10
466.0358015828
20
24.9304750585296
30
0
41
1
10
466.03720797058
20
24.924683968581
30
0
41
1
10
466.038605182315
20
24.9186730674878
30
0
41
1
10
466.039992991908
20
24.9124436841493
30
0
41
1
10
466.041371193284
20
24.9059970565872
30
0
41
1
10
466.042739581549
20
24.8993344100553
30
0
41
1
10
466.044097952878
20
24.8924569571464
30
0
41
1
10
466.045446104451
20
24.8853658983194
30
0
41
1
10
466.046783834343
20
24.8780624208397
30
0
41
1
10
466.048110941536
20
24.8705477036161
30
0
41
1
10
466.049427225551
20
24.8628229000616
30
0
41
1
10
466.054309407256
20
24.8331478192006
30
0
41
1
10
466.06238814304
20
24.7749692644819
30
0
41
1
10
466.07281073971
20
24.6748666979225
30
0
41
1
10
466.081896078651
20
24.5595370725065
30
0
41
1
10
466.087928966358
20
24.4570633246292
30
0
41
1
10
466.091685371151
20
24.3773807210484
30
0
41
1
10
466.093806849155
20
24.3263248100869
30
0
41
1
10
466.095704729602
20
24.2739799163062
30
0
41
1
10
466.097376750635
20
24.2204191936391
30
0
41
1
10
466.098820815325
20
24.1657144520233
30
0
41
1
10
466.100035001887
20
24.1099360799819
30
0
41
1
10
466.101017546611
20
24.0531531671385
30
0
41
1
10
466.101766858061
20
23.9954335498669
30
0
41
1
10
466.10228136734
20
23.9368524127597
30
0
41
1
10
466.102559936066
20
23.8774994486155
30
0
41
1
10
466.102602362093
20
23.8174650047809
30
0
41
1
10
466.102408387515
20
23.7568309247202
30
0
41
1
10
466.1019781172
20
23.6956619164977
30
0
41
1
10
466.101311763978
20
23.6340211421291
30
0
41
1
10
466.100409693882
20
23.5719705350995
30
0
41
1
10
466.099272414568
20
23.5095708634594
30
0
41
1
10
466.097900579693
20
23.4468817772122
30
0
41
1
10
466.096294989944
20
23.3839618529132
30
0
41
1
10
466.094456596297
20
23.3208686407304
30
0
41
1
10
466.092386501994
20
23.2576586824065
30
0
41
1
10
466.090085971515
20
23.1943876195401
30
0
41
1
10
466.087556417522
20
23.1311099572198
30
0
41
1
10
466.084800018477
20
23.0678926210267
30
0
41
1
10
466.081819869085
20
23.0048141694062
30
0
41
1
10
466.078622596323
20
22.9419598728613
30
0
41
1
10
466.075204314262
20
22.8793747871973
30
0
41
1
10
466.071595695201
20
22.817185460239
30
0
41
1
10
466.068973504201
20
22.7754259003019
30
0
41
1
10
466.067675282232
20
22.7547511370651
30
0
0
SPLINE
5
17D
100
AcDbEntity
8
1
62
256
6
ByLayer
370
13
48
1
60
0
100
AcDbSpline
70
4
71
1
72
4
73
2
40
0
40
0
40
1
40
1
41
1
10
465.635350564464
20
22.9943900756357
30
0
41
1
10
466.067675282232
20
22.754751137065
30
0
0
SPLINE
5
17E
100
AcDbEntity
8
1
62
256
6
ByLayer
370
18
48
1
60
0
100
AcDbSpline
70
4
71
3
72
36
73
32
40
0
40
0
40
0
40
0
40
0.122294168923404
40
0.122294168923404
40
0.195436321513112
40
0.195436321513112
40
0.232007397807969
40
0.232007397807969
40
0.268578474102826
40
0.268578474102826
40
0.341720626692539
40
0.341720626692539
40
0.378291702987397
40
0.378291702987397
40
0.414862779282254
40
0.414862779282254
40
0.488004931871969
40
0.488004931871969
40
0.524576008166826
40
0.524576008166826
40
0.561147084461684
40
0.561147084461684
40
0.634289237051402
40
0.634289237051402
40
0.70743138964112
40
0.70743138964112
40
0.780573542230838
40
0.780573542230838
40
0.853715694820556
40
0.853715694820556
40
1
40
1
40
1
40
1
41
1
10
467.607729614589
20
-14.7165323184191
30
0
41
1
10
467.598295176106
20
-14.7260353140283
30
0
41
1
10
467.589548040495
20
-14.7348526937612
30
0
41
1
10
467.576962978984
20
-14.7475455477915
30
0
41
1
10
467.572665768936
20
-14.7518812199212
30
0
41
1
10
467.566937041454
20
-14.7576626687905
30
0
41
1
10
467.565146159727
20
-14.7594703034851
30
0
41
1
10
467.561821741835
20
-14.7628262013002
30
0
41
1
10
467.560285385347
20
-14.764377313248
30
0
41
1
10
467.556170769704
20
-14.7685318245794
30
0
41
1
10
467.554054662599
20
-14.7706689842482
30
0
41
1
10
467.551904777518
20
-14.7728403855673
30
0
41
1
10
467.551358069514
20
-14.7733926014495
30
0
41
1
10
467.550642684802
20
-14.7741152032586
30
0
41
1
10
467.550471174801
20
-14.7742884504586
30
0
41
1
10
467.550501778366
20
-14.7742575373655
30
0
41
1
10
467.551246131199
20
-14.7735056170735
30
0
41
1
10
467.553449587003
20
-14.7712801191218
30
0
41
1
10
467.554366440456
20
-14.7703541331481
30
0
41
1
10
467.556507437831
20
-14.7681920072911
30
0
41
1
10
467.557735591993
20
-14.766951817112
30
0
41
1
10
467.561863192775
20
-14.7627842352003
30
0
41
1
10
467.565218581561
20
-14.7593968992335
30
0
41
1
10
467.572951716672
20
-14.7515926878491
30
0
41
1
10
467.577252302461
20
-14.7472536906863
30
0
41
1
10
467.586584704884
20
-14.7378414692289
30
0
41
1
10
467.591617667416
20
-14.7327670857899
30
0
41
1
10
467.602342916788
20
-14.7219581556372
30
0
41
1
10
467.607954623723
20
-14.7163048356898
30
0
41
1
10
467.625296915117
20
-14.69884175315
30
0
41
1
10
467.637586054382
20
-14.6864770846472
30
0
41
1
10
467.650480947162
20
-14.6735161477124
30
0
0
SPLINE
5
17F
100
AcDbEntity
8
1
62
256
6
ByLayer
370
18
48
1
60
0
100
AcDbSpline
70
4
71
3
72
8
73
4
40
0
40
0
40
0
40
0
40
1
40
1
40
1
40
1
41
1
10
467.650480947162
20
-14.6735161477124
30
0
41
1
10
467.875830405165
20
-14.4470125107015
30
0
41
1
10
468.100607863251
20
-14.2197546698726
30
0
41
1
10
468.324759526419
20
-13.9916716944577
30
0
0
SPLINE
5
180
100
AcDbEntity
8
1
62
256
6
ByLayer
370
18
48
1
60
0
100
AcDbSpline
70
4
71
3
72
8
73
4
40
0
40
0
40
0
40
0
40
1
40
1
40
1
40
1
41
1
10
468.324759526419
20
-13.9768567932117
30
0
41
1
10
468.100458994954
20
-14.1950332762299
30
0
41
1
10
467.875685997486
20
-14.4125589107686
30
0
41
1
10
467.650480947162
20
-14.6294893682075
30
0
0
SPLINE
5
181
100
AcDbEntity
8
1
62
256
6
ByLayer
370
18
48
1
60
0
100
AcDbSpline
70
4
71
3
72
36
73
32
40
0
40
0
40
0
40
0
40
0.0625
40
0.0625
40
0.125
40
0.125
40
0.1875
40
0.1875
40
0.25
40
0.25
40
0.3125
40
0.3125
40
0.375
40
0.375
40
0.4375
40
0.4375
40
0.5
40
0.5
40
0.5625
40
0.5625
40
0.625
40
0.625
40
0.6875
40
0.6875
40
0.75
40
0.75
40
0.8125
40
0.8125
40
0.875
40
0.875
40
1
40
1
40
1
40
1
41
1
10
467.650480947162
20
-14.6294893682075
30
0
41
1
10
467.643862084188
20
-14.6358650377162
30
0
41
1
10
467.63736815804
20
-14.642085493941
30
0
41
1
10
467.624658212001
20
-14.6541795144046
30
0
41
1
10
467.618465781099
20
-14.6600302465755
30
0
41
1
10
467.606614451507
20
-14.6711317760518
30
0
41
1
10
467.600930365741
20
-14.6764066912094
30
0
41
1
10
467.590113554064
20
-14.6863246581538
30
0
41
1
10
467.584944456052
20
-14.6910000297357
30
0
41
1
10
467.575462300344
20
-14.6994157565435
30
0
41
1
10
467.571165979257
20
-14.7031426233291
30
0
41
1
10
467.563582231134
20
-14.7095025996348
30
0
41
1
10
467.560295493777
20
-14.7121314384167
30
0
41
1
10
467.555115656292
20
-14.7159495810439
30
0
41
1
10
467.55318093426
20
-14.7171751733823
30
0
41
1
10
467.550745513604
20
-14.7181286395759
30
0
41
1
10
467.550291079597
20
-14.7178363837966
30
0
41
1
10
467.550812662286
20
-14.7158184071493
30
0
41
1
10
467.551796471514
20
-14.7140793421233
30
0
41
1
10
467.555138387984
20
-14.7092388666715
30
0
41
1
10
467.557446708715
20
-14.7062051495619
30
0
41
1
10
467.563158317433
20
-14.6990846204186
30
0
41
1
10
467.566592406128
20
-14.6949623448453
30
0
41
1
10
467.57432482138
20
-14.685917129105
30
0
41
1
10
467.578590882068
20
-14.6810299821927
30
0
41
1
10
467.587802061849
20
-14.6706380732887
30
0
41
1
10
467.592748132286
20
-14.6651324406499
30
0
41
1
10
467.60325464834
20
-14.6535639456459
30
0
41
1
10
467.608756349683
20
-14.6475660845123
30
0
41
1
10
467.625757992912
20
-14.6291819152169
30
0
41
1
10
467.63781344554
20
-14.6163381505707
30
0
41
1
10
467.650480947162
20
-14.603000341071
30
0
0
SPLINE
5
182
100
AcDbEntity
8
1
62
256
6
ByLayer
370
18
48
1
60
0
100
AcDbSpline
70
4
71
3
72
8
73
4
40
0
40
0
40
0
40
0
40
1
40
1
40
1
40
1
41
1
10
467.650480947162
20
-14.603000341071
30
0
41
1
10
467.876008003165
20
-14.3655393957403
30
0
41
1
10
468.100791090601
20
-14.1271433496669
30
0
41
1
10
468.324759526419
20
-13.887723360693
30
0
0
SPLINE
5
183
100
AcDbEntity
8
1
62
256
6
ByLayer
370
18
48
1
60
0
100
AcDbSpline
70
4
71
3
72
8
73
4
40
0
40
0
40
0
40
0
40
1
40
1
40
1
40
1
41
1
10
468.324759526419
20
-13.84299853394
30
0
41
1
10
468.10033706691
20
-14.0525298860233
30
0
41
1
10
467.875567648883
20
-14.2615638584153
30
0
41
1
10
467.650480947162
20
-14.4701429912274
30
0
0
SPLINE
5
184
100
AcDbEntity
8
1
62
256
6
ByLayer
370
18
48
1
60
0
100
AcDbSpline
70
4
71
3
72
38
73
34
40
0
40
0
40
0
40
0
40
0.0624999999999969
40
0.0624999999999969
40
0.124999999999994
40
0.124999999999994
40
0.187499999999991
40
0.187499999999991
40
0.249999999999988
40
0.249999999999988
40
0.312499999999985
40
0.312499999999985
40
0.374999999999982
40
0.374999999999982
40
0.437499999999979
40
0.437499999999979
40
0.499999999999976
40
0.499999999999976
40
0.531249999999976
40
0.531249999999976
40
0.562499999999976
40
0.562499999999976
40
0.624999999999979
40
0.624999999999979
40
0.687499999999983
40
0.687499999999983
40
0.749999999999987
40
0.749999999999987
40
0.81249999999999
40
0.81249999999999
40
0.874999999999994
40
0.874999999999994
40
1
40
1
40
1
40
1
41
1
10
467.650480947162
20
-14.4701429912274
30
0
41
1
10
467.643726881463
20
-14.476401722443
30
0
41
1
10
467.637098160743
20
-14.482467598428
30
0
41
1
10
467.624121587645
20
-14.4941653645875
30
0
41
1
10
467.617742143976
20
-14.4998242703941
30
0
41
1
10
467.605562970483
20
-14.5104136408805
30
0
41
1
10
467.599742695575
20
-14.5153637999657
30
0
41
1
10
467.588714807944
20
-14.5244776354362
30
0
41
1
10
467.583471678807
20
-14.5286687146886
30
0
41
1
10
467.573894168183
20
-14.5359672809051
30
0
41
1
10
467.569604727196
20
-14.5390430763021
30
0
41
1
10
467.562140118258
20
-14.5439116287637
30
0
41
1
10
467.558968752714
20
-14.5456925212607
30
0
41
1
10
467.55412676766
20
-14.5476893893345
30
0
41
1
10
467.552408786091
20
-14.547939460697
30
0
41
1
10
467.550449968655
20
-14.5468649480112
30
0
41
1
10
467.550243871428
20
-14.5455532016643
30
0
41
1
10
467.550991933076
20
-14.5425459103039
30
0
41
1
10
467.551417710024
20
-14.5413688368436
30
0
41
1
10
467.552612851189
20
-14.538674516815
30
0
41
1
10
467.553385026571
20
-14.5371539574119
30
0
41
1
10
467.556141299637
20
-14.5322031740132
30
0
41
1
10
467.558572250332
20
-14.528360113746
30
0
41
1
10
467.56445428438
20
-14.5197418754242
30
0
41
1
10
467.567937837454
20
-14.5149253101653
30
0
41
1
10
467.575648799551
20
-14.5046892334931
30
0
41
1
10
467.579874304902
20
-14.499268070076
30
0
41
1
10
467.588959245089
20
-14.487907590788
30
0
41
1
10
467.593819464948
20
-14.4819676301928
30
0
41
1
10
467.604115964568
20
-14.4696181549202
30
0
41
1
10
467.609513235996
20
-14.4632561734409
30
0
41
1
10
467.6261921918
20
-14.4438785061748
30
0
41
1
10
467.638027080278
20
-14.4304881908624
30
0
41
1
10
467.650480947162
20
-14.4166940319344
30
0
0
SPLINE
5
185
100
AcDbEntity
8
1
62
256
6
ByLayer
370
18
48
1
60
0
100
AcDbSpline
70
4
71
3
72
8
73
4
40
0
40
0
40
0
40
0
40
1
40
1
40
1
40
1
41
1
10
467.650480947162
20
-14.4166940319344
30
0
41
1
10
467.876228917632
20
-14.1666509399766
30
0
41
1
10
468.101019214676
20
-13.9154654531783
30
0
41
1
10
468.324759526419
20
-13.663027454035
30
0
0
SPLINE
5
186
100
AcDbEntity
8
1
62
256
6
ByLayer
370
18
48
1
60
0
100
AcDbSpline
70
4
71
3
72
8
73
4
40
0
40
0
40
0
40
0
40
1
40
1
40
1
40
1
41
1
10
468.324759526419
20
-13.5875252185455
30
0
41
1
10
468.100236859786
20
-13.7895703804309
30
0
41
1
10
467.875470342809
20
-13.9912532251747
30
0
41
1
10
467.650480947162
20
-14.1926049128593
30
0
0
SPLINE
5
187
100
AcDbEntity
8
1
62
256
6
ByLayer
370
18
48
1
60
0
100
AcDbSpline
70
4
71
3
72
39
73
35
40
0
40
0
40
0
40
0
40
0.0625000000000008
40
0.0625000000000008
40
0.125000000000002
40
0.125000000000002
40
0.187500000000002
40
0.187500000000002
40
0.250000000000003
40
0.250000000000003
40
0.312500000000004
40
0.312500000000004
40
0.343750000000003
40
0.343750000000003
40
0.375000000000002
40
0.406250000000001
40
0.406250000000001
40
0.4375
40
0.4375
40
0.5
40
0.5
40
0.5625
40
0.5625
40
0.625
40
0.625
40
0.687499999999999
40
0.687499999999999
40
0.749999999999999
40
0.749999999999999
40
0.812499999999999
40
0.812499999999999
40
0.874999999999999
40
0.874999999999999
40
1
40
1
40
1
40
1
41
1
10
467.650480947162
20
-14.1926049128593
30
0
41
1
10
467.643561481925
20
-14.1987974091731
30
0
41
1
10
467.636760597053
20
-14.2047594560311
30
0
41
1
10
467.623428732478
20
-14.2161568732065
30
0
41
1
10
467.616868043973
20
-14.2216149223448
30
0
41
1
10
467.604372494835
20
-14.2316571174392
30
0
41
1
10
467.598405523108
20
-14.2362705085008
30
0
41
1
10
467.587120780066
20
-14.2445513660968
30
0
41
1
10
467.581757911793
20
-14.2482452222627
30
0
41
1
10
467.572161291115
20
-14.2542618829988
30
0
41
1
10
467.567898801765
20
-14.2566113207287
30
0
41
1
10
467.562409953693
20
-14.2590197111109
30
0
41
1
10
467.56074024976
20
-14.2596301418339
30
0
41
1
10
467.557792033825
20
-14.2604382600584
30
0
41
1
10
467.555212844325
20
-14.2608439260331
30
0
41
1
10
467.553367705005
20
-14.26044824981
30
0
41
1
10
467.551893890274
20
-14.2596468478138
30
0
41
1
10
467.551341802858
20
-14.2590371274942
30
0
41
1
10
467.550274927363
20
-14.2566430276492
30
0
41
1
10
467.550326458122
20
-14.2543028706053
30
0
41
1
10
467.551787967949
20
-14.2482959791933
30
0
41
1
10
467.553220516283
20
-14.2445964956731
30
0
41
1
10
467.557185296634
20
-14.2362910592441
30
0
41
1
10
467.559719213955
20
-14.2316610587594
30
0
41
1
10
467.565737405588
20
-14.2215788782886
30
0
41
1
10
467.569244994022
20
-14.2160956853241
30
0
41
1
10
467.576918114054
20
-14.2046829541822
30
0
41
1
10
467.581098727558
20
-14.1987255135273
30
0
41
1
10
467.590054837743
20
-14.1863774236152
30
0
41
1
10
467.594830979835
20
-14.1799863029431
30
0
41
1
10
467.604926584524
20
-14.1668094826131
30
0
41
1
10
467.61022432905
20
-14.1600533921724
30
0
41
1
10
467.626598565669
20
-14.1395788033865
30
0
41
1
10
467.638226288089
20
-14.1255569553056
30
0
41
1
10
467.650480947162
20
-14.1112111570012
30
0
0
SPLINE
5
188
100
AcDbEntity
8
1
62
256
6
ByLayer
370
18
48
1
60
0
100
AcDbSpline
70
4
71
3
72
8
73
4
40
0
40
0
40
0
40
0
40
1
40
1
40
1
40
1
41
1
10
467.650480947162
20
-14.1112111570012
30
0
41
1
10
467.876507770666
20
-13.8466150387279
30
0
41
1
10
468.101307459449
20
-13.5806365366906
30
0
41
1
10
468.324759526419
20
-13.3131399205615
30
0
0
SPLINE
5
189
100
AcDbEntity
8
1
62
256
6
ByLayer
370
18
48
1
60
0
100
AcDbSpline
70
4
71
3
72
8
73
4
40
0
40
0
40
0
40
0
40
1
40
1
40
1
40
1
41
1
10
468.324759526419
20
-13.2053177327413
30
0
41
1
10
468.100154848045
20
-13.4009956122085
30
0
41
1
10
467.875390693943
20
-13.596428958949
30
0
41
1
10
467.650480947162
20
-13.791639060587
30
0
0
SPLINE
5
18A
100
AcDbEntity
8
1
62
256
6
ByLayer
370
18
48
1
60
0
100
AcDbSpline
70
4
71
3
72
32
73
28
40
0
40
0
40
0
40
0
40
0.125000000000002
40
0.125000000000002
40
0.187500000000003
40
0.187500000000003
40
0.250000000000004
40
0.250000000000004
40
0.312500000000004
40
0.312500000000004
40
0.375000000000005
40
0.375000000000005
40
0.437500000000006
40
0.437500000000006
40
0.500000000000007
40
0.500000000000007
40
0.562500000000008
40
0.562500000000008
40
0.625000000000009
40
0.625000000000009
40
0.750000000000004
40
0.750000000000004
40
0.812500000000003
40
0.812500000000003
40
0.875000000000003
40
0.875000000000003
40
1
40
1
40
1
40
1
41
1
10
467.650480947162
20
-13.791639060587
30
0
41
1
10
467.636218452344
20
-13.8040181731104
30
0
41
1
10
467.622240264368
20
-13.8154173152064
30
0
41
1
10
467.602992291188
20
-13.8296153042825
30
0
41
1
10
467.596826112669
20
-13.8338945401549
30
0
41
1
10
467.585150324815
20
-13.8413094412352
30
0
41
1
10
467.579802545074
20
-13.844341928331
30
0
41
1
10
467.570193548697
20
-13.8489058516402
30
0
41
1
10
467.565917359672
20
-13.8504253367874
30
0
41
1
10
467.5589614839
20
-13.851675398676
30
0
41
1
10
467.556219248358
20
-13.8514436933274
30
0
41
1
10
467.552246458667
20
-13.8492156646228
30
0
41
1
10
467.551085390741
20
-13.8472516771767
30
0
41
1
10
467.550241537347
20
-13.8418614194553
30
0
41
1
10
467.550569080283
20
-13.8383829727687
30
0
41
1
10
467.552511726574
20
-13.8303344171861
30
0
41
1
10
467.554109567751
20
-13.8257708187571
30
0
41
1
10
467.558360917358
20
-13.8157342041945
30
0
41
1
10
467.56103952816
20
-13.8102189029203
30
0
41
1
10
467.570274220005
20
-13.792857923186
30
0
41
1
10
467.578003306719
20
-13.7801749967753
30
0
41
1
10
467.591401058081
20
-13.7598818429389
30
0
41
1
10
467.59613953536
20
-13.7529552766075
30
0
41
1
10
467.605993559771
20
-13.7389641660204
30
0
41
1
10
467.611125160039
20
-13.7318756087944
30
0
41
1
10
467.627074672477
20
-13.710359062102
30
0
41
1
10
467.638441494712
20
-13.6956828090541
30
0
41
1
10
467.650480947162
20
-13.6807059996461
30
0
0
SPLINE
5
18B
100
AcDbEntity
8
1
62
256
6
ByLayer
370
18
48
1
60
0
100
AcDbSpline
70
4
71
3
72
8
73
4
40
0
40
0
40
0
40
0
40
1
40
1
40
1
40
1
41
1
10
467.650480947162
20
-13.6807059996461
30
0
41
1
10
467.876866272618
20
-13.3990877212215
30
0
41
1
10
468.101678442285
20
-13.1158055554866
30
0
41
1
10
468.324759526419
20
-12.830692464121
30
0
0
SPLINE
5
18C
100
AcDbEntity
8
1
62
256
6
ByLayer
370
18
48
1
60
0
100
AcDbSpline
70
4
71
3
72
8
73
4
40
0
40
0
40
0
40
0
40
1
40
1
40
1
40
1
41
1
10
468.324759526419
20
-12.6881625317629
30
0
41
1
10
468.100089025132
20
-12.8786205059042
30
0
41
1
10
467.875326782244
20
-13.0689340213273
30
0
41
1
10
467.650480947162
20
-13.2591159102966
30
0
0
SPLINE
5
18D
100
AcDbEntity
8
1
62
256
6
ByLayer
370
18
48
1
60
0
100
AcDbSpline
70
4
71
3
72
41
73
37
40
0
40
0
40
0
40
0
40
0.0625000000000007
40
0.0625000000000007
40
0.125000000000001
40
0.125000000000001
40
0.156250000000005
40
0.156250000000005
40
0.187500000000008
40
0.187500000000008
40
0.250000000000015
40
0.250000000000015
40
0.281250000000019
40
0.281250000000019
40
0.312500000000023
40
0.343750000000027
40
0.343750000000027
40
0.375000000000031
40
0.375000000000031
40
0.437500000000037
40
0.437500000000037
40
0.46875000000004
40
0.46875000000004
40
0.500000000000043
40
0.500000000000043
40
0.562500000000039
40
0.562500000000039
40
0.625000000000035
40
0.625000000000035
40
0.687500000000031
40
0.687500000000031
40
0.750000000000027
40
0.750000000000027
40
0.875000000000014
40
0.875000000000014
40
1
40
1
40
1
40
1
41
1
10
467.650480947162
20
-13.2591159102966
30
0
41
1
10
467.643120671969
20
-13.2653414694174
30
0
41
1
10
467.635804695087
20
-13.271277358854
30
0
41
1
10
467.621558337367
20
-13.2822363602365
30
0
41
1
10
467.614658110684
20
-13.2872398905814
30
0
41
1
10
467.604698216193
20
-13.2939087063831
30
0
41
1
10
467.601443651369
20
-13.2959915195212
30
0
41
1
10
467.595080260981
20
-13.2998442241169
30
0
41
1
10
467.591968194618
20
-13.3016142220484
30
0
41
1
10
467.583076629913
20
-13.3062945367764
30
0
41
1
10
467.577668862641
20
-13.3086246746223
30
0
41
1
10
467.570442806861
20
-13.3107695863612
30
0
41
1
10
467.568202442333
20
-13.3112498316758
30
0
41
1
10
467.564140466581
20
-13.3117249114445
30
0
41
1
10
467.560469603166
20
-13.3117232866642
30
0
41
1
10
467.557572696077
20
-13.3107769709458
30
0
41
1
10
467.555065784551
20
-13.3093539638458
30
0
41
1
10
467.554012412702
20
-13.3084010300563
30
0
41
1
10
467.551498718449
20
-13.3049318251684
30
0
41
1
10
467.550641696582
20
-13.3017928744931
30
0
41
1
10
467.550431296051
20
-13.2959971988548
30
0
41
1
10
467.550543891767
20
-13.2938771195689
30
0
41
1
10
467.551097439142
20
-13.2893835606968
30
0
41
1
10
467.55153724686
20
-13.2870008336863
30
0
41
1
10
467.553295887259
20
-13.279486104452
30
0
41
1
10
467.555051097323
20
-13.2739898973774
30
0
41
1
10
467.559557801758
20
-13.262165082691
30
0
41
1
10
467.562301249488
20
-13.2558684256228
30
0
41
1
10
467.568507240897
20
-13.2428591198091
30
0
41
1
10
467.571983861287
20
-13.2361109336987
30
0
41
1
10
467.579584891849
20
-13.2221925717883
30
0
41
1
10
467.583728003621
20
-13.2149922619402
30
0
41
1
10
467.59691541842
20
-13.1930284474539
30
0
41
1
10
467.606613261902
20
-13.1780492255841
30
0
41
1
10
467.627467863824
20
-13.1475539976588
30
0
41
1
10
467.638630045339
20
-13.1320359563969
30
0
41
1
10
467.650480947162
20
-13.1162678662836
30
0
0
SPLINE
5
18E
100
AcDbEntity
8
1
62
256
6
ByLayer
370
18
48
1
60
0
100
AcDbSpline
70
4
71
3
72
8
73
4
40
0
40
0
40
0
40
0
40
1
40
1
40
1
40
1
41
1
10
467.650480947162
20
-13.1162678662836
30
0
41
1
10
467.877337890168
20
-12.814425797743
30
0
41
1
10
468.102167049584
20
-12.5105841761011
30
0
41
1
10
468.324759526419
20
-12.2045370106277
30
0
0
SPLINE
5
18F
100
AcDbEntity
8
1
62
256
6
ByLayer
370
18
48
1
60
0
100
AcDbSpline
70
4
71
3
72
8
73
4
40
0
40
0
40
0
40
0
40
1
40
1
40
1
40
1
41
1
10
468.324759526419
20
-12.0237655573043
30
0
41
1
10
468.100039125586
20
-12.2102687278793
30
0
41
1
10
467.875278354979
20
-12.3967070563427
30
0
41
1
10
467.650480947162
20
-12.5830864488552
30
0
0
SPLINE
5
190
100
AcDbEntity
8
1
62
256
6
ByLayer
370
18
48
1
60
0
100
AcDbSpline
70
4
71
3
72
39
73
35
40
0
40
0
40
0
40
0
40
0.0625000000000195
40
0.0625000000000195
40
0.125000000000039
40
0.125000000000039
40
0.187500000000059
40
0.187500000000059
40
0.218750000000066
40
0.218750000000066
40
0.250000000000073
40
0.250000000000073
40
0.312500000000077
40
0.312500000000077
40
0.343750000000079
40
0.343750000000079
40
0.375000000000081
40
0.406250000000084
40
0.406250000000084
40
0.437500000000086
40
0.437500000000086
40
0.500000000000078
40
0.500000000000078
40
0.562500000000069
40
0.562500000000069
40
0.625000000000061
40
0.625000000000061
40
0.687500000000052
40
0.687500000000052
40
0.750000000000043
40
0.750000000000043
40
0.875000000000022
40
0.875000000000022
40
1
40
1
40
1
40
1
41
1
10
467.650480947162
20
-12.5830864488552
30
0
41
1
10
467.642848465984
20
-12.5894145343036
30
0
41
1
10
467.635230044314
20
-12.5953906617517
30
0
41
1
10
467.620434193986
20
-12.6061779599143
30
0
41
1
10
467.613255140464
20
-12.6109974845266
30
0
41
1
10
467.599425158374
20
-12.6192459915905
30
0
41
1
10
467.592745263725
20
-12.6226722784114
30
0
41
1
10
467.583692680945
20
-12.6262998168307
30
0
41
1
10
467.580816760607
20
-12.6272697003262
30
0
41
1
10
467.575367399923
20
-12.6286973789889
30
0
41
1
10
467.572783455345
20
-12.6291527982121
30
0
41
1
10
467.565725370173
20
-12.6296830301408
30
0
41
1
10
467.561864611698
20
-12.6289563432181
30
0
41
1
10
467.557292459269
20
-12.6263023228409
30
0
41
1
10
467.55596873654
20
-12.6251453114004
30
0
41
1
10
467.553784251942
20
-12.622387250989
30
0
41
1
10
467.5520409109
20
-12.6191807863461
30
0
41
1
10
467.551098579189
20
-12.6151589316114
30
0
41
1
10
467.550528264205
20
-12.6107578663789
30
0
41
1
10
467.550430700683
20
-12.6083568813519
30
0
41
1
10
467.550654051541
20
-12.600765235297
30
0
41
1
10
467.551475794025
20
-12.5951597496372
30
0
41
1
10
467.554198267888
20
-12.5830737854492
30
0
41
1
10
467.556114381686
20
-12.57655576544
30
0
41
1
10
467.560823333971
20
-12.5629298211258
30
0
41
1
10
467.563597798464
20
-12.5558628914175
30
0
41
1
10
467.569844713144
20
-12.541306610806
30
0
41
1
10
467.573318283136
20
-12.5338165910083
30
0
41
1
10
467.580882685558
20
-12.5184630726752
30
0
41
1
10
467.584984596991
20
-12.5105829559695
30
0
41
1
10
467.597909096523
20
-12.4868430027681
30
0
41
1
10
467.60740422431
20
-12.470751826614
30
0
41
1
10
467.627855969026
20
-12.4381338925024
30
0
41
1
10
467.638816630045
20
-12.421605903531
30
0
41
1
10
467.650480947162
20
-12.4048713342175
30
0
0
SPLINE
5
191
100
AcDbEntity
8
1
62
256
6
ByLayer
370
18
48
1
60
0
100
AcDbSpline
70
4
71
3
72
8
73
4
40
0
40
0
40
0
40
0
40
1
40
1
40
1
40
1
41
1
10
467.650480947162
20
-12.4048713342175
30
0
41
1
10
467.87797677687
20
-12.078487483979
30
0
41
1
10
468.10282976625
20
-11.7496954266924
30
0
41
1
10
468.324759526419
20
-11.4182396666043
30
0
0
SPLINE
5
192
100
AcDbEntity
8
1
62
256
6
ByLayer
370
18
48
1
60
0
100
AcDbSpline
70
4
71
3
72
8
73
4
40
0
40
0
40
0
40
0
40
1
40
1
40
1
40
1
41
1
10
468.324759526419
20
-11.1940141333166
30
0
41
1
10
468.100007511727
20
-11.3780816494084
30
0
41
1
10
467.875247737629
20
-11.5621365334048
30
0
41
1
10
467.650480947162
20
-11.7461799915737
30
0
0
SPLINE
5
193
100
AcDbEntity
8
1
62
256
6
ByLayer
370
18
48
1
60
0
100
AcDbSpline
70
4
71
3
72
39
73
35
40
0
40
0
40
0
40
0
40
0.0624999999999997
40
0.0624999999999997
40
0.124999999999999
40
0.124999999999999
40
0.15625
40
0.15625
40
0.187500000000001
40
0.187500000000001
40
0.218750000000001
40
0.218750000000001
40
0.250000000000002
40
0.281250000000003
40
0.281250000000003
40
0.312500000000003
40
0.312500000000003
40
0.375000000000014
40
0.375000000000014
40
0.406250000000019
40
0.406250000000019
40
0.437500000000024
40
0.437500000000024
40
0.500000000000022
40
0.500000000000022
40
0.562500000000019
40
0.562500000000019
40
0.625000000000016
40
0.625000000000016
40
0.75000000000001
40
0.75000000000001
40
0.875000000000005
40
0.875000000000005
40
1
40
1
40
1
40
1
41
1
10
467.650480947162
20
-11.7461799915737
30
0
41
1
10
467.642517355018
20
-11.7527007370737
30
0
41
1
10
467.63453440989
20
-11.7587815916524
30
0
41
1
10
467.619042460543
20
-11.7694623151689
30
0
41
1
10
467.611511726718
20
-11.7740895951838
30
0
41
1
10
467.600621370502
20
-11.7796806806272
30
0
41
1
10
467.597061556648
20
-11.781312462139
30
0
41
1
10
467.590290341915
20
-11.7839856794483
30
0
41
1
10
467.587053841966
20
-11.7850409190107
30
0
41
1
10
467.58089623758
20
-11.786555118809
30
0
41
1
10
467.577954952722
20
-11.7870145467258
30
0
41
1
10
467.572512587958
20
-11.7872842763307
30
0
41
1
10
467.567547431314
20
-11.7869134556396
30
0
41
1
10
467.56348717482
20
-11.7853258627789
30
0
41
1
10
467.559865561372
20
-11.7831473720281
30
0
41
1
10
467.558264729514
20
-11.7817488018339
30
0
41
1
10
467.554196953588
20
-11.7767917693824
30
0
41
1
10
467.552440567205
20
-11.7725079257547
30
0
41
1
10
467.550959029724
20
-11.7648963564574
30
0
41
1
10
467.550660070545
20
-11.7621461067273
30
0
41
1
10
467.550422720308
20
-11.7563820754749
30
0
41
1
10
467.550481076441
20
-11.7533611718079
30
0
41
1
10
467.551119474506
20
-11.7439343578561
30
0
41
1
10
467.552159177103
20
-11.7371671874781
30
0
41
1
10
467.555239798449
20
-11.7228437690729
30
0
41
1
10
467.557290439547
20
-11.7152746972421
30
0
41
1
10
467.562146245542
20
-11.6997853492506
30
0
41
1
10
467.564959968858
20
-11.6918233983923
30
0
41
1
10
467.574383518436
20
-11.6673835167678
30
0
41
1
10
467.582020418221
20
-11.6502626912258
30
0
41
1
10
467.598905986321
20
-11.6158494363736
30
0
41
1
10
467.608200334979
20
-11.5984352934857
30
0
41
1
10
467.628249215424
20
-11.5632547901699
30
0
41
1
10
467.639006636006
20
-11.5454877152705
30
0
41
1
10
467.650480947162
20
-11.527550663011
30
0
0
SPLINE
5
194
100
AcDbEntity
8
1
62
256
6
ByLayer
370
18
48
1
60
0
100
AcDbSpline
70
4
71
3
72
8
73
4
40
0
40
0
40
0
40
0
40
1
40
1
40
1
40
1
41
1
10
467.650480947162
20
-11.527550663011
30
0
41
1
10
467.878876276632
20
-11.1705149416603
30
0
41
1
10
468.103764009202
20
-10.8105598495178
30
0
41
1
10
468.324759526419
20
-10.4473652688753
30
0
0
SPLINE
5
195
100
AcDbEntity
8
1
62
256
6
ByLayer
370
18
48
1
60
0
100
AcDbSpline
70
4
71
3
72
8
73
4
40
0
40
0
40
0
40
0
40
1
40
1
40
1
40
1
41
1
10
468.324759526419
20
-10.1718025873676
30
0
41
1
10
468.10000187134
20
-10.3554472734975
30
0
41
1
10
467.875242279349
20
-10.5390887989502
30
0
41
1
10
467.650480947162
20
-10.722727484519
30
0
0
SPLINE
5
196
100
AcDbEntity
8
1
62
256
6
ByLayer
370
18
48
1
60
0
100
AcDbSpline
70
4
71
3
72
38
73
34
40
0
40
0
40
0
40
0
40
0.0624999999999932
40
0.0624999999999932
40
0.0937499999999933
40
0.0937499999999933
40
0.124999999999993
40
0.124999999999993
40
0.187500000000001
40
0.187500000000001
40
0.250000000000009
40
0.250000000000009
40
0.281250000000012
40
0.281250000000012
40
0.312500000000015
40
0.312500000000015
40
0.375000000000013
40
0.375000000000013
40
0.437500000000011
40
0.437500000000011
40
0.500000000000009
40
0.500000000000009
40
0.562500000000007
40
0.562500000000007
40
0.625000000000005
40
0.625000000000005
40
0.687500000000003
40
0.687500000000003
40
0.75
40
0.75
40
0.875
40
0.875
40
1
40
1
40
1
40
1
41
1
10
467.650480947162
20
-10.722727484519
30
0
41
1
10
467.642084189611
20
-10.7295879596045
30
0
41
1
10
467.633635577278
20
-10.7358730778364
30
0
41
1
10
467.621331349082
20
-10.7438542779448
30
0
41
1
10
467.617278610407
20
-10.746284154622
30
0
41
1
10
467.609284196944
20
-10.7506167225584
30
0
41
1
10
467.605312533919
20
-10.7525309641143
30
0
41
1
10
467.59384949108
20
-10.7572404234756
30
0
41
1
10
467.586793021271
20
-10.7590261770089
30
0
41
1
10
467.574217814694
20
-10.7594741859485
30
0
41
1
10
467.568995280752
20
-10.7581391109136
30
0
41
1
10
467.562595860953
20
-10.7540283498186
30
0
41
1
10
467.560701051961
20
-10.7522911875514
30
0
41
1
10
467.557471003325
20
-10.7482678595034
30
0
41
1
10
467.556116901746
20
-10.7459736675144
30
0
41
1
10
467.552741344183
20
-10.7383459141725
30
0
41
1
10
467.551412871276
20
-10.7322137165072
30
0
41
1
10
467.550260898918
20
-10.7189622551606
30
0
41
1
10
467.550404629694
20
-10.7117851145473
30
0
41
1
10
467.551786707427
20
-10.6965886813031
30
0
41
1
10
467.55302900844
20
-10.6885664010905
30
0
41
1
10
467.556428844899
20
-10.6718153503704
30
0
41
1
10
467.558575785074
20
-10.6631531994748
30
0
41
1
10
467.563557184201
20
-10.645538439477
30
0
41
1
10
467.566399025425
20
-10.6365545230333
30
0
41
1
10
467.5726862554
20
-10.6182825742112
30
0
41
1
10
467.576143791446
20
-10.6089656304788
30
0
41
1
10
467.58354639268
20
-10.5902008455674
30
0
41
1
10
467.587481021919
20
-10.5807754721055
30
0
41
1
10
467.599905559109
20
-10.5523851374555
30
0
41
1
10
467.609009839549
20
-10.5333070438367
30
0
41
1
10
467.628661740995
20
-10.4948880043362
30
0
41
1
10
467.639211392285
20
-10.4755466757483
30
0
41
1
10
467.650480947162
20
-10.4560769820844
30
0
0
SPLINE
5
197
100
AcDbEntity
8
1
62
256
6
ByLayer
370
18
48
1
60
0
100
AcDbSpline
70
4
71
3
72
8
73
4
40
0
40
0
40
0
40
0
40
1
40
1
40
1
40
1
41
1
10
467.650480947162
20
-10.4560769820844
30
0
41
1
10
467.880211532645
20
-10.0591860512822
30
0
41
1
10
468.105152654041
20
-9.65871232422205
30
0
41
1
10
468.324759526419
20
-9.25424827025435
30
0
0
SPLINE
5
198
100
AcDbEntity
8
1
62
256
6
ByLayer
370
18
48
1
60
0
100
AcDbSpline
70
4
71
3
72
8
73
4
40
0
40
0
40
0
40
0
40
1
40
1
40
1
40
1
41
1
10
468.324759526419
20
-8.91477968744204
30
0
41
1
10
468.10004293855
20
-9.10099187453034
30
0
41
1
10
467.87528177088
20
-9.28713229076291
30
0
41
1
10
467.650480947162
20
-9.47320886309313
30
0
0
SPLINE
5
199
100
AcDbEntity
8
1
62
256
6
ByLayer
370
18
48
1
60
0
100
AcDbSpline
70
4
71
3
72
34
73
30
40
0
40
0
40
0
40
0
40
0.0624999999999956
40
0.0624999999999956
40
0.093749999999995
40
0.093749999999995
40
0.124999999999995
40
0.124999999999995
40
0.187499999999994
40
0.187499999999994
40
0.249999999999993
40
0.249999999999993
40
0.281249999999994
40
0.281249999999994
40
0.312499999999996
40
0.312499999999996
40
0.374999999999996
40
0.374999999999996
40
0.437499999999996
40
0.437499999999996
40
0.499999999999997
40
0.499999999999997
40
0.624999999999998
40
0.624999999999998
40
0.749999999999998
40
0.749999999999998
40
0.874999999999999
40
0.874999999999999
40
1
40
1
40
1
40
1
41
1
10
467.650480947162
20
-9.47320886309407
30
0
41
1
10
467.641610746045
20
-9.48055108094013
30
0
41
1
10
467.632717594853
20
-9.48709742601565
30
0
41
1
10
467.619328414583
20
-9.49520539499144
30
0
41
1
10
467.614948765931
20
-9.49756171194898
30
0
41
1
10
467.606376490094
20
-9.50149614591032
30
0
41
1
10
467.602156895126
20
-9.50308185095838
30
0
41
1
10
467.590005767027
20
-9.50643292619799
30
0
41
1
10
467.582819857639
20
-9.50675740049178
30
0
41
1
10
467.570335823892
20
-9.50344855594722
30
0
41
1
10
467.565449926247
20
-9.49992936231013
30
0
41
1
10
467.559738856258
20
-9.49254380095852
30
0
41
1
10
467.558096977763
20
-9.48970101832231
30
0
41
1
10
467.555363676397
20
-9.48351861218742
30
0
41
1
10
467.554261456695
20
-9.48017426130585
30
0
41
1
10
467.551618606382
20
-9.46950406988705
30
0
41
1
10
467.55074024509
20
-9.46148862181101
30
0
41
1
10
467.550322100162
20
-9.44464214165149
30
0
41
1
10
467.550767880495
20
-9.43576934561298
30
0
41
1
10
467.552650600945
20
-9.41733960157816
30
0
41
1
10
467.554097560382
20
-9.4077483041188
30
0
41
1
10
467.559624326733
20
-9.37836229807135
30
0
41
1
10
467.564840271178
20
-9.35804580031743
30
0
41
1
10
467.57746663017
20
-9.31641517319085
30
0
41
1
10
467.584781622077
20
-9.29544451247594
30
0
41
1
10
467.600983403359
20
-9.25325825027358
30
0
41
1
10
467.609876729726
20
-9.23204169530331
30
0
41
1
10
467.629096511696
20
-9.18938762024538
30
0
41
1
10
467.639424130324
20
-9.16794990812343
30
0
41
1
10
467.650480947162
20
-9.14640238484134
30
0
0
SPLINE
5
19A
100
AcDbEntity
8
1
62
256
6
ByLayer
370
18
48
1
60
0
100
AcDbSpline
70
4
71
3
72
8
73
4
40
0
40
0
40
0
40
0
40
1
40
1
40
1
40
1
41
1
10
467.650480947162
20
-9.14640238484134
30
0
41
1
10
467.882352997816
20
-8.69453016128048
30
0
41
1
10
468.107382666912
20
-8.23816651619882
30
0
41
1
10
468.324759526419
20
-7.77677947489292
30
0
0
SPLINE
5
19B
100
AcDbEntity
8
1
62
256
6
ByLayer
370
18
48
1
60
0
100
AcDbSpline
70
4
71
3
72
8
73
4
40
0
40
0
40
0
40
0
40
1
40
1
40
1
40
1
41
1
10
468.324759526419
20
-7.35146119898548
30
0
41
1
10
468.100191536751
20
-7.54535781735237
30
0
41
1
10
467.875423713527
20
-7.73894510745995
30
0
41
1
10
467.650480947162
20
-7.93226159791791
30
0
0
SPLINE
5
19C
100
AcDbEntity
8
1
62
256
6
ByLayer
370
18
48
1
60
0
100
AcDbSpline
70
4
71
3
72
39
73
35
40
0
40
0
40
0
40
0
40
0.031250000000003
40
0.031250000000003
40
0.0625000000000058
40
0.0625000000000058
40
0.0937500000000087
40
0.0937500000000087
40
0.125000000000011
40
0.125000000000011
40
0.156250000000014
40
0.156250000000014
40
0.187500000000017
40
0.187500000000017
40
0.21875000000002
40
0.21875000000002
40
0.250000000000023
40
0.250000000000023
40
0.281250000000025
40
0.281250000000025
40
0.312500000000028
40
0.312500000000028
40
0.375000000000029
40
0.375000000000029
40
0.500000000000018
40
0.500000000000018
40
0.562500000000015
40
0.562500000000015
40
0.625000000000011
40
0.625000000000011
40
0.750000000000008
40
0.750000000000008
40
0.875000000000004
40
1
40
1
40
1
40
1
41
1
10
467.650480947162
20
-7.93226159791973
30
0
41
1
10
467.645659559596
20
-7.93640511290522
30
0
41
1
10
467.640801078904
20
-7.9402752725353
30
0
41
1
10
467.630992180374
20
-7.94733665601677
30
0
41
1
10
467.626006027204
20
-7.95054470916867
30
0
41
1
10
467.616213206618
20
-7.95591984139105
30
0
41
1
10
467.611384546088
20
-7.95810902100831
30
0
41
1
10
467.601890289183
20
-7.96128445215501
30
0
41
1
10
467.597355810905
20
-7.96222048374693
30
0
41
1
10
467.588820720175
20
-7.9627189554156
30
0
41
1
10
467.584759371
20
-7.9622658825171
30
0
41
1
10
467.577453125654
20
-7.96002560259555
30
0
41
1
10
467.574191909539
20
-7.95826207512516
30
0
41
1
10
467.568356163976
20
-7.95360470919152
30
0
41
1
10
467.565807208947
20
-7.95071591730229
30
0
41
1
10
467.561457307646
20
-7.9442163221467
30
0
41
1
10
467.559626662752
20
-7.94058162684581
30
0
41
1
10
467.556523269336
20
-7.93268665844593
30
0
41
1
10
467.555247510152
20
-7.92840352998891
30
0
41
1
10
467.55319751331
20
-7.91944341403467
30
0
41
1
10
467.552418485904
20
-7.91476360895092
30
0
41
1
10
467.550682498191
20
-7.90023434939661
30
0
41
1
10
467.550325735067
20
-7.8898556133702
30
0
41
1
10
467.550966789172
20
-7.85799228261899
30
0
41
1
10
467.553590221519
20
-7.83558668761378
30
0
41
1
10
467.559524476594
20
-7.80090260273215
30
0
41
1
10
467.561860927053
20
-7.78911380619073
30
0
41
1
10
467.567088729835
20
-7.76542058685237
30
0
41
1
10
467.569973709317
20
-7.75353553286004
30
0
41
1
10
467.579321527427
20
-7.71778098688944
30
0
41
1
10
467.58646953122
20
-7.69381309105546
30
0
41
1
10
467.602267862415
20
-7.64565947793545
30
0
41
1
10
467.619577003328
20
-7.59728693312243
30
0
41
1
10
467.639694160572
20
-7.5485106461864
30
0
41
1
10
467.650480947162
20
-7.52402032861522
30
0
0
SPLINE
5
19D
100
AcDbEntity
8
1
62
256
6
ByLayer
370
18
48
1
60
0
100
AcDbSpline
70
4
71
3
72
8
73
4
40
0
40
0
40
0
40
0
40
1
40
1
40
1
40
1
41
1
10
467.650480947162
20
-7.52402032861522
30
0
41
1
10
467.886241901321
20
-6.98874871734395
30
0
41
1
10
468.111437539985
20
-6.44762852173633
30
0
41
1
10
468.324759526419
20
-5.89993549293013
30
0
0
SPLINE
5
19E
100
AcDbEntity
8
1
62
256
6
ByLayer
370
18
48
1
60
0
100
AcDbSpline
70
4
71
3
72
8
73
4
40
0
40
0
40
0
40
0
40
1
40
1
40
1
40
1
41
1
10
468.324759526419
20
-5.34389161534656
30
0
41
1
10
468.100672937923
20
-5.55616259190893
30
0
41
1
10
467.875878259423
20
-5.76742938853417
30
0
41
1
10
467.650480947162
20
-5.9778415583049
30
0
0
SPLINE
5
19F
100
AcDbEntity
8
1
62
256
6
ByLayer
370
18
48
1
60
0
100
AcDbSpline
70
4
71
3
72
39
73
35
40
0
40
0
40
0
40
0
40
0.0312500000000001
40
0.0312500000000001
40
0.0625000000000004
40
0.0625000000000004
40
0.078125
40
0.078125
40
0.0937499999999996
40
0.0937499999999996
40
0.125
40
0.125
40
0.15625
40
0.15625
40
0.1875
40
0.1875
40
0.21875
40
0.21875
40
0.25
40
0.25
40
0.28125
40
0.28125
40
0.312500000000001
40
0.312500000000001
40
0.375000000000004
40
0.375000000000004
40
0.500000000000003
40
0.500000000000003
40
0.625000000000002
40
0.625000000000002
40
0.750000000000002
40
0.750000000000002
40
0.875000000000001
40
1
40
1
40
1
40
1
41
1
10
467.650480947162
20
-5.97784155830666
30
0
41
1
10
467.645070573186
20
-5.98289223311809
30
0
41
1
10
467.639513106979
20
-5.98757922883905
30
0
41
1
10
467.628225225349
20
-5.99575979951547
30
0
41
1
10
467.622572736455
20
-5.99920331417363
30
0
41
1
10
467.614077225303
20
-6.00309188104018
30
0
41
1
10
467.611222335286
20
-6.00417688359701
30
0
41
1
10
467.605677702528
20
-6.00579678088172
30
0
41
1
10
467.602973531995
20
-6.00634145162786
30
0
41
1
10
467.595073068045
20
-6.00714902252366
30
0
41
1
10
467.590031566255
20
-6.00653248903515
30
0
41
1
10
467.581193349521
20
-6.00322100252282
30
0
41
1
10
467.577280359417
20
-6.00054314112651
30
0
41
1
10
467.570434037439
20
-5.99361295890884
30
0
41
1
10
467.567567506173
20
-5.98945546023725
30
0
41
1
10
467.562642849808
20
-5.98013118363528
30
0
41
1
10
467.560603852079
20
-5.97497649319291
30
0
41
1
10
467.557229405652
20
-5.96419775223552
30
0
41
1
10
467.555875895449
20
-5.95853365973028
30
0
41
1
10
467.553672457203
20
-5.94678901701749
30
0
41
1
10
467.552823959493
20
-5.94070730426006
30
0
41
1
10
467.551532822405
20
-5.92820667992953
30
0
41
1
10
467.551090778585
20
-5.92176918652879
30
0
41
1
10
467.550280304693
20
-5.90225782336344
30
0
41
1
10
467.550409275107
20
-5.88893362627567
30
0
41
1
10
467.552194406003
20
-5.84829137627293
30
0
41
1
10
467.555225580055
20
-5.82031433022257
30
0
41
1
10
467.56364088965
20
-5.76320726547482
30
0
41
1
10
467.568989094997
20
-5.7344845311743
30
0
41
1
10
467.581324248186
20
-5.67689172178802
30
0
41
1
10
467.588324868774
20
-5.64799917338308
30
0
41
1
10
467.603732419277
20
-5.59004840719629
30
0
41
1
10
467.620551977068
20
-5.53193141866933
30
0
41
1
10
467.640038964387
20
-5.47350179980879
30
0
41
1
10
467.650480947162
20
-5.44420748306396
30
0
0
SPLINE
5
1A0
100
AcDbEntity
8
1
62
256
6
ByLayer
370
18
48
1
60
0
100
AcDbSpline
70
4
71
3
72
8
73
4
40
0
40
0
40
0
40
0
40
1
40
1
40
1
40
1
41
1
10
467.650480947162
20
-5.44420748306396
30
0
41
1
10
467.895186418447
20
-4.75770188931307
30
0
41
1
10
468.120774732857
20
-4.06295440434528
30
0
41
1
10
468.324759526419
20
-3.3588930935876
30
0
0
SPLINE
5
1A1
100
AcDbEntity
8
1
62
256
6
ByLayer
370
18
48
1
60
0
100
AcDbSpline
70
4
71
3
72
8
73
4
40
0
40
0
40
0
40
0
40
1
40
1
40
1
40
1
41
1
10
468.324759526419
20
-2.54543529228283
30
0
41
1
10
468.102856207575
20
-2.8081293930683
30
0
41
1
10
467.87789393872
20
-3.06728947825474
30
0
41
1
10
467.650480947162
20
-3.32361823496896
30
0
0
SPLINE
5
1A2
100
AcDbEntity
8
1
62
256
6
ByLayer
370
18
48
1
60
0
100
AcDbSpline
70
4
71
3
72
38
73
34
40
0
40
0
40
0
40
0
40
0.0312499999999931
40
0.0312499999999931
40
0.0468749999999891
40
0.0468749999999891
40
0.0624999999999852
40
0.0624999999999852
40
0.0781249999999813
40
0.0781249999999813
40
0.0937499999999775
40
0.0937499999999775
40
0.109374999999973
40
0.109374999999973
40
0.12499999999997
40
0.12499999999997
40
0.15624999999997
40
0.15624999999997
40
0.187499999999971
40
0.187499999999971
40
0.249999999999972
40
0.249999999999972
40
0.312499999999974
40
0.312499999999974
40
0.374999999999975
40
0.374999999999975
40
0.499999999999981
40
0.499999999999981
40
0.624999999999986
40
0.624999999999986
40
0.749999999999992
40
0.749999999999992
40
1
40
1
40
1
40
1
41
1
10
467.650480947163
20
-3.32361823497229
30
0
41
1
10
467.643984522043
20
-3.33094068635373
30
0
41
1
10
467.637087099727
20
-3.33768124412384
30
0
41
1
10
467.626354747428
20
-3.34568070105834
30
0
41
1
10
467.622672786077
20
-3.34801975192144
30
0
41
1
10
467.615227174174
20
-3.35169640698291
30
0
41
1
10
467.611531397854
20
-3.35300455163358
30
0
41
1
10
467.604203715131
20
-3.35436607527154
30
0
41
1
10
467.600638398742
20
-3.35438934468121
30
0
41
1
10
467.593959541195
20
-3.35314067665399
30
0
41
1
10
467.590782123263
20
-3.35184798669468
30
0
41
1
10
467.58507026222
20
-3.34828207327166
30
0
41
1
10
467.582488099225
20
-3.34601133649574
30
0
41
1
10
467.577753050436
20
-3.34070331419937
30
0
41
1
10
467.575612489275
20
-3.33767053930896
30
0
41
1
10
467.569849274635
20
-3.32792028671426
30
0
41
1
10
467.566789889395
20
-3.32043543782359
30
0
41
1
10
467.561775920044
20
-3.30477720345053
30
0
41
1
10
467.559797491318
20
-3.29654262529289
30
0
41
1
10
467.554893629213
20
-3.27104194241161
30
0
41
1
10
467.552983754743
20
-3.25288418124643
30
0
41
1
10
467.550722421526
20
-3.21638791679803
30
0
41
1
10
467.550369579247
20
-3.19789985845029
30
0
41
1
10
467.550648562
20
-3.16061226405287
30
0
41
1
10
467.551290415845
20
-3.14180977373439
30
0
41
1
10
467.5543116466
20
-3.08504763501443
30
0
41
1
10
467.557768451239
20
-3.04673870110912
30
0
41
1
10
467.566574464434
20
-2.96947917110177
30
0
41
1
10
467.571943356467
20
-2.93052277137844
30
0
41
1
10
467.584191791777
20
-2.85208140430905
30
0
41
1
10
467.591049423945
20
-2.81277108989769
30
0
41
1
10
467.613451439318
20
-2.69485960614426
30
0
41
1
10
467.630794068013
20
-2.61615616242932
30
0
41
1
10
467.650480947162
20
-2.5373639096841
30
0
0
SPLINE
5
1A3
100
AcDbEntity
8
1
62
256
6
ByLayer
370
18
48
1
60
0
100
AcDbSpline
70
4
71
3
72
8
73
4
40
0
40
0
40
0
40
0
40
1
40
1
40
1
40
1
41
1
10
467.650480947162
20
-2.53736390968413
30
0
41
1
10
467.936650314553
20
-1.39203615339781
30
0
41
1
10
468.164101740032
20
-0.23155518188895
30
0
41
1
10
468.324759526419
20
0.946163082953291
30
0
0
SPLINE
5
1A4
100
AcDbEntity
8
1
62
256
6
ByLayer
370
18
48
1
60
0
100
AcDbSpline
70
4
71
3
72
10
73
6
40
0
40
0
40
0
40
0
40
0.5
40
0.5
40
1
40
1
40
1
40
1
41
1
10
468.324759526414
20
3.46016437562781
30
0
41
1
10
468.253343637488
20
3.08605222483919
30
0
41
1
10
468.15848925999
20
2.72177884436212
30
0
41
1
10
467.930986544699
20
2.00909684761288
30
0
41
1
10
467.798334418938
20
1.66068982141542
30
0
41
1
10
467.650480947162
20
1.31866386161724
30
0
0
SPLINE
5
1A5
100
AcDbEntity
8
1
62
256
6
ByLayer
370
18
48
1
60
0
100
AcDbSpline
70
4
71
3
72
57
73
53
40
0
40
0
40
0
40
0
40
0.125000000000002
40
0.125000000000002
40
0.250000000000004
40
0.375000000000005
40
0.375000000000005
40
0.500000000000006
40
0.500000000000006
40
0.625000000000007
40
0.625000000000007
40
0.687500000000008
40
0.687500000000008
40
0.750000000000008
40
0.750000000000008
40
0.812500000000009
40
0.812500000000009
40
0.875000000000009
40
0.875000000000009
40
0.90625000000001
40
0.90625000000001
40
0.92187500000001
40
0.92187500000001
40
0.93750000000001
40
0.93750000000001
40
0.945312500000009
40
0.945312500000009
40
0.953125000000009
40
0.953125000000009
40
0.960937500000008
40
0.960937500000008
40
0.964843750000008
40
0.964843750000008
40
0.968750000000008
40
0.968750000000008
40
0.972656250000008
40
0.972656250000008
40
0.976562500000008
40
0.976562500000008
40
0.978515625000008
40
0.978515625000008
40
0.980468750000007
40
0.980468750000007
40
0.982421875000007
40
0.982421875000007
40
0.984375000000007
40
0.984375000000007
40
0.988281250000006
40
0.988281250000006
40
0.992187500000004
40
0.992187500000004
40
1
40
1
40
1
40
1
41
1
10
467.650480947162
20
4.79447758099667
30
0
41
1
10
467.649474914009
20
4.64257282307741
30
0
41
1
10
467.647352403027
20
4.49068193356007
30
0
41
1
10
467.641079448038
20
4.18692895768507
30
0
41
1
10
467.632780463968
20
3.88320479353186
30
0
41
1
10
467.621220285853
20
3.57954243457604
30
0
41
1
10
467.608599227804
20
3.27591403785266
30
0
41
1
10
467.601754923345
20
3.1241168011575
30
0
41
1
10
467.587790157286
20
2.82056059262601
30
0
41
1
10
467.580656945611
20
2.66880154760736
30
0
41
1
10
467.570656270951
20
2.44119674680084
30
0
41
1
10
467.567443146172
20
2.3653341303513
30
0
41
1
10
467.561508805656
20
2.21362161662154
30
0
41
1
10
467.558783648494
20
2.13774767313714
30
0
41
1
10
467.554227791731
20
1.98639807764681
30
0
41
1
10
467.552384521753
20
1.91088208268332
30
0
41
1
10
467.550304819929
20
1.76030544060856
30
0
41
1
10
467.550017507499
20
1.68523525994661
30
0
41
1
10
467.552116127572
20
1.57321938096908
30
0
41
1
10
467.553241725102
20
1.53597982306371
30
0
41
1
10
467.556066196098
20
1.48036217479
30
0
41
1
10
467.557199844787
20
1.46186376712541
30
0
41
1
10
467.560032561575
20
1.42498249381953
30
0
41
1
10
467.561724621638
20
1.40659831536172
30
0
41
1
10
467.564962866512
20
1.37916042457698
30
0
41
1
10
467.566160648091
20
1.3700378374314
30
0
41
1
10
467.568892543204
20
1.35185807401902
30
0
41
1
10
467.570429233634
20
1.34277298098559
30
0
41
1
10
467.574003223349
20
1.32482961050067
30
0
41
1
10
467.576022559128
20
1.31601943190972
30
0
41
1
10
467.579665375541
20
1.30322695536509
30
0
41
1
10
467.580983473112
20
1.29903429870879
30
0
41
1
10
467.583925806698
20
1.2908590367426
30
0
41
1
10
467.585555704597
20
1.28686312506406
30
0
41
1
10
467.589214864266
20
1.27940680909742
30
0
41
1
10
467.591242911041
20
1.27591802146236
30
0
41
1
10
467.596024190781
20
1.269812774738
30
0
41
1
10
467.598791925149
20
1.26720744962222
30
0
41
1
10
467.603585192062
20
1.26497186906337
30
0
41
1
10
467.605238544653
20
1.26453095266081
30
0
41
1
10
467.608667422955
20
1.26431709371153
30
0
41
1
10
467.61045752744
20
1.26455966997176
30
0
41
1
10
467.613936585578
20
1.26566676014559
30
0
41
1
10
467.615671884936
20
1.26653771797135
30
0
41
1
10
467.61899339339
20
1.26871155501976
30
0
41
1
10
467.620581409002
20
1.27000587963343
30
0
41
1
10
467.625186557665
20
1.27434154931797
30
0
41
1
10
467.628021131566
20
1.27780990186889
30
0
41
1
10
467.633249794904
20
1.28514751172364
30
0
41
1
10
467.635679061346
20
1.2890666805597
30
0
41
1
10
467.642616772462
20
1.3012966654974
30
0
41
1
10
467.646685962344
20
1.30988501246964
30
0
41
1
10
467.650480947162
20
1.31866386161724
30
0
0
SPLINE
5
1A6
100
AcDbEntity
8
1
62
256
6
ByLayer
370
18
48
1
60
0
100
AcDbSpline
70
4
71
3
72
8
73
4
40
0
40
0
40
0
40
0
40
1
40
1
40
1
40
1
41
1
10
467.650480947162
20
4.79447758099667
30
0
41
1
10
467.651388368233
20
4.93149252699772
30
0
41
1
10
467.651388368233
20
5.06850747299879
30
0
41
1
10
467.650480947162
20
5.20552241899983
30
0
0
SPLINE
5
1A7
100
AcDbEntity
8
1
62
256
6
ByLayer
370
18
48
1
60
0
100
AcDbSpline
70
4
71
3
72
59
73
55
40
0
40
0
40
0
40
0
40
0.124999999999998
40
0.124999999999998
40
0.249999999999997
40
0.374999999999995
40
0.374999999999995
40
0.499999999999993
40
0.499999999999993
40
0.624999999999992
40
0.624999999999992
40
0.687499999999991
40
0.687499999999991
40
0.749999999999991
40
0.749999999999991
40
0.81249999999999
40
0.81249999999999
40
0.843749999999989
40
0.843749999999989
40
0.874999999999988
40
0.874999999999988
40
0.906249999999987
40
0.906249999999987
40
0.921874999999986
40
0.921874999999986
40
0.937499999999985
40
0.937499999999985
40
0.945312499999985
40
0.945312499999985
40
0.953124999999985
40
0.953124999999985
40
0.960937499999985
40
0.960937499999985
40
0.964843749999985
40
0.964843749999985
40
0.968749999999986
40
0.968749999999986
40
0.972656249999986
40
0.972656249999986
40
0.976562499999987
40
0.976562499999987
40
0.978515624999988
40
0.978515624999988
40
0.980468749999989
40
0.980468749999989
40
0.982421874999991
40
0.982421874999991
40
0.984374999999992
40
0.984374999999992
40
0.988281249999994
40
0.988281249999994
40
0.992187499999997
40
0.992187499999997
40
1
40
1
40
1
40
1
41
1
10
467.650480947162
20
5.20552241899983
30
0
41
1
10
467.649474529164
20
5.35748528611725
30
0
41
1
10
467.647350571744
20
5.50946203431744
30
0
41
1
10
467.641070593963
20
5.81344439337934
30
0
41
1
10
467.632760419544
20
6.11745562328099
30
0
41
1
10
467.621178756172
20
6.42152886411975
30
0
41
1
10
467.608531759673
20
6.72563622957577
30
0
41
1
10
467.601672191192
20
6.8777069546598
30
0
41
1
10
467.587676377915
20
7.18188692008701
30
0
41
1
10
467.580530180473
20
7.33394573764588
30
0
41
1
10
467.570536139854
20
7.56160809848276
30
0
41
1
10
467.567328862803
20
7.63743907733192
30
0
41
1
10
467.561413484972
20
7.78896908574632
30
0
41
1
10
467.558701689912
20
7.86466839812823
30
0
41
1
10
467.554167978853
20
8.01590533592184
30
0
41
1
10
467.552334555853
20
8.09144384069984
30
0
41
1
10
467.550799054594
20
8.20458854632369
30
0
41
1
10
467.550492739193
20
8.24227603690855
30
0
41
1
10
467.550469812771
20
8.31758254278515
30
0
41
1
10
467.550750183483
20
8.35523886655113
30
0
41
1
10
467.552208755407
20
8.43023262171272
30
0
41
1
10
467.553373181025
20
8.46757297685406
30
0
41
1
10
467.556275212278
20
8.52319890720318
30
0
41
1
10
467.557437968645
20
8.54167593430634
30
0
41
1
10
467.560336644401
20
8.57844571083399
30
0
41
1
10
467.562065629678
20
8.59674052995911
30
0
41
1
10
467.565365531574
20
8.62396204542148
30
0
41
1
10
467.566584913132
20
8.63299859792465
30
0
41
1
10
467.569361551694
20
8.65096757430635
30
0
41
1
10
467.570921073671
20
8.65991916152126
30
0
41
1
10
467.574516938715
20
8.67745376451575
30
0
41
1
10
467.576547962152
20
8.68605996342779
30
0
41
1
10
467.58021552862
20
8.69854381258668
30
0
41
1
10
467.581543102687
20
8.70263313961746
30
0
41
1
10
467.584510409302
20
8.71059873923582
30
0
41
1
10
467.586161611328
20
8.7145039643805
30
0
41
1
10
467.589888240219
20
8.72177776739335
30
0
41
1
10
467.591955510826
20
8.72516274851
30
0
41
1
10
467.59684579735
20
8.73100162030096
30
0
41
1
10
467.599637337106
20
8.73338371760539
30
0
41
1
10
467.604411839463
20
8.7352706160967
30
0
41
1
10
467.606061767277
20
8.73560195864502
30
0
41
1
10
467.609492008734
20
8.73560099260263
30
0
41
1
10
467.611227428267
20
8.73526227848458
30
0
41
1
10
467.61463552521
20
8.73400699466885
30
0
41
1
10
467.616332222931
20
8.73307964611266
30
0
41
1
10
467.61955483406
20
8.73084823538628
30
0
41
1
10
467.621102908113
20
8.72953833110788
30
0
41
1
10
467.62560527577
20
8.72517335725365
30
0
41
1
10
467.628363216431
20
8.72174764484186
30
0
41
1
10
467.633516183583
20
8.7144363213676
30
0
41
1
10
467.635914818984
20
8.71053626148208
30
0
41
1
10
467.642693644436
20
8.69852839288134
30
0
41
1
10
467.646722359183
20
8.69003079157687
30
0
41
1
10
467.650480947162
20
8.68133613838086
30
0
0
SPLINE
5
1A8
100
AcDbEntity
8
1
62
256
6
ByLayer
370
18
48
1
60
0
100
AcDbSpline
70
4
71
3
72
10
73
6
40
0
40
0
40
0
40
0
40
0.5
40
0.5
40
1
40
1
40
1
40
1
41
1
10
467.650480947161
20
8.68133613838063
30
0
41
1
10
467.798334418938
20
8.33931017858123
30
0
41
1
10
467.9309865447
20
7.99090315238254
30
0
41
1
10
468.158489259991
20
7.27822115563069
30
0
41
1
10
468.253343637489
20
6.91394777515222
30
0
41
1
10
468.324759526416
20
6.53983562436218
30
0
0
SPLINE
5
1A9
100
AcDbEntity
8
1
62
256
6
ByLayer
370
18
48
1
60
0
100
AcDbSpline
70
4
71
3
72
8
73
4
40
0
40
0
40
0
40
0
40
1
40
1
40
1
40
1
41
1
10
468.324759526419
20
9.05383691704318
30
0
41
1
10
468.164101740032
20
10.2315551818855
30
0
41
1
10
467.936650314553
20
11.3920361533943
30
0
41
1
10
467.650480947162
20
12.5373639096806
30
0
0
SPLINE
5
1AA
100
AcDbEntity
8
1
62
256
6
ByLayer
370
18
48
1
60
0
100
AcDbSpline
70
4
71
3
72
42
73
38
40
0
40
0
40
0
40
0
40
0.250000000000009
40
0.250000000000009
40
0.375000000000013
40
0.375000000000013
40
0.500000000000018
40
0.500000000000018
40
0.625000000000022
40
0.625000000000022
40
0.687500000000024
40
0.687500000000024
40
0.750000000000027
40
0.750000000000027
40
0.781250000000023
40
0.781250000000023
40
0.812500000000019
40
0.812500000000019
40
0.843750000000016
40
0.843750000000016
40
0.859375000000014
40
0.859375000000014
40
0.875000000000012
40
0.875000000000012
40
0.890625000000011
40
0.890625000000011
40
0.906250000000009
40
0.906250000000009
40
0.921875000000007
40
0.921875000000007
40
0.937500000000006
40
0.937500000000006
40
0.953125000000004
40
0.953125000000004
40
0.968750000000002
40
0.968750000000002
40
1
40
1
40
1
40
1
41
1
10
467.650480947161
20
12.5373639096806
30
0
41
1
10
467.63076897837
20
12.6162565780106
30
0
41
1
10
467.61346059995
20
12.6948483875477
30
0
41
1
10
467.591140780514
20
12.8122718609797
30
0
41
1
10
467.584320719394
20
12.8513346156625
30
0
41
1
10
467.572124668301
20
12.9292847102208
30
0
41
1
10
467.566742521326
20
12.9681725752497
30
0
41
1
10
467.557864378318
20
13.0457341654552
30
0
41
1
10
467.55434285781
20
13.0844400879724
30
0
41
1
10
467.551271377319
20
13.1421780618714
30
0
41
1
10
467.550630005146
20
13.1612308644041
30
0
41
1
10
467.550377159459
20
13.1988263852368
30
0
41
1
10
467.550757044976
20
13.2173731419196
30
0
41
1
10
467.552486535079
20
13.2446298400139
30
0
41
1
10
467.553258656099
20
13.253620402875
30
0
41
1
10
467.555324288495
20
13.2713507168471
30
0
41
1
10
467.556619146011
20
13.2801132325746
30
0
41
1
10
467.559941779673
20
13.2971873027492
30
0
41
1
10
467.56194845637
20
13.3054174754374
30
0
41
1
10
467.565733288872
20
13.3170790955412
30
0
41
1
10
467.567125496084
20
13.3208510908126
30
0
41
1
10
467.570248978874
20
13.3280968735344
30
0
41
1
10
467.571992418154
20
13.3315905985688
30
0
41
1
10
467.575857623531
20
13.3380349923337
30
0
41
1
10
467.577978928924
20
13.3409948006514
30
0
41
1
10
467.582717557109
20
13.3462264145756
30
0
41
1
10
467.58536880188
20
13.3485166992699
30
0
41
1
10
467.591140283969
20
13.3520175053918
30
0
41
1
10
467.594278886941
20
13.3532465409784
30
0
41
1
10
467.601038610781
20
13.3544128086463
30
0
41
1
10
467.604547324229
20
13.354335798464
30
0
41
1
10
467.611812347963
20
13.3529157629817
30
0
41
1
10
467.615579957294
20
13.351549892669
30
0
41
1
10
467.622949675614
20
13.3478528590438
30
0
41
1
10
467.626634528599
20
13.3454932373665
30
0
41
1
10
467.637401170667
20
13.3374023255895
30
0
41
1
10
467.644079218297
20
13.3308339493777
30
0
41
1
10
467.650480947162
20
13.3236182349655
30
0
0
SPLINE
5
1AB
100
AcDbEntity
8
1
62
256
6
ByLayer
370
18
48
1
60
0
100
AcDbSpline
70
4
71
3
72
8
73
4
40
0
40
0
40
0
40
0
40
1
40
1
40
1
40
1
41
1
10
467.650480947162
20
13.3236182349655
30
0
41
1
10
467.877893938717
20
13.0672894782545
30
0
41
1
10
468.102856207569
20
12.8081293930713
30
0
41
1
10
468.324759526411
20
12.5454352922892
30
0
0
SPLINE
5
1AC
100
AcDbEntity
8
1
62
256
6
ByLayer
370
18
48
1
60
0
100
AcDbSpline
70
4
71
3
72
8
73
4
40
0
40
0
40
0
40
0
40
1
40
1
40
1
40
1
41
1
10
468.324759526419
20
13.3588930935841
30
0
41
1
10
468.120774732857
20
14.0629544043418
30
0
41
1
10
467.895186418447
20
14.7577018893096
30
0
41
1
10
467.650480947162
20
15.4442074830605
30
0
0
SPLINE
5
1AD
100
AcDbEntity
8
1
62
256
6
ByLayer
370
18
48
1
60
0
100
AcDbSpline
70
4
71
3
72
40
73
36
40
0
40
0
40
0
40
0
40
0.125000000000027
40
0.125000000000027
40
0.250000000000054
40
0.250000000000054
40
0.375000000000074
40
0.375000000000074
40
0.500000000000094
40
0.500000000000094
40
0.562500000000096
40
0.562500000000096
40
0.625000000000097
40
0.625000000000097
40
0.687500000000098
40
0.687500000000098
40
0.750000000000099
40
0.750000000000099
40
0.781250000000091
40
0.781250000000091
40
0.812500000000082
40
0.812500000000082
40
0.843750000000073
40
0.843750000000073
40
0.875000000000064
40
0.875000000000064
40
0.906250000000055
40
0.906250000000055
40
0.921875000000051
40
0.921875000000051
40
0.937500000000046
40
0.937500000000046
40
0.968750000000023
40
0.968750000000023
40
1
40
1
40
1
40
1
41
1
10
467.650480947162
20
15.4442074830605
30
0
41
1
10
467.640025010736
20
15.473540945881
30
0
41
1
10
467.630210989746
20
15.5029673076428
30
0
41
1
10
467.611958545041
20
15.5616002322828
30
0
41
1
10
467.603523410692
20
15.5907865528432
30
0
41
1
10
467.588102337403
20
15.6488854928148
30
0
41
1
10
467.581113785878
20
15.6777985452102
30
0
41
1
10
467.5688291768
20
15.7353093306305
30
0
41
1
10
467.56352332279
20
15.7639086554224
30
0
41
1
10
467.557268698593
20
15.8064991466679
30
0
41
1
10
467.555468305322
20
15.8206822963936
30
0
41
1
10
467.552619223369
20
15.8486113407307
30
0
41
1
10
467.551563972929
20
15.8623801284257
30
0
41
1
10
467.550399909879
20
15.8894214732825
30
0
41
1
10
467.550285829804
20
15.9026966836875
30
0
41
1
10
467.55138586223
20
15.928558505208
30
0
41
1
10
467.552608640832
20
15.9412331302673
30
0
41
1
10
467.555948456209
20
15.9588608230565
30
0
41
1
10
467.557314290988
20
15.9645185412784
30
0
41
1
10
467.560709973981
20
15.9752629426473
30
0
41
1
10
467.562757184409
20
15.9803881681496
30
0
41
1
10
467.567691285185
20
15.9896473096822
30
0
41
1
10
467.570555797839
20
15.9937603959152
30
0
41
1
10
467.577358112121
20
16.0005969404034
30
0
41
1
10
467.581328265331
20
16.003299552667
30
0
41
1
10
467.590209516905
20
16.0065701580031
30
0
41
1
10
467.595238130169
20
16.007154733881
30
0
41
1
10
467.603144568994
20
16.006312124208
30
0
41
1
10
467.605853809948
20
16.0057558877125
30
0
41
1
10
467.611415566325
20
16.0041091466659
30
0
41
1
10
467.614249175209
20
16.0030206655185
30
0
41
1
10
467.622685087213
20
15.9991362853461
30
0
41
1
10
467.628307688267
20
15.9957046891439
30
0
41
1
10
467.639550729521
20
15.9875472607234
30
0
41
1
10
467.645089621271
20
15.9828744514083
30
0
41
1
10
467.650480947162
20
15.9778415583032
30
0
0
SPLINE
5
1AE
100
AcDbEntity
8
1
62
256
6
ByLayer
370
18
48
1
60
0
100
AcDbSpline
70
4
71
3
72
8
73
4
40
0
40
0
40
0
40
0
40
1
40
1
40
1
40
1
41
1
10
467.650480947162
20
15.9778415583014
30
0
41
1
10
467.875878259423
20
15.7674293885307
30
0
41
1
10
468.100672937923
20
15.5561625919054
30
0
41
1
10
468.324759526419
20
15.3438916153431
30
0
0
SPLINE
5
1AF
100
AcDbEntity
8
1
62
256
6
ByLayer
370
18
48
1
60
0
100
AcDbSpline
70
4
71
3
72
8
73
4
40
0
40
0
40
0
40
0
40
1
40
1
40
1
40
1
41
1
10
468.324759526419
20
15.8999354929266
30
0
41
1
10
468.111437539985
20
16.4476285217328
30
0
41
1
10
467.886241901321
20
16.9887487173405
30
0
41
1
10
467.650480947162
20
17.5240203286117
30
0
0
SPLINE
5
1B0
100
AcDbEntity
8
1
62
256
6
ByLayer
370
18
48
1
60
0
100
AcDbSpline
70
4
71
3
72
40
73
36
40
0
40
0
40
0
40
0
40
0.125000000000005
40
0.125000000000005
40
0.25000000000001
40
0.25000000000001
40
0.375000000000016
40
0.375000000000016
40
0.500000000000021
40
0.500000000000021
40
0.562500000000015
40
0.562500000000015
40
0.625000000000009
40
0.625000000000009
40
0.687500000000003
40
0.687500000000003
40
0.718750000000003
40
0.718750000000003
40
0.750000000000002
40
0.750000000000002
40
0.781250000000002
40
0.781250000000002
40
0.812500000000002
40
0.812500000000002
40
0.843750000000002
40
0.843750000000002
40
0.875000000000001
40
0.875000000000001
40
0.906250000000001
40
0.906250000000001
40
0.937500000000001
40
0.937500000000001
40
0.96875
40
0.96875
40
1
40
1
40
1
40
1
41
1
10
467.650480947162
20
17.5240203286117
30
0
41
1
10
467.639690471916
20
17.5485190209076
30
0
41
1
10
467.629613916005
20
17.5729486554871
30
0
41
1
10
467.610849297583
20
17.6216689381402
30
0
41
1
10
467.602160592807
20
17.6459596622939
30
0
41
1
10
467.586289625029
20
17.6943887125282
30
0
41
1
10
467.579096154492
20
17.7185525224899
30
0
41
1
10
467.566584682111
20
17.7665924147548
30
0
41
1
10
467.561339273704
20
17.7901565661225
30
0
41
1
10
467.555481361028
20
17.8246060554284
30
0
41
1
10
467.553867302615
20
17.83593824799
30
0
41
1
10
467.551487852271
20
17.8582271487077
30
0
41
1
10
467.550718615151
20
17.8692396521935
30
0
41
1
10
467.550336211257
20
17.8904892822451
30
0
41
1
10
467.550714779598
20
17.9006787514817
30
0
41
1
10
467.552465551096
20
17.9150655650463
30
0
41
1
10
467.553248182532
20
17.919710197764
30
0
41
1
10
467.555309097648
20
17.9286248501666
30
0
41
1
10
467.556593904736
20
17.9329010995029
30
0
41
1
10
467.559717301251
20
17.9407756166936
30
0
41
1
10
467.561559358519
20
17.9444002494726
30
0
41
1
10
467.565937706079
20
17.9508777423311
30
0
41
1
10
467.568504767017
20
17.9537519025165
30
0
41
1
10
467.574349248947
20
17.9583575070401
30
0
41
1
10
467.577621102576
20
17.9601034727086
30
0
41
1
10
467.584977180313
20
17.962304882232
30
0
41
1
10
467.589008029016
20
17.962727684682
30
0
41
1
10
467.597554413792
20
17.9621883066373
30
0
41
1
10
467.602165047508
20
17.9612103113977
30
0
41
1
10
467.61156352127
20
17.9580305278119
30
0
41
1
10
467.616343834585
20
17.9558532438594
30
0
41
1
10
467.626039774226
20
17.9505209964735
30
0
41
1
10
467.630992916634
20
17.9473363627033
30
0
41
1
10
467.640809613647
20
17.9402688914577
30
0
41
1
10
467.64566607499
20
17.9363995135519
30
0
41
1
10
467.650480947162
20
17.9322615979154
30
0
0
SPLINE
5
1B1
100
AcDbEntity
8
1
62
256
6
ByLayer
370
18
48
1
60
0
100
AcDbSpline
70
4
71
3
72
8
73
4
40
0
40
0
40
0
40
0
40
1
40
1
40
1
40
1
41
1
10
467.650480947162
20
17.9322615979144
30
0
41
1
10
467.875423713527
20
17.7389451074565
30
0
41
1
10
468.100191536751
20
17.5453578173489
30
0
41
1
10
468.324759526419
20
17.351461198982
30
0
0
SPLINE
5
1B2
100
AcDbEntity
8
1
62
256
6
ByLayer
370
18
48
1
60
0
100
AcDbSpline
70
4
71
3
72
8
73
4
40
0
40
0
40
0
40
0
40
1
40
1
40
1
40
1
41
1
10
468.324759526419
20
17.7767794748894
30
0
41
1
10
468.107382666912
20
18.2381665161953
30
0
41
1
10
467.882352997816
20
18.694530161277
30
0
41
1
10
467.650480947162
20
19.1464023848378
30
0
0
SPLINE
5
1B3
100
AcDbEntity
8
1
62
256
6
ByLayer
370
18
48
1
60
0
100
AcDbSpline
70
4
71
3
72
40
73
36
40
0
40
0
40
0
40
0
40
0.125000000000002
40
0.125000000000002
40
0.250000000000003
40
0.250000000000003
40
0.375000000000005
40
0.375000000000005
40
0.437500000000008
40
0.437500000000008
40
0.500000000000011
40
0.500000000000011
40
0.562500000000013
40
0.562500000000013
40
0.625000000000016
40
0.625000000000016
40
0.687500000000019
40
0.687500000000019
40
0.718750000000017
40
0.718750000000017
40
0.750000000000015
40
0.750000000000015
40
0.781250000000013
40
0.781250000000013
40
0.812500000000011
40
0.812500000000011
40
0.843750000000009
40
0.843750000000009
40
0.875000000000007
40
0.875000000000007
40
0.937500000000003
40
0.937500000000003
40
0.968750000000002
40
0.968750000000002
40
1
40
1
40
1
40
1
41
1
10
467.650480947162
20
19.1464023848378
30
0
41
1
10
467.639414958228
20
19.1679677827001
30
0
41
1
10
467.629040809078
20
19.1894982781825
30
0
41
1
10
467.609683150239
20
19.2324844320538
30
0
41
1
10
467.600665700982
20
19.2540304822562
30
0
41
1
10
467.584409180772
20
19.2964716606367
30
0
41
1
10
467.577153956557
20
19.3173783954784
30
0
41
1
10
467.56784509696
20
19.3481740824693
30
0
41
1
10
467.565006721944
20
19.3583444727692
30
0
41
1
10
467.55994833633
20
19.3784644888756
30
0
41
1
10
467.557723039423
20
19.3884367390226
30
0
41
1
10
467.554054354314
20
19.4080137813783
30
0
41
1
10
467.552625671844
20
19.4175304795198
30
0
41
1
10
467.550759790623
20
19.4359026326856
30
0
41
1
10
467.550318779816
20
19.4447605718944
30
0
41
1
10
467.550749497916
20
19.4616056545862
30
0
41
1
10
467.551636822927
20
19.4696104377051
30
0
41
1
10
467.554281873644
20
19.4802400051811
30
0
41
1
10
467.555383473851
20
19.4835703154124
30
0
41
1
10
467.55811068237
20
19.4897250071946
30
0
41
1
10
467.559751087798
20
19.492567248409
30
0
41
1
10
467.5635955558
20
19.4975235357764
30
0
41
1
10
467.565792502249
20
19.4996397405511
30
0
41
1
10
467.570810054821
20
19.503052441883
30
0
41
1
10
467.573662929114
20
19.5043510856048
30
0
41
1
10
467.579852338377
20
19.5059489374513
30
0
41
1
10
467.583198210382
20
19.5062662734098
30
0
41
1
10
467.59039654148
20
19.505931801302
30
0
41
1
10
467.594295692839
20
19.5052651393148
30
0
41
1
10
467.606418497699
20
19.5018746224359
30
0
41
1
10
467.61493133613
20
19.4978669254704
30
0
41
1
10
467.628201605806
20
19.4898327177062
30
0
41
1
10
467.632697891773
20
19.4868155998178
30
0
41
1
10
467.641605111237
20
19.4803478822276
30
0
41
1
10
467.646047713552
20
19.4768784266653
30
0
41
1
10
467.650480947162
20
19.4732088630902
30
0
0
SPLINE
5
1B4
100
AcDbEntity
8
1
62
256
6
ByLayer
370
18
48
1
60
0
100
AcDbSpline
70
4
71
3
72
8
73
4
40
0
40
0
40
0
40
0
40
1
40
1
40
1
40
1
41
1
10
467.650480947162
20
19.4732088630896
30
0
41
1
10
467.87528177088
20
19.2871322907594
30
0
41
1
10
468.10004293855
20
19.1009918745268
30
0
41
1
10
468.324759526419
20
18.9147796874385
30
0
0
SPLINE
5
1B5
100
AcDbEntity
8
1
62
256
6
ByLayer
370
18
48
1
60
0
100
AcDbSpline
70
4
71
3
72
8
73
4
40
0
40
0
40
0
40
0
40
1
40
1
40
1
40
1
41
1
10
468.324759526419
20
19.2542482702509
30
0
41
1
10
468.105152654041
20
19.6587123242186
30
0
41
1
10
467.880211532645
20
20.0591860512787
30
0
41
1
10
467.650480947162
20
20.4560769820809
30
0
0
SPLINE
5
1B6
100
AcDbEntity
8
1
62
256
6
ByLayer
370
18
48
1
60
0
100
AcDbSpline
70
4
71
3
72
39
73
35
40
0
40
0
40
0
40
0
40
0.124999999999981
40
0.124999999999981
40
0.249999999999963
40
0.249999999999963
40
0.374999999999944
40
0.374999999999944
40
0.437499999999942
40
0.437499999999942
40
0.49999999999994
40
0.49999999999994
40
0.562499999999938
40
0.562499999999938
40
0.593749999999932
40
0.593749999999932
40
0.624999999999925
40
0.624999999999925
40
0.687499999999929
40
0.687499999999929
40
0.718749999999935
40
0.718749999999935
40
0.749999999999941
40
0.749999999999941
40
0.781249999999947
40
0.781249999999947
40
0.812499999999953
40
0.843749999999959
40
0.843749999999959
40
0.874999999999965
40
0.874999999999965
40
0.937499999999983
40
0.937499999999983
40
1
40
1
40
1
40
1
41
1
10
467.650480947162
20
20.4560769820809
30
0
41
1
10
467.639193035731
20
20.4755783891967
30
0
41
1
10
467.628590160519
20
20.4950150972984
30
0
41
1
10
467.608789608101
20
20.5337506274604
30
0
41
1
10
467.59955440175
20
20.5531394770003
30
0
41
1
10
467.582996045851
20
20.5910738569009
30
0
41
1
10
467.575636447461
20
20.609668364738
30
0
41
1
10
467.566297083473
20
20.6368716168535
30
0
41
1
10
467.563469944102
20
20.6458235796123
30
0
41
1
10
467.558498129876
20
20.663451932705
30
0
41
1
10
467.556355985995
20
20.672133887972
30
0
41
1
10
467.552992495483
20
20.688788072799
30
0
41
1
10
467.551755667217
20
20.6968054930657
30
0
41
1
10
467.550731607718
20
20.7082552465135
30
0
41
1
10
467.550529643809
20
20.7119751829294
30
0
41
1
10
467.550447718715
20
20.7191922642142
30
0
41
1
10
467.550569803588
20
20.7227031448444
30
0
41
1
10
467.551489172924
20
20.7326767960516
30
0
41
1
10
467.552823866437
20
20.7386266380563
30
0
41
1
10
467.556235634613
20
20.7461914297891
30
0
41
1
10
467.557622786118
20
20.7484972729611
30
0
41
1
10
467.560888621489
20
20.7524800239237
30
0
41
1
10
467.562763444322
20
20.75416222656
30
0
41
1
10
467.567039967856
20
20.7568546457289
30
0
41
1
10
467.569461523802
20
20.7578691446209
30
0
41
1
10
467.574799687778
20
20.7591280609574
30
0
41
1
10
467.580568003688
20
20.7596147416112
30
0
41
1
10
467.587174135165
20
20.7586005535318
30
0
41
1
10
467.594197904459
20
20.7568396148926
30
0
41
1
10
467.597925489672
20
20.7555764856662
30
0
41
1
10
467.609307892352
20
20.7508672481515
30
0
41
1
10
467.617324482498
20
20.7464633141762
30
0
41
1
10
467.63384879861
20
20.735724621498
30
0
41
1
10
467.642150093394
20
20.729534113666
30
0
41
1
10
467.650480947162
20
20.7227274845159
30
0
0
SPLINE
5
1B7
100
AcDbEntity
8
1
62
256
6
ByLayer
370
18
48
1
60
0
100
AcDbSpline
70
4
71
3
72
8
73
4
40
0
40
0
40
0
40
0
40
1
40
1
40
1
40
1
41
1
10
467.650480947162
20
20.7227274845156
30
0
41
1
10
467.875242279349
20
20.5390887989468
30
0
41
1
10
468.10000187134
20
20.355447273494
30
0
41
1
10
468.324759526419
20
20.1718025873641
30
0
0
SPLINE
5
1B8
100
AcDbEntity
8
1
62
256
6
ByLayer
370
18
48
1
60
0
100
AcDbSpline
70
4
71
3
72
8
73
4
40
0
40
0
40
0
40
0
40
1
40
1
40
1
40
1
41
1
10
468.324759526419
20
20.4473652688717
30
0
41
1
10
468.103764009202
20
20.8105598495143
30
0
41
1
10
467.878876276632
20
21.1705149416568
30
0
41
1
10
467.650480947162
20
21.5275506630075
30
0
0
SPLINE
5
1B9
100
AcDbEntity
8
1
62
256
6
ByLayer
370
18
48
1
60
0
100
AcDbSpline
70
4
71
3
72
41
73
37
40
0
40
0
40
0
40
0
40
0.124999999999994
40
0.124999999999994
40
0.187500000000001
40
0.187500000000001
40
0.250000000000007
40
0.250000000000007
40
0.375000000000005
40
0.375000000000005
40
0.437500000000006
40
0.437500000000006
40
0.500000000000008
40
0.500000000000008
40
0.562500000000009
40
0.562500000000009
40
0.625000000000011
40
0.625000000000011
40
0.656250000000012
40
0.656250000000012
40
0.687500000000012
40
0.687500000000012
40
0.718750000000013
40
0.718750000000013
40
0.750000000000014
40
0.750000000000014
40
0.812500000000014
40
0.812500000000014
40
0.843750000000013
40
0.843750000000013
40
0.875000000000012
40
0.906250000000011
40
0.906250000000011
40
0.937500000000011
40
0.937500000000011
40
1
40
1
40
1
40
1
41
1
10
467.650480947162
20
21.5275506630075
30
0
41
1
10
467.638981804677
20
21.5455265324854
30
0
41
1
10
467.62814548197
20
21.5634206151327
30
0
41
1
10
467.612939206481
20
21.5901281849009
30
0
41
1
10
467.608042788563
20
21.5990169496355
30
0
41
1
10
467.598721928768
20
21.6165648982929
30
0
41
1
10
467.594284643271
20
21.6252457634557
30
0
41
1
10
467.581686936374
20
21.6509896479126
30
0
41
1
10
467.574223281786
20
21.6677610781068
30
0
41
1
10
467.564837577099
20
21.6921604462424
30
0
41
1
10
467.562006278076
20
21.7001981661687
30
0
41
1
10
467.557184605238
20
21.7156477088189
30
0
41
1
10
467.555179368067
20
21.7230904973046
30
0
41
1
10
467.552137250522
20
21.7373043165395
30
0
41
1
10
467.551097322754
20
21.7440774273172
30
0
41
1
10
467.550263647968
20
21.7567617390175
30
0
41
1
10
467.550482593648
20
21.7625191878576
30
0
41
1
10
467.551971457481
20
21.7700613230119
30
0
41
1
10
467.552662227263
20
21.7723934928259
30
0
41
1
10
467.554488589318
20
21.7766425722033
30
0
41
1
10
467.555629696968
20
21.7785582671357
30
0
41
1
10
467.558347744801
20
21.7818281742793
30
0
41
1
10
467.559929168047
20
21.7831969176462
30
0
41
1
10
467.563569638857
20
21.7853637195266
30
0
41
1
10
467.565645521329
20
21.7861647789767
30
0
41
1
10
467.572537810431
20
21.7876065271319
30
0
41
1
10
467.57792665398
20
21.7872966647589
30
0
41
1
10
467.587151619285
20
21.7850110816921
30
0
41
1
10
467.590446302725
20
21.7839313072058
30
0
41
1
10
467.597241521147
20
21.7812338486884
30
0
41
1
10
467.604247829043
20
21.7780072079666
30
0
41
1
10
467.61163322165
20
21.7738322488306
30
0
41
1
10
467.619193271317
20
21.7692211157905
30
0
41
1
10
467.623071327699
20
21.7666886267621
30
0
41
1
10
467.634714931172
20
21.7586489532177
30
0
41
1
10
467.642563586242
20
21.7526628820375
30
0
41
1
10
467.650480947162
20
21.7461799915704
30
0
0
SPLINE
5
1BA
100
AcDbEntity
8
1
62
256
6
ByLayer
370
18
48
1
60
0
100
AcDbSpline
70
4
71
3
72
8
73
4
40
0
40
0
40
0
40
0
40
1
40
1
40
1
40
1
41
1
10
467.650480947162
20
21.7461799915702
30
0
41
1
10
467.875247737629
20
21.5621365334013
30
0
41
1
10
468.100007511727
20
21.3780816494049
30
0
41
1
10
468.324759526419
20
21.1940141333131
30
0
0
SPLINE
5
1BB
100
AcDbEntity
8
1
62
256
6
ByLayer
370
18
48
1
60
0
100
AcDbSpline
70
4
71
3
72
8
73
4
40
0
40
0
40
0
40
0
40
1
40
1
40
1
40
1
41
1
10
468.324759526419
20
21.4182396666008
30
0
41
1
10
468.10282976625
20
21.7496954266889
30
0
41
1
10
467.87797677687
20
22.0784874839755
30
0
41
1
10
467.650480947162
20
22.404871334214
30
0
0
SPLINE
5
1BC
100
AcDbEntity
8
1
62
256
6
ByLayer
370
18
48
1
60
0
100
AcDbSpline
70
4
71
3
72
34
73
30
40
0
40
0
40
0
40
0
40
0.125000000000008
40
0.125000000000008
40
0.250000000000016
40
0.250000000000016
40
0.312500000000018
40
0.312500000000018
40
0.375000000000019
40
0.375000000000019
40
0.500000000000007
40
0.500000000000007
40
0.562500000000003
40
0.562500000000003
40
0.624999999999999
40
0.624999999999999
40
0.687499999999994
40
0.687499999999994
40
0.718749999999999
40
0.718749999999999
40
0.750000000000003
40
0.750000000000003
40
0.812500000000002
40
0.812500000000002
40
0.875000000000001
40
0.875000000000001
40
0.937500000000001
40
0.937500000000001
40
1
40
1
40
1
40
1
41
1
10
467.650480947162
20
22.404871334214
30
0
41
1
10
467.638779782576
20
22.4216587678769
30
0
41
1
10
467.627693116502
20
22.4383758860389
30
0
41
1
10
467.607002473869
20
22.4714107933064
30
0
41
1
10
467.597504579954
20
22.487552483254
30
0
41
1
10
467.584701626499
20
22.5111204626918
30
0
41
1
10
467.580676613219
20
22.5188681596793
30
0
41
1
10
467.57317678391
20
22.5341175966362
30
0
41
1
10
467.569687169971
20
22.5416532144351
30
0
41
1
10
467.560306547285
20
22.5635746306844
30
0
41
1
10
467.555515793997
20
22.5771559030112
30
0
41
1
10
467.551444442405
20
22.5953340811023
30
0
41
1
10
467.550629414815
20
22.6010158296461
30
0
41
1
10
467.550369704541
20
22.611041023574
30
0
41
1
10
467.550906911697
20
22.6154408318425
30
0
41
1
10
467.553649785601
20
22.6227119306319
30
0
41
1
10
467.555833495619
20
22.6254796389073
30
0
41
1
10
467.560418657478
20
22.6281044544225
30
0
41
1
10
467.562180578905
20
22.6287302685914
30
0
41
1
10
467.56612484049
20
22.6294299988243
30
0
41
1
10
467.568286199411
20
22.629504301113
30
0
41
1
10
467.575316333567
20
22.628933397801
30
0
41
1
10
467.580743615077
20
22.6274928474907
30
0
41
1
10
467.592956646791
20
22.622576026391
30
0
41
1
10
467.599500450861
20
22.6192044399123
30
0
41
1
10
467.613308831924
20
22.6109620758306
30
0
41
1
10
467.620630234375
20
22.6060417517642
30
0
41
1
10
467.635395579301
20
22.595263087318
30
0
41
1
10
467.642891402848
20
22.589378935373
30
0
41
1
10
467.650480947162
20
22.5830864488518
30
0
0
SPLINE
5
1BD
100
AcDbEntity
8
1
62
256
6
ByLayer
370
18
48
1
60
0
100
AcDbSpline
70
4
71
3
72
8
73
4
40
0
40
0
40
0
40
0
40
1
40
1
40
1
40
1
41
1
10
467.650480947162
20
22.5830864488517
30
0
41
1
10
467.87527835498
20
22.3967070563391
30
0
41
1
10
468.100039125586
20
22.2102687278758
30
0
41
1
10
468.324759526419
20
22.0237655573008
30
0
0
SPLINE
5
1BE
100
AcDbEntity
8
1
62
256
6
ByLayer
370
18
48
1
60
0
100
AcDbSpline
70
4
71
3
72
8
73
4
40
0
40
0
40
0
40
0
40
1
40
1
40
1
40
1
41
1
10
468.324759526419
20
22.2045370106243
30
0
41
1
10
468.102167049584
20
22.5105841760976
30
0
41
1
10
467.877337890168
20
22.8144257977395
30
0
41
1
10
467.650480947162
20
23.1162678662801
30
0
0
SPLINE
5
1BF
100
AcDbEntity
8
1
62
256
6
ByLayer
370
18
48
1
60
0
100
AcDbSpline
70
4
71
3
72
41
73
37
40
0
40
0
40
0
40
0
40
0.0625000000000042
40
0.0625000000000042
40
0.125000000000008
40
0.125000000000008
40
0.250000000000017
40
0.250000000000017
40
0.31250000000002
40
0.31250000000002
40
0.375000000000024
40
0.375000000000024
40
0.437500000000028
40
0.46875000000003
40
0.46875000000003
40
0.500000000000031
40
0.500000000000031
40
0.56250000000003
40
0.56250000000003
40
0.625000000000029
40
0.625000000000029
40
0.687500000000028
40
0.687500000000028
40
0.750000000000027
40
0.750000000000027
40
0.781250000000025
40
0.781250000000025
40
0.812500000000023
40
0.812500000000023
40
0.875000000000013
40
0.875000000000013
40
0.906250000000009
40
0.906250000000009
40
0.937500000000006
40
0.937500000000006
40
1
40
1
40
1
40
1
41
1
10
467.650480947162
20
23.1162678662801
30
0
41
1
10
467.644530707472
20
23.1241848937801
30
0
41
1
10
467.638734660478
20
23.1320661881945
30
0
41
1
10
467.627462614209
20
23.1477537676428
30
0
41
1
10
467.621983627572
20
23.155565585438
30
0
41
1
10
467.606226071217
20
23.1786319055678
30
0
41
1
10
467.59655639816
20
23.1936038516676
30
0
41
1
10
467.583525644729
20
23.2153410699501
30
0
41
1
10
467.579429881242
20
23.2224656317322
30
0
41
1
10
467.571814377828
20
23.2364325284508
30
0
41
1
10
467.568318980523
20
23.2432345542655
30
0
41
1
10
467.562151731737
20
23.2562021368551
30
0
41
1
10
467.558116055743
20
23.2654991328181
30
0
41
1
10
467.555124307769
20
23.2740375850825
30
0
41
1
10
467.553390593519
20
23.2795405045751
30
0
41
1
10
467.552653442229
20
23.2822028365395
30
0
41
1
10
467.550910298472
20
23.2897406107646
30
0
41
1
10
467.550352356246
20
23.294214748445
30
0
41
1
10
467.550659068286
20
23.3018677379385
30
0
41
1
10
467.551551382701
20
23.3050594781864
30
0
41
1
10
467.554942046485
20
23.3096266601904
30
0
41
1
10
467.55744201508
20
23.3110502936683
30
0
41
1
10
467.564147905172
20
23.3119608702201
30
0
41
1
10
467.568227742826
20
23.3114399048512
30
0
41
1
10
467.575359496822
20
23.3093034854207
30
0
41
1
10
467.577906330663
20
23.3083642815699
30
0
41
1
10
467.583336023074
20
23.306036633409
30
0
41
1
10
467.58621229645
20
23.3046487760974
30
0
41
1
10
467.595094710497
20
23.2999585110479
30
0
41
1
10
467.601422754011
20
23.2961049586596
30
0
41
1
10
467.611436330014
20
23.2893955044799
30
0
41
1
10
467.614876803774
20
23.2869917365576
30
0
41
1
10
467.62181975771
20
23.2819650556356
30
0
41
1
10
467.625327553303
20
23.2793394829958
30
0
41
1
10
467.635948792471
20
23.2711611225112
30
0
41
1
10
467.643159471795
20
23.2653086512651
30
0
41
1
10
467.650480947162
20
23.2591159102932
30
0
0
SPLINE
5
1C0
100
AcDbEntity
8
1
62
256
6
ByLayer
370
18
48
1
60
0
100
AcDbSpline
70
4
71
3
72
8
73
4
40
0
40
0
40
0
40
0
40
1
40
1
40
1
40
1
41
1
10
467.650480947162
20
23.2591159102931
30
0
41
1
10
467.875326782245
20
23.0689340213238
30
0
41
1
10
468.100089025132
20
22.8786205059007
30
0
41
1
10
468.324759526419
20
22.6881625317594
30
0
0
SPLINE
5
1C1
100
AcDbEntity
8
1
62
256
6
ByLayer
370
18
48
1
60
0
100
AcDbSpline
70
4
71
3
72
8
73
4
40
0
40
0
40
0
40
0
40
1
40
1
40
1
40
1
41
1
10
468.324759526419
20
22.8306924641175
30
0
41
1
10
468.101678442286
20
23.1158055554831
30
0
41
1
10
467.876866272618
20
23.399087721218
30
0
41
1
10
467.650480947162
20
23.6807059996426
30
0
0
SPLINE
5
1C2
100
AcDbEntity
8
1
62
256
6
ByLayer
370
18
48
1
60
0
100
AcDbSpline
70
4
71
3
72
38
73
34
40
0
40
0
40
0
40
0
40
0.0624999999999963
40
0.0624999999999963
40
0.124999999999993
40
0.124999999999993
40
0.249999999999999
40
0.249999999999999
40
0.312500000000002
40
0.312500000000002
40
0.375000000000005
40
0.375000000000005
40
0.437500000000007
40
0.437500000000007
40
0.50000000000001
40
0.50000000000001
40
0.562500000000013
40
0.562500000000013
40
0.625000000000016
40
0.625000000000016
40
0.687500000000019
40
0.687500000000019
40
0.750000000000021
40
0.750000000000021
40
0.781250000000022
40
0.781250000000022
40
0.812500000000023
40
0.812500000000023
40
0.875000000000015
40
0.875000000000015
40
0.937500000000008
40
0.937500000000008
40
1
40
1
40
1
40
1
41
1
10
467.650480947162
20
23.6807059996426
30
0
41
1
10
467.644435066045
20
23.6882269404471
30
0
41
1
10
467.638541009106
20
23.6956954835828
30
0
41
1
10
467.627070710279
20
23.7105219541027
30
0
41
1
10
467.621478397149
20
23.7179019338317
30
0
41
1
10
467.605382543492
20
23.7396367381087
30
0
41
1
10
467.59552307329
20
23.7536213176664
30
0
41
1
10
467.582291758194
20
23.7736882743308
30
0
41
1
10
467.5781434099
20
23.7802241905284
30
0
41
1
10
467.570463431254
20
23.7929350505253
30
0
41
1
10
467.566983467967
20
23.7990266724989
30
0
41
1
10
467.560894095359
20
23.8105111646496
30
0
41
1
10
467.558273629461
20
23.8159211153943
30
0
41
1
10
467.554041861199
20
23.8259505318478
30
0
41
1
10
467.552432376485
20
23.8305864249219
30
0
41
1
10
467.550538980103
20
23.8385889334789
30
0
41
1
10
467.550233118891
20
23.8420039082245
30
0
41
1
10
467.551141496283
20
23.8474028832875
30
0
41
1
10
467.552342069686
20
23.849311304467
30
0
41
1
10
467.556322566543
20
23.8514574493078
30
0
41
1
10
467.559156903261
20
23.8516693992398
30
0
41
1
10
467.566155193741
20
23.8503516061774
30
0
41
1
10
467.57032728413
20
23.8488516643674
30
0
41
1
10
467.57754044284
20
23.8454114743363
30
0
41
1
10
467.580121827421
20
23.8440551043967
30
0
41
1
10
467.585487525657
20
23.8410134790047
30
0
41
1
10
467.588275661537
20
23.8393280740405
30
0
41
1
10
467.596927885113
20
23.8338227337158
30
0
41
1
10
467.603078037699
20
23.8295564416236
30
0
41
1
10
467.616050433374
20
23.8199786606821
30
0
41
1
10
467.622764082909
20
23.8147458022586
30
0
41
1
10
467.636420273296
20
23.8036638171354
30
0
41
1
10
467.643389119659
20
23.7977944023921
30
0
41
1
10
467.650480947162
20
23.7916390605835
30
0
0
SPLINE
5
1C3
100
AcDbEntity
8
1
62
256
6
ByLayer
370
18
48
1
60
0
100
AcDbSpline
70
4
71
3
72
8
73
4
40
0
40
0
40
0
40
0
40
1
40
1
40
1
40
1
41
1
10
467.650480947162
20
23.7916390605835
30
0
41
1
10
467.875390693943
20
23.5964289589455
30
0
41
1
10
468.100154848045
20
23.400995612205
30
0
41
1
10
468.324759526419
20
23.2053177327378
30
0
0
SPLINE
5
1C4
100
AcDbEntity
8
1
62
256
6
ByLayer
370
18
48
1
60
0
100
AcDbSpline
70
4
71
3
72
8
73
4
40
0
40
0
40
0
40
0
40
1
40
1
40
1
40
1
41
1
10
468.324759526419
20
23.313139920558
30
0
41
1
10
468.101307459449
20
23.5806365366871
30
0
41
1
10
467.876507770666
20
23.8466150387244
30
0
41
1
10
467.650480947162
20
24.1112111569977
30
0
0
SPLINE
5
1C5
100
AcDbEntity
8
1
62
256
6
ByLayer
370
18
48
1
60
0
100
AcDbSpline
70
4
71
3
72
37
73
33
40
0
40
0
40
0
40
0
40
0.124999999999998
40
0.124999999999998
40
0.249999999999997
40
0.249999999999997
40
0.312500000000005
40
0.312500000000005
40
0.375000000000013
40
0.375000000000013
40
0.437500000000021
40
0.437500000000021
40
0.468750000000021
40
0.468750000000021
40
0.500000000000021
40
0.53125000000002
40
0.53125000000002
40
0.56250000000002
40
0.56250000000002
40
0.625000000000014
40
0.625000000000014
40
0.656250000000015
40
0.656250000000015
40
0.687500000000015
40
0.687500000000015
40
0.750000000000014
40
0.750000000000014
40
0.812500000000013
40
0.812500000000013
40
0.875000000000012
40
0.875000000000012
40
1
40
1
40
1
40
1
41
1
10
467.650480947162
20
24.1112111569977
30
0
41
1
10
467.638202144537
20
24.1255852187184
30
0
41
1
10
467.626485867576
20
24.1397144945004
30
0
41
1
10
467.604552320067
20
24.1671510631412
30
0
41
1
10
467.594502099815
20
24.1802445976562
30
0
41
1
10
467.581082092083
20
24.1987490698115
30
0
41
1
10
467.57688735265
20
24.2047260678883
30
0
41
1
10
467.569160111633
20
24.2162246159375
30
0
41
1
10
467.565703840037
20
24.2216334116324
30
0
41
1
10
467.559712993625
20
24.2316731893725
30
0
41
1
10
467.557175330865
20
24.2363077732493
30
0
41
1
10
467.554189582967
20
24.2425686008356
30
0
41
1
10
467.55333114082
20
24.2445439196825
30
0
41
1
10
467.551945089713
20
24.2481706791216
30
0
41
1
10
467.550880371976
20
24.2514914590527
30
0
41
1
10
467.550493173189
20
24.2541672783615
30
0
41
1
10
467.550469840073
20
24.2564968771598
30
0
41
1
10
467.55064329357
20
24.2574911476051
30
0
41
1
10
467.551729677775
20
24.2598627622573
30
0
41
1
10
467.553197894126
20
24.26065672569
30
0
41
1
10
467.556546564706
20
24.2606368151016
30
0
41
1
10
467.557864176504
20
24.2604245190888
30
0
41
1
10
467.560849626481
20
24.259593748238
30
0
41
1
10
467.562509311232
20
24.2589798099629
30
0
41
1
10
467.567961306001
20
24.2565762330203
30
0
41
1
10
467.572230449554
20
24.2542238153643
30
0
41
1
10
467.581924074944
20
24.2481356233876
30
0
41
1
10
467.587203153222
20
24.2444931606355
30
0
41
1
10
467.598484907468
20
24.2362099822927
30
0
41
1
10
467.604518790299
20
24.2315432716212
30
0
41
1
10
467.623400016941
20
24.2163577993806
30
0
41
1
10
467.636681697517
20
24.2049543935807
30
0
41
1
10
467.650480947162
20
24.1926049128558
30
0
0
SPLINE
5
1C6
100
AcDbEntity
8
1
62
256
6
ByLayer
370
18
48
1
60
0
100
AcDbSpline
70
4
71
3
72
8
73
4
40
0
40
0
40
0
40
0
40
1
40
1
40
1
40
1
41
1
10
467.650480947162
20
24.1926049128558
30
0
41
1
10
467.875470342809
20
23.9912532251712
30
0
41
1
10
468.100236859786
20
23.7895703804274
30
0
41
1
10
468.324759526419
20
23.587525218542
30
0
0
SPLINE
5
1C7
100
AcDbEntity
8
1
62
256
6
ByLayer
370
18
48
1
60
0
100
AcDbSpline
70
4
71
3
72
8
73
4
40
0
40
0
40
0
40
0
40
1
40
1
40
1
40
1
41
1
10
468.324759526419
20
23.6630274540315
30
0
41
1
10
468.101019214676
20
23.9154654531748
30
0
41
1
10
467.876228917632
20
24.1666509399731
30
0
41
1
10
467.650480947162
20
24.4166940319309
30
0
0
SPLINE
5
1C8
100
AcDbEntity
8
1
62
256
6
ByLayer
370
18
48
1
60
0
100
AcDbSpline
70
4
71
3
72
37
73
33
40
0
40
0
40
0
40
0
40
0.0624999999999943
40
0.0624999999999943
40
0.124999999999989
40
0.124999999999989
40
0.249999999999993
40
0.249999999999993
40
0.312499999999995
40
0.312499999999995
40
0.374999999999997
40
0.406249999999998
40
0.406249999999998
40
0.437499999999999
40
0.437499999999999
40
0.500000000000001
40
0.500000000000001
40
0.531249999999999
40
0.531249999999999
40
0.562499999999998
40
0.562499999999998
40
0.624999999999998
40
0.624999999999998
40
0.687499999999999
40
0.687499999999999
40
0.749999999999999
40
0.749999999999999
40
0.812499999999999
40
0.812499999999999
40
0.874999999999999
40
0.874999999999999
40
1
40
1
40
1
40
1
41
1
10
467.650480947162
20
24.4166940319309
30
0
41
1
10
467.644233516261
20
24.4236138148018
30
0
41
1
10
467.638128791671
20
24.4304472421302
30
0
41
1
10
467.626224587922
20
24.4439282469397
30
0
41
1
10
467.620408632679
20
24.4505953398438
30
0
41
1
10
467.603696944729
20
24.4700187730231
30
0
41
1
10
467.593459438986
20
24.4822776869174
30
0
41
1
10
467.579801977808
20
24.4993597909753
30
0
41
1
10
467.575513158026
20
24.5048653228651
30
0
41
1
10
467.56782727776
20
24.5150761747932
30
0
41
1
10
467.562698992221
20
24.5221718288942
30
0
41
1
10
467.55866279162
20
24.5283005792939
30
0
41
1
10
467.556240243351
20
24.5321488241215
30
0
41
1
10
467.555161120897
20
24.5339584350341
30
0
41
1
10
467.552417952635
20
24.5389021635918
30
0
41
1
10
467.551221826353
20
24.5415884195267
30
0
41
1
10
467.550485616375
20
24.5445985953591
30
0
41
1
10
467.55041909126
20
24.545434024924
30
0
41
1
10
467.550661814729
20
24.5467128369868
30
0
41
1
10
467.550968230583
20
24.5471605417446
30
0
41
1
10
467.55243913149
20
24.5479324593417
30
0
41
1
10
467.554154903999
20
24.5476875862845
30
0
41
1
10
467.559095757758
20
24.5456300292872
30
0
41
1
10
467.562230525272
20
24.5438567909971
30
0
41
1
10
467.569682176899
20
24.5389883407296
30
0
41
1
10
467.574051131848
20
24.5358516153733
30
0
41
1
10
467.583612877603
20
24.5285570395073
30
0
41
1
10
467.58879748384
20
24.5244110022458
30
0
41
1
10
467.599860114334
20
24.5152650369457
30
0
41
1
10
467.605784818522
20
24.5102235776673
30
0
41
1
10
467.624098620595
20
24.4942917137716
30
0
41
1
10
467.637015243457
20
24.4826211375562
30
0
41
1
10
467.650480947162
20
24.4701429912239
30
0
0
SPLINE
5
1C9
100
AcDbEntity
8
1
62
256
6
ByLayer
370
18
48
1
60
0
100
AcDbSpline
70
4
71
3
72
8
73
4
40
0
40
0
40
0
40
0
40
1
40
1
40
1
40
1
41
1
10
467.650480947162
20
24.4701429912239
30
0
41
1
10
467.875567648883
20
24.2615638584119
30
0
41
1
10
468.10033706691
20
24.0525298860198
30
0
41
1
10
468.324759526419
20
23.8429985339365
30
0
0
SPLINE
5
1CA
100
AcDbEntity
8
1
62
256
6
ByLayer
370
18
48
1
60
0
100
AcDbSpline
70
4
71
3
72
8
73
4
40
0
40
0
40
0
40
0
40
1
40
1
40
1
40
1
41
1
10
468.324759526419
20
23.8877233606894
30
0
41
1
10
468.100791090601
20
24.1271433496634
30
0
41
1
10
467.876008003165
20
24.3655393957368
30
0
41
1
10
467.650480947162
20
24.6030003410675
30
0
0
SPLINE
5
1CB
100
AcDbEntity
8
1
62
256
6
ByLayer
370
18
48
1
60
0
100
AcDbSpline
70
4
71
3
72
37
73
33
40
0
40
0
40
0
40
0
40
0.124999999999997
40
0.124999999999997
40
0.187499999999996
40
0.187499999999996
40
0.249999999999996
40
0.249999999999996
40
0.312499999999995
40
0.343749999999995
40
0.343749999999995
40
0.374999999999995
40
0.374999999999995
40
0.437499999999995
40
0.437499999999995
40
0.468749999999995
40
0.468749999999995
40
0.499999999999995
40
0.499999999999995
40
0.562499999999994
40
0.562499999999994
40
0.624999999999994
40
0.624999999999994
40
0.687499999999993
40
0.687499999999993
40
0.749999999999992
40
0.749999999999992
40
0.812499999999992
40
0.812499999999992
40
0.874999999999991
40
0.874999999999991
40
1
40
1
40
1
40
1
41
1
10
467.650480947162
20
24.6030003410675
30
0
41
1
10
467.637713524711
20
24.6164433587628
30
0
41
1
10
467.625555134204
20
24.629399084852
30
0
41
1
10
467.608569850311
20
24.6477688699756
30
0
41
1
10
467.603108564082
20
24.653723861729
30
0
41
1
10
467.592645038061
20
24.6652469120368
30
0
41
1
10
467.587628553198
20
24.6708318448434
30
0
41
1
10
467.578394061833
20
24.6812540907364
30
0
41
1
10
467.572016535815
20
24.6885648297575
30
0
41
1
10
467.566579562048
20
24.695005811413
30
0
41
1
10
467.563185659207
20
24.69908622913
30
0
41
1
10
467.561600856608
20
24.7010238889238
30
0
41
1
10
467.557303071354
20
24.7063893319163
30
0
41
1
10
467.555014755975
20
24.7094065301876
30
0
41
1
10
467.552553203198
20
24.7129894842032
30
0
41
1
10
467.551893247071
20
24.7140301161109
30
0
41
1
10
467.550941407315
20
24.7157401602269
30
0
41
1
10
467.550646743412
20
24.7164124694573
30
0
41
1
10
467.550307456757
20
24.7178803359892
30
0
41
1
10
467.550804218981
20
24.7181301453508
30
0
41
1
10
467.553323180194
20
24.7170929258171
30
0
41
1
10
467.555303382755
20
24.7158212919811
30
0
41
1
10
467.560517793468
20
24.7119566589424
30
0
41
1
10
467.563756830219
20
24.7093608740992
30
0
41
1
10
467.571431586465
20
24.7029148992632
30
0
41
1
10
467.575773222109
20
24.6991432590703
30
0
41
1
10
467.585223568068
20
24.690748629452
30
0
41
1
10
467.59034747327
20
24.6861125346087
30
0
41
1
10
467.601310018783
20
24.6760560925471
30
0
41
1
10
467.607046357809
20
24.6707294245953
30
0
41
1
10
467.624771194315
20
24.6541190567994
30
0
41
1
10
467.637325338165
20
24.6421616074523
30
0
41
1
10
467.650480947162
20
24.629489368204
30
0
0
SPLINE
5
1CC
100
AcDbEntity
8
1
62
256
6
ByLayer
370
18
48
1
60
0
100
AcDbSpline
70
4
71
3
72
8
73
4
40
0
40
0
40
0
40
0
40
1
40
1
40
1
40
1
41
1
10
467.650480947162
20
24.629489368204
30
0
41
1
10
467.875685997487
20
24.4125589107651
30
0
41
1
10
468.100458994954
20
24.1950332762264
30
0
41
1
10
468.324759526419
20
23.9768567932082
30
0
0
SPLINE
5
1CD
100
AcDbEntity
8
1
62
256
6
ByLayer
370
18
48
1
60
0
100
AcDbSpline
70
4
71
3
72
8
73
4
40
0
40
0
40
0
40
0
40
1
40
1
40
1
40
1
41
1
10
468.324759526419
20
23.9916716944542
30
0
41
1
10
468.100607863251
20
24.2197546698691
30
0
41
1
10
467.875830405165
20
24.447012510698
30
0
41
1
10
467.650480947162
20
24.6735161477089
30
0
0
SPLINE
5
1CE
100
AcDbEntity
8
1
62
256
6
ByLayer
370
18
48
1
60
0
100
AcDbSpline
70
2053
71
3
72
40
73
36
40
0
40
0
40
0
40
0
40
0.0624999999999988
40
0.0624999999999988
40
0.124999999999998
40
0.124999999999998
40
0.249999999999997
40
0.249999999999997
40
0.312499999999996
40
0.312499999999996
40
0.343749999999996
40
0.343749999999996
40
0.374999999999995
40
0.374999999999995
40
0.437499999999995
40
0.437499999999995
40
0.468749999999997
40
0.468749999999997
40
0.499999999999999
40
0.499999999999999
40
0.562500000000002
40
0.562500000000002
40
0.593750000000001
40
0.593750000000001
40
0.625000000000001
40
0.625000000000001
40
0.687500000000001
40
0.687500000000001
40
0.75
40
0.75
40
0.8125
40
0.8125
40
0.874999999999999
40
0.874999999999999
40
1
40
1
40
1
40
1
41
1
10
467.650480947162
20
24.6735161477089
30
0
41
1
10
467.643995528497
20
24.6800347829348
30
0
41
1
10
467.637641930968
20
24.6864240983007
30
0
41
1
10
467.625223781212
20
24.6989177330065
30
0
41
1
10
467.619159362558
20
24.7050219490489
30
0
41
1
10
467.601760540395
20
24.7225422830341
30
0
41
1
10
467.591092877904
20
24.7332946246368
30
0
41
1
10
467.576962978984
20
24.747545547788
30
0
41
1
10
467.572665768936
20
24.7518812199177
30
0
41
1
10
467.566937041454
20
24.757662668787
30
0
41
1
10
467.565146159727
20
24.7594703034816
30
0
41
1
10
467.561821741835
20
24.7628262012968
30
0
41
1
10
467.560285385348
20
24.7643773132445
30
0
41
1
10
467.556170769704
20
24.7685318245759
30
0
41
1
10
467.554054662599
20
24.7706689842447
30
0
41
1
10
467.551904777519
20
24.7728403855638
30
0
41
1
10
467.551358069514
20
24.773392601446
30
0
41
1
10
467.550642684802
20
24.7741152032551
30
0
41
1
10
467.550471174801
20
24.7742884504551
30
0
41
1
10
467.550501778366
20
24.774257537362
30
0
41
1
10
467.551246131199
20
24.77350561707
30
0
41
1
10
467.553449587004
20
24.7712801191183
30
0
41
1
10
467.554366440456
20
24.7703541331446
30
0
41
1
10
467.556507437831
20
24.7681920072876
30
0
41
1
10
467.557735591993
20
24.7669518171085
30
0
41
1
10
467.561863192775
20
24.7627842351969
30
0
41
1
10
467.565218581561
20
24.75939689923
30
0
41
1
10
467.572951716672
20
24.7515926878456
30
0
41
1
10
467.577252302461
20
24.7472536906828
30
0
41
1
10
467.586584704884
20
24.7378414692254
30
0
41
1
10
467.591617667416
20
24.7327670857864
30
0
41
1
10
467.602342916789
20
24.7219581556337
30
0
41
1
10
467.607954623723
20
24.7163048356863
30
0
41
1
10
467.625296915117
20
24.6988417531465
30
0
41
1
10
467.637586054382
20
24.6864770846437
30
0
41
1
10
467.650480947162
20
24.6735161477089
30
0
0
SPLINE
5
1CF
100
AcDbEntity
8
1
62
256
6
ByLayer
370
13
48
1
60
0
100
AcDbSpline
70
4
71
3
72
34
73
30
40
0
40
0
40
0
40
0
40
0.0624999999999999
40
0.0624999999999999
40
0.125
40
0.15625
40
0.15625
40
0.1875
40
0.1875
40
0.25
40
0.25
40
0.375
40
0.40625
40
0.40625
40
0.4375
40
0.4375
40
0.5
40
0.5
40
0.625
40
0.625
40
0.6875
40
0.6875
40
0.75
40
0.75
40
0.875
40
0.875
40
0.9375
40
0.9375
40
1
40
1
40
1
40
1
41
1
10
466
20
24.9999999999983
30
0
41
1
10
466.014812739614
20
24.9999999999983
30
0
41
1
10
466.029622238173
20
24.9967241358778
30
0
41
1
10
466.059139800026
20
24.9836371974719
30
0
41
1
10
466.081206597765
20
24.9689207780143
30
0
41
1
10
466.103081239536
20
24.9468494149326
30
0
41
1
10
466.117611926543
20
24.9304980568992
30
0
41
1
10
466.124852375046
20
24.921501756425
30
0
41
1
10
466.146457520478
20
24.892085745243
30
0
41
1
10
466.160712834101
20
24.8692332625318
30
0
41
1
10
466.20291630061
20
24.7909839098401
30
0
41
1
10
466.237152682465
20
24.7096352615522
30
0
41
1
10
466.269682158228
20
24.6080642925874
30
0
41
1
10
466.282544446913
20
24.5658113771958
30
0
41
1
10
466.288902986091
20
24.5438661551301
30
0
41
1
10
466.3077213716
20
24.4756414302031
30
0
41
1
10
466.31991839485
20
24.4269981302973
30
0
41
1
10
466.355312517614
20
24.2716211294429
30
0
41
1
10
466.377321211601
20
24.1554500642238
30
0
41
1
10
466.40722530712
20
23.9622722142643
30
0
41
1
10
466.41667329215
20
23.8947236348494
30
0
41
1
10
466.43437761318
20
23.7532778952791
30
0
41
1
10
466.442617490402
20
23.6795117451546
30
0
41
1
10
466.465247523275
20
23.4491666082537
30
0
41
1
10
466.477575832709
20
23.2835274913172
30
0
41
1
10
466.490600456538
20
23.0169088242271
30
0
41
1
10
466.494026128838
20
22.9249759938849
30
0
41
1
10
466.498725623193
20
22.7351579663379
30
0
41
1
10
466.5
20
22.6373314104549
30
0
41
1
10
466.5
20
22.5365853658607
30
0
0
SPLINE
5
1D0
100
AcDbEntity
8
1
62
256
6
ByLayer
370
18
48
1
60
0
100
AcDbSpline
70
4
71
3
72
73
73
69
40
0
40
0
40
0
40
0
40
0.0173685652626429
40
0.0346693658320719
40
0.0519023857450232
40
0.0690676086282236
40
0.0861650177047592
40
0.103194595800468
40
0.120156325350305
40
0.137050188404719
40
0.153876166636001
40
0.170634241344653
40
0.187324393465714
40
0.203946603575094
40
0.220500851895897
40
0.236987118304732
40
0.25340538233801
40
0.269755623198208
40
0.286037819760155
40
0.302251950577264
40
0.31839799388778
40
0.334475927620996
40
0.350485729403433
40
0.366427376565046
40
0.382300846145363
40
0.398106114899632
40
0.413843159304948
40
0.429511955566335
40
0.445112479622837
40
0.460644707153556
40
0.476108613583687
40
0.491504174090518
40
0.506831363609425
40
0.522090156839799
40
0.537280528250995
40
0.552402452088228
40
0.567455902378441
40
0.582440852936164
40
0.597357277369313
40
0.612205149084998
40
0.626984441295279
40
0.641695127022883
40
0.656337179106936
40
0.670910570208592
40
0.685415272816712
40
0.699851259253442
40
0.714218501679808
40
0.728516972101257
40
0.742746642373157
40
0.756907484206298
40
0.77099946917232
40
0.785022568709134
40
0.798976754126302
40
0.812861996610377
40
0.826678267230228
40
0.840425536942296
40
0.854103776595858
40
0.867712956938224
40
0.88125304861991
40
0.894724022199777
40
0.908125848150138
40
0.921458496861826
40
0.934721938649219
40
0.947916143755237
40
0.961041082356316
40
0.974096724567317
40
0.987083040446425
40
1
40
1
40
1
40
1
41
1
10
466.067675282232
20
22.754751137065
30
0
41
1
10
466.066970994684
20
22.7437790593176
30
0
41
1
10
466.065565167416
20
22.7218777121647
30
0
41
1
10
466.063493924058
20
22.6888038938654
30
0
41
1
10
466.061455391542
20
22.655652519358
30
0
41
1
10
466.059451921734
20
22.6224061037294
30
0
41
1
10
466.057482862836
20
22.5890731214152
30
0
41
1
10
466.055548358859
20
22.5556551131818
30
0
41
1
10
466.053648337597
20
22.5221554478714
30
0
41
1
10
466.05178278024
20
22.4885769886013
30
0
41
1
10
466.049951649607
20
22.4549227144012
30
0
41
1
10
466.048154909302
20
22.4211955546523
30
0
41
1
10
466.046392518658
20
22.387398433196
30
0
41
1
10
466.044664434127
20
22.3535342565991
30
0
41
1
10
466.042970608955
20
22.3196059172918
30
0
41
1
10
466.041310993316
20
22.285616292745
30
0
41
1
10
466.039685534317
20
22.2515682457019
30
0
41
1
10
466.038094176042
20
22.21746462413
30
0
41
1
10
466.036536859588
20
22.1833082612467
30
0
41
1
10
466.035013523098
20
22.1491019755258
30
0
41
1
10
466.033524101796
20
22.1148485707091
30
0
41
1
10
466.032068528028
20
22.0805508358169
30
0
41
1
10
466.030646731289
20
22.0462115451583
30
0
41
1
10
466.029258638265
20
22.0118334583428
30
0
41
1
10
466.027904172866
20
21.9774193202906
30
0
41
1
10
466.026583256264
20
21.9429718612437
30
0
41
1
10
466.025295806922
20
21.9084937967773
30
0
41
1
10
466.02404174064
20
21.8739878278106
30
0
41
1
10
466.022820970579
20
21.8394566406186
30
0
41
1
10
466.021633407305
20
21.8049029068431
30
0
41
1
10
466.020478958821
20
21.7703292835047
30
0
41
1
10
466.019357530603
20
21.7357384130141
30
0
41
1
10
466.018269025634
20
21.7011329231843
30
0
41
1
10
466.01721334444
20
21.6665154272423
30
0
41
1
10
466.016190385128
20
21.6318885238413
30
0
41
1
10
466.015200043416
20
21.5972547970731
30
0
41
1
10
466.014242212674
20
21.5626168164803
30
0
41
1
10
466.013316783953
20
21.5279771370689
30
0
41
1
10
466.012423646026
20
21.4933382993211
30
0
41
1
10
466.011562685417
20
21.4587028292085
30
0
41
1
10
466.01073378644
20
21.4240732382045
30
0
41
1
10
466.009936831233
20
21.389452023298
30
0
41
1
10
466.009171699792
20
21.354841667007
30
0
41
1
10
466.008438270005
20
21.3202446373917
30
0
41
1
10
466.007736417687
20
21.2856633880687
30
0
41
1
10
466.007066016616
20
21.2511003582251
30
0
41
1
10
466.006426938565
20
21.2165579726324
30
0
41
1
10
466.005819053336
20
21.1820386416608
30
0
41
1
10
466.005242228796
20
21.1475447612947
30
0
41
1
10
466.004696330911
20
21.1130787131465
30
0
41
1
10
466.004181223776
20
21.0786428644722
30
0
41
1
10
466.003696769654
20
21.0442395681869
30
0
41
1
10
466.003242829006
20
21.0098711628799
30
0
41
1
10
466.002819260525
20
20.9755399728304
30
0
41
1
10
466.002425921168
20
20.9412483080255
30
0
41
1
10
466.002062666197
20
20.9069984641677
30
0
41
1
10
466.001729349193
20
20.8727927227251
30
0
41
1
10
466.001425822132
20
20.8386333508225
30
0
41
1
10
466.001151935291
20
20.8045226017241
30
0
41
1
10
466.000907537724
20
20.7704627131264
30
0
41
1
10
466.000692475666
20
20.7364559135607
30
0
41
1
10
466.000506598586
20
20.7025043987667
30
0
41
1
10
466.000349736934
20
20.6686104192689
30
0
41
1
10
466.000221784686
20
20.6347759561652
30
0
41
1
10
466.000122393851
20
20.601003921717
30
0
41
1
10
466.00005210575
20
20.5672937140429
30
0
41
1
10
466.000008162608
20
20.5336576759835
30
0
41
1
10
466.000002716008
20
20.5111991810316
30
0
41
1
10
466
20
20.4999999999983
30
0
0
SPLINE
5
1D1
100
AcDbEntity
8
1
62
256
6
ByLayer
370
18
48
1
60
0
100
AcDbSpline
70
4
71
3
72
51
73
47
40
0
40
0
40
0
40
0
40
0.0163698658227556
40
0.0328016119007479
40
0.0492952623575901
40
0.0658508410462714
40
0.0824683715531076
40
0.0991478772015861
40
0.115889381056156
40
0.132692905925976
40
0.149558474368561
40
0.166486108693374
40
0.183475830965383
40
0.200527663008522
40
0.217641626409105
40
0.234817742519192
40
0.252056032459867
40
0.26935651712451
40
0.286719217181959
40
0.304144153079655
40
0.321631345046717
40
0.339180813096971
40
0.356792577031925
40
0.374466656443695
40
0.392203070717891
40
0.410001839036428
40
0.427862980380329
40
0.445786513532442
40
0.463772457080143
40
0.481820829417984
40
0.499931648750275
40
0.531729742561769
40
0.563747425027471
40
0.595984789744238
40
0.628441928408118
40
0.661118930864687
40
0.694015885157785
40
0.727132877576663
40
0.76046999270163
40
0.794027313448234
40
0.827804921110051
40
0.86180289540015
40
0.896021314491218
40
0.930460255054464
40
0.96511979229733
40
1
40
1
40
1
40
1
41
1
10
465.5
20
20.918367346937
30
0
41
1
10
465.500010032665
20
20.9315221621942
30
0
41
1
10
465.50003013592
20
20.9578815196479
30
0
41
1
10
465.500172268434
20
20.9972726393051
30
0
41
1
10
465.500396275852
20
21.0366474215519
30
0
41
1
10
465.500710285225
20
21.0759875467437
30
0
41
1
10
465.501112106629
20
21.1152949764773
30
0
41
1
10
465.501602330167
20
21.1545661901951
30
0
41
1
10
465.502180796846
20
21.1937991273875
30
0
41
1
10
465.50284754952
20
21.2329913169692
30
0
41
1
10
465.503602576652
20
21.2721403813091
30
0
41
1
10
465.504445881362
20
21.3112439004127
30
0
41
1
10
465.505377462823
20
21.3502994485099
30
0
41
1
10
465.506397321267
20
21.3893045841898
30
0
41
1
10
465.507505456644
20
21.4282568530537
30
0
41
1
10
465.508701868979
20
21.4671537869958
30
0
41
1
10
465.509986558276
20
21.5059929043947
30
0
41
1
10
465.511359524544
20
21.5447717100594
30
0
41
1
10
465.512820767793
20
21.5834876952435
30
0
41
1
10
465.51437028803
20
21.6221383376423
30
0
41
1
10
465.516008085265
20
21.6607211013954
30
0
41
1
10
465.517734159505
20
21.6992334370892
30
0
41
1
10
465.519548510757
20
21.7376727817607
30
0
41
1
10
465.521451139038
20
21.7760365589037
30
0
41
1
10
465.523442044323
20
21.8143221784674
30
0
41
1
10
465.525521226744
20
21.8525270368929
30
0
41
1
10
465.527688685842
20
21.8906485170089
30
0
41
1
10
465.529944423382
20
21.9286839884607
30
0
41
1
10
465.532288432771
20
21.9666308061485
30
0
41
1
10
465.53472073879
20
22.0044863161321
30
0
41
1
10
465.537873309971
20
22.0517171881022
30
0
41
1
10
465.541838989512
20
22.1081879219383
30
0
41
1
10
465.546731421531
20
22.1736906151833
30
0
41
1
10
465.551898535711
20
22.2389257212335
30
0
41
1
10
465.55734037521
20
22.3038766023251
30
0
41
1
10
465.563056928704
20
22.3685264772527
30
0
41
1
10
465.569048199042
20
22.4328584026156
30
0
41
1
10
465.575314187376
20
22.4968552674555
30
0
41
1
10
465.58185488724
20
22.5604998357499
30
0
41
1
10
465.588670324646
20
22.6237745821812
30
0
41
1
10
465.595760402152
20
22.6866623144899
30
0
41
1
10
465.60312548785
20
22.7491438295745
30
0
41
1
10
465.610764195354
20
22.8112067491147
30
0
41
1
10
465.618681749719
20
22.8728122261403
30
0
41
1
10
465.626858463382
20
22.9340204025333
30
0
41
1
10
465.63251388199
20
22.9742243249018
30
0
41
1
10
465.635350564464
20
22.9943900756357
30
0
0
SPLINE
5
1D2
100
AcDbEntity
8
1
62
256
6
ByLayer
370
18
48
1
60
0
100
AcDbSpline
70
4
71
3
72
55
73
51
40
0
40
0
40
0
40
0
40
0.0079245655345783
40
0.0159114253084012
40
0.0239605829212847
40
0.0320720418900571
40
0.0402458056510963
40
0.0484818775627481
40
0.0567802609076743
40
0.0651409588951036
40
0.073563974662993
40
0.0820493112801276
40
0.0905969717481253
40
0.099206959003389
40
0.107879275918966
40
0.116613925306361
40
0.125410909917276
40
0.154479422763259
40
0.184954478282284
40
0.216836148163241
40
0.250124494582527
40
0.30630053375266
40
0.366464850257788
40
0.430617606472867
40
0.498758926831092
40
0.554560544510239
40
0.614775322165124
40
0.67940325612816
40
0.74844433078931
40
0.756529661225179
40
0.765004342929402
40
0.773868375905948
40
0.783121760149294
40
0.79276449564557
40
0.802796582373484
40
0.81321802030507
40
0.824028809406309
40
0.835228949637628
40
0.846818440954335
40
0.858797283306961
40
0.871165476641574
40
0.883923020900011
40
0.897069916020117
40
0.910606161935911
40
0.924531758577755
40
0.938846705872486
40
0.953551003743539
40
0.968644652111046
40
0.984127650891938
40
1
40
1
40
1
40
1
41
1
10
465.635350564464
20
22.9943900756357
30
0
41
1
10
465.636827231209
20
23.0048101163496
30
0
41
1
10
465.639792172631
20
23.0257321087042
30
0
41
1
10
465.644187677625
20
23.0569385932352
30
0
41
1
10
465.648567480635
20
23.0881650731166
30
0
41
1
10
465.652926486448
20
23.1193839852761
30
0
41
1
10
465.657266076186
20
23.1505951298846
30
0
41
1
10
465.661585875399
20
23.181790817279
30
0
41
1
10
465.665885985496
20
23.2129653154649
30
0
41
1
10
465.670166378896
20
23.2441122893133
30
0
41
1
10
465.674427063057
20
23.2752254944756
30
0
41
1
10
465.678668035641
20
23.3062985893311
30
0
41
1
10
465.682889298113
20
23.3373251855364
30
0
41
1
10
465.687090846582
20
23.3682988354843
30
0
41
1
10
465.691272694941
20
23.3992130309965
30
0
41
1
10
465.695434790658
20
23.4300612211189
30
0
41
1
10
465.702749531823
20
23.484403463514
30
0
41
1
10
465.713202997964
20
23.5624587972582
30
0
41
1
10
465.726687452156
20
23.6634130587557
30
0
41
1
10
465.740315176372
20
23.7652105530384
30
0
41
1
10
465.757060675379
20
23.8892768552785
30
0
41
1
10
465.776818712095
20
24.0336161723117
30
0
41
1
10
465.799459956364
20
24.1940645144826
30
0
41
1
10
465.82250506025
20
24.3494711028503
30
0
41
1
10
465.844080926516
20
24.4849394003184
30
0
41
1
10
465.864458435076
20
24.602416308635
30
0
41
1
10
465.88388942393
20
24.7036775557651
30
0
41
1
10
465.904230575193
20
24.7961499467141
30
0
41
1
10
465.918777827684
20
24.8510224692606
30
0
41
1
10
465.927463692301
20
24.8797034882557
30
0
41
1
10
465.930035638374
20
24.8879379258366
30
0
41
1
10
465.93271897357
20
24.8962394995718
30
0
41
1
10
465.935513501391
20
24.9045661803908
30
0
41
1
10
465.938419276188
20
24.9128740548771
30
0
41
1
10
465.94143628084
20
24.9211173469677
30
0
41
1
10
465.944564518855
20
24.9292484106831
30
0
41
1
10
465.947803988062
20
24.9372177315413
30
0
41
1
10
465.951154688067
20
24.9449739258934
30
0
41
1
10
465.954616618106
20
24.9524637415505
30
0
41
1
10
465.958189777629
20
24.9596320578178
30
0
41
1
10
465.961874166129
20
24.966421889388
30
0
41
1
10
465.965669783141
20
24.9727743777792
30
0
41
1
10
465.969576628361
20
24.9786288341034
30
0
41
1
10
465.973594701092
20
24.9839225843711
30
0
41
1
10
465.977724002382
20
24.9885915879305
30
0
41
1
10
465.981964526669
20
24.9925680484318
30
0
41
1
10
465.986316294249
20
24.9957897271048
30
0
41
1
10
465.990779225129
20
24.9981637903856
30
0
41
1
10
465.995353628535
20
24.9997071335414
30
0
41
1
10
465.998438441113
20
24.9999015730382
30
0
41
1
10
466
20
24.9999999999983
30
0
0
SPLINE
5
1D3
100
AcDbEntity
8
1
62
256
6
ByLayer
370
18
48
1
60
0
100
AcDbSpline
70
4
71
1
72
4
73
2
40
0
40
0
40
1
40
1
41
1
10
465.5
20
20.918367346937
30
0
41
1
10
466
20
20.4999999999983
30
0
0
SPLINE
5
1D4
100
AcDbEntity
8
SK1
62
256
6
ByLayer
370
18
48
1
60
0
100
AcDbSpline
70
4
71
3
72
11
73
7
40
0
40
0
40
0
40
0
40
0.242589954178652
40
0.502544718947562
40
0.761087572808605
40
1
40
1
40
1
40
1
41
1
10
-0.199999999999932
20
17.5545583467653
30
0
41
1
10
-0.200957889270313
20
17.528914023106
30
0
41
1
10
-0.211248315226214
20
17.4799022728817
30
0
41
1
10
-0.255179720944142
20
17.413949611085
30
0
41
1
10
-0.321113897423757
20
17.3707504109673
30
0
41
1
10
-0.369683795840132
20
17.3607068368228
30
0
41
1
10
-0.394913799811221
20
17.359780267379
30
0
0
SPLINE
5
1D5
100
AcDbEntity
8
SK1
62
256
6
ByLayer
370
18
48
1
60
0
100
AcDbSpline
70
4
71
3
72
11
73
7
40
0
40
0
40
0
40
0
40
0.238912427113125
40
0.497455280942488
40
0.757410045745046
40
1
40
1
40
1
40
1
41
1
10
-0.394913799811363
20
-17.3597801301672
30
0
41
1
10
-0.369683795838469
20
-17.3607066995757
30
0
41
1
10
-0.321113897416538
20
-17.3707502735068
30
0
41
1
10
-0.255179720936468
20
-17.4139494728385
30
0
41
1
10
-0.211248315224694
20
-17.4799021334557
30
0
41
1
10
-0.200957889268807
20
-17.5289138828002
30
0
41
1
10
-0.20000000000006
20
-17.5545582060013
30
0
0
SPLINE
5
1D6
100
AcDbEntity
8
SK1
62
256
6
ByLayer
370
18
48
1
60
0
100
AcDbSpline
70
4
71
2
72
6
73
3
40
0
40
0
40
0
40
1
40
1
40
1
41
1
10
-28.4999999999999
20
16.8588088260864
30
0
41
1
10
-29.2499999297871
20
16.4259984461423
30
0
41
1
10
-29.9999999999999
20
15.993187350886
30
0
0
SPLINE
5
1D7
100
AcDbEntity
8
SK1
62
256
6
ByLayer
370
18
48
1
60
0
100
AcDbSpline
70
4
71
2
72
6
73
3
40
0
40
0
40
0
40
1
40
1
40
1
41
1
10
-30.0000000000001
20
-15.9931874249211
30
0
41
1
10
-29.2499999297895
20
-16.4259985176869
30
0
41
1
10
-28.5000000000001
20
-16.8588088951666
30
0
0
SPLINE
5
1D8
100
AcDbEntity
8
SK1
62
256
6
ByLayer
370
18
48
1
60
0
100
AcDbSpline
70
4
71
2
72
6
73
3
40
0
40
0
40
0
40
1
40
1
40
1
41
1
10
-0.394913799811221
20
17.3602209523781
30
0
41
1
10
-1.19497688886892
20
17.3401342706943
30
0
41
1
10
-1.99503997793923
20
17.3200475850767
30
0
0
SPLINE
5
1D9
100
AcDbEntity
8
SK1
62
256
6
ByLayer
370
18
48
1
60
0
100
AcDbSpline
70
4
71
2
72
6
73
3
40
0
40
0
40
0
40
1
40
1
40
1
41
1
10
-1.99503997793936
20
-17.3200478774323
30
0
41
1
10
-1.19497688886905
20
-17.340134563042
30
0
41
1
10
-0.394913799811363
20
-17.3602212447177
30
0
0
SPLINE
5
1DA
100
AcDbEntity
8
SK1
62
256
6
ByLayer
370
18
48
1
60
0
100
AcDbSpline
70
4
71
3
72
13
73
9
40
0
40
0
40
0
40
0
40
0.239505987673083
40
0.368426538155688
40
0.500072261058321
40
0.631705987654816
40
0.760593443052916
40
1
40
1
40
1
40
1
41
1
10
-1.99503997793923
20
17.3252686883829
30
0
41
1
10
-2.02110925982333
20
17.3248665791032
30
0
41
1
10
-2.0588386380993
20
17.3310361992814
30
0
41
1
10
-2.10627567686477
20
17.3540696096462
30
0
41
1
10
-2.13886243911919
20
17.3792256041407
30
0
41
1
10
-2.16563490776909
20
17.4104933211739
30
0
41
1
10
-2.19103207710589
20
17.4566915621889
30
0
41
1
10
-2.1990912192168
20
17.4940488942773
30
0
41
1
10
-2.19999999999993
20
17.5200961072231
30
0
0
SPLINE
5
1DB
100
AcDbEntity
8
SK1
62
256
6
ByLayer
370
18
48
1
60
0
100
AcDbSpline
70
4
71
3
72
13
73
9
40
0
40
0
40
0
40
0
40
0.239406556342956
40
0.368294011542631
40
0.499927738071791
40
0.631573461053609
40
0.76049401174041
40
1
40
1
40
1
40
1
41
1
10
-2.20000000000006
20
-17.5200962264206
30
0
41
1
10
-2.1990912192077
20
-17.494049013599
30
0
41
1
10
-2.19103207709693
20
-17.4566916816953
30
0
41
1
10
-2.16563490775667
20
-17.4104934409328
30
0
41
1
10
-2.13886243910261
20
-17.379225724067
30
0
41
1
10
-2.10627567684708
20
-17.3540697297104
30
0
41
1
10
-2.0588386380763
20
-17.3310363194718
30
0
41
1
10
-2.02110925981125
20
-17.3248666993254
30
0
41
1
10
-1.99503997793936
20
-17.3252688086104
30
0
0
SPLINE
5
1DC
100
AcDbEntity
8
SK1
62
256
6
ByLayer
370
18
48
1
60
0
100
AcDbSpline
70
4
71
2
72
6
73
3
40
0
40
0
40
0
40
1
40
1
40
1
41
1
10
-2.19999999999993
20
17.5148287077807
30
0
41
1
10
-15.3499999982431
20
17.1846805562454
30
0
41
1
10
-28.4999999999999
20
16.8545313165691
30
0
0
SPLINE
5
1DD
100
AcDbEntity
8
SK1
62
256
6
ByLayer
370
18
48
1
60
0
100
AcDbSpline
70
4
71
2
72
6
73
3
40
0
40
0
40
0
40
1
40
1
40
1
41
1
10
-28.5000000000001
20
-16.8545316091351
30
0
41
1
10
-15.3499999982428
20
-17.1846808487114
30
0
41
1
10
-2.20000000000006
20
-17.5148290000611
30
0
0
LINE
5
9B
100
AcDbEntity
8
4
62
256
6
ByLayer
370
18
48
0.05
60
0
100
AcDbLine
10
464
20
5
30
0
11
468
21
5
31
0
39
0
210
0
220
0
230
1
0
LINE
5
9D
100
AcDbEntity
8
81
62
256
6
ByLayer
370
18
48
1
60
0
100
AcDbLine
10
468
20
5
30
0
11
473
21
5
31
0
39
0
210
0
220
0
230
1
0
LINE
5
9E
100
AcDbEntity
8
SK4
62
256
6
ByLayer
370
18
48
0.05
60
0
100
AcDbLine
10
4
20
0
30
0
11
464
21
0
31
0
39
0
210
0
220
0
230
1
0
LINE
5
A0
100
AcDbEntity
8
80
62
256
6
ByLayer
370
18
48
1
60
0
100
AcDbLine
10
0
20
0
30
0
11
-5
21
0
31
0
39
0
210
0
220
0
230
1
0
LINE
5
A1
100
AcDbEntity
8
1
62
256
6
ByLayer
370
18
48
1
60
0
100
AcDbLine
10
472.8
20
-1.899495
30
0
11
472.8
21
-7.899495
31
0
39
0
210
0
220
0
230
1
0
LINE
5
A3
100
AcDbEntity
8
1
62
256
6
ByLayer
370
13
48
1
60
0
100
AcDbLine
10
468.324503
20
-7.344995
30
0
11
472.8
21
-7.344995
31
0
39
0
210
0
220
0
230
1
0
LINE
5
A4
100
AcDbEntity
8
1
62
256
6
ByLayer
370
13
48
1
60
0
100
AcDbLine
10
468.324503
20
-2.453995
30
0
11
472.8
21
-2.453995
31
0
39
0
210
0
220
0
230
1
0
LINE
5
A5
100
AcDbEntity
8
1
62
256
6
ByLayer
370
18
48
1
60
0
100
AcDbLine
10
472.8
20
17.899495
30
0
11
472.8
21
11.899495
31
0
39
0
210
0
220
0
230
1
0
LINE
5
A6
100
AcDbEntity
8
1
62
256
6
ByLayer
370
13
48
1
60
0
100
AcDbLine
10
468.324503
20
12.453995
30
0
11
472.8
21
12.453995
31
0
39
0
210
0
220
0
230
1
0
LINE
5
A7
100
AcDbEntity
8
1
62
256
6
ByLayer
370
13
48
1
60
0
100
AcDbLine
10
468.324503
20
17.344995
30
0
11
472.8
21
17.344995
31
0
39
0
210
0
220
0
230
1
0
LINE
5
A8
100
AcDbEntity
8
1
62
256
6
ByLayer
370
13
48
1
60
0
100
AcDbLine
10
11.461325
20
-7.529667
30
0
11
11.461325
21
-23.83913
31
0
39
0
210
0
220
0
230
1
0
LINE
5
A9
100
AcDbEntity
8
1
62
256
6
ByLayer
370
13
48
1
60
0
100
AcDbLine
10
11.894338
20
-8.055848
30
0
11
11.894338
21
-23.666502
31
0
39
0
210
0
220
0
230
1
0
LINE
5
AA
100
AcDbEntity
8
1
62
256
6
ByLayer
370
13
48
1
60
0
100
AcDbLine
10
8.105662
20
23.666502
30
0
11
8.105662
21
8.055848
31
0
39
0
210
0
220
0
230
1
0
LINE
5
AB
100
AcDbEntity
8
1
62
256
6
ByLayer
370
13
48
1
60
0
100
AcDbLine
10
8.538675
20
23.83913
30
0
11
8.538675
21
7.529667
31
0
39
0
210
0
220
0
230
1
0
LINE
5
AC
100
AcDbEntity
8
1
62
256
6
ByLayer
370
13
48
1
60
0
100
AcDbLine
10
8.105662
20
-8.055848
30
0
11
8.105662
21
-23.666502
31
0
39
0
210
0
220
0
230
1
0
LINE
5
AD
100
AcDbEntity
8
1
62
256
6
ByLayer
370
13
48
1
60
0
100
AcDbLine
10
8.538675
20
-7.529667
30
0
11
8.538675
21
-23.83913
31
0
39
0
210
0
220
0
230
1
0
LINE
5
AE
100
AcDbEntity
8
1
62
256
6
ByLayer
370
13
48
1
60
0
100
AcDbLine
10
11.461325
20
23.83913
30
0
11
11.461325
21
7.529667
31
0
39
0
210
0
220
0
230
1
0
LINE
5
AF
100
AcDbEntity
8
1
62
256
6
ByLayer
370
13
48
1
60
0
100
AcDbLine
10
11.894338
20
23.666502
30
0
11
11.894338
21
8.055848
31
0
39
0
210
0
220
0
230
1
0
LINE
5
B0
100
AcDbEntity
8
1
62
256
6
ByLayer
370
18
48
1
60
0
100
AcDbLine
10
0
20
-24.7
30
0
11
0
21
24.7
31
0
39
0
210
0
220
0
230
1
0
LINE
5
B1
100
AcDbEntity
8
1
62
256
6
ByLayer
370
18
48
1
60
0
100
AcDbLine
10
464
20
24.8
30
0
11
464
21
-24.8
31
0
39
0
210
0
220
0
230
1
0
LINE
5
B2
100
AcDbEntity
8
1
62
256
6
ByLayer
370
13
48
1
60
0
100
AcDbLine
10
463.8
20
25
30
0
11
463.8
21
-25
31
0
39
0
210
0
220
0
230
1
0
LINE
5
B3
100
AcDbEntity
8
1
62
256
6
ByLayer
370
18
48
1
60
0
100
AcDbLine
10
0.3
20
-25
30
0
11
0.3
21
25
31
0
39
0
210
0
220
0
230
1
0
LINE
5
B4
100
AcDbEntity
8
1
62
256
6
ByLayer
370
18
48
1
60
0
100
AcDbLine
10
11.461325
20
7.529667
30
0
11
8.538675
21
7.529667
31
0
39
0
210
0
220
0
230
1
0
LINE
5
B5
100
AcDbEntity
8
1
62
256
6
ByLayer
370
18
48
1
60
0
100
AcDbLine
10
8.538675
20
23.83913
30
0
11
11.461325
21
23.83913
31
0
39
0
210
0
220
0
230
1
0
LINE
5
B6
100
AcDbEntity
8
1
62
256
6
ByLayer
370
18
48
1
60
0
100
AcDbLine
10
8.538675
20
-7.529667
30
0
11
11.461325
21
-7.529667
31
0
39
0
210
0
220
0
230
1
0
LINE
5
B7
100
AcDbEntity
8
1
62
256
6
ByLayer
370
18
48
1
60
0
100
AcDbLine
10
11.461325
20
-23.83913
30
0
11
8.538675
21
-23.83913
31
0
39
0
210
0
220
0
230
1
0
LINE
5
B8
100
AcDbEntity
8
SK1
62
256
6
ByLayer
370
18
48
1
60
0
100
AcDbLine
10
-0.2
20
-6.078431
30
0
11
-0.2
21
-17.833485
31
0
39
0
210
0
220
0
230
1
0
LINE
5
BA
100
AcDbEntity
8
SK1
62
256
6
ByLayer
370
18
48
1
60
0
100
AcDbLine
10
-0.2
20
17.833485
30
0
11
-0.2
21
6.078432
31
0
39
0
210
0
220
0
230
1
0
LINE
5
BB
100
AcDbEntity
8
SK1
62
256
6
ByLayer
370
13
48
1
60
0
100
AcDbLine
10
-1.307107
20
3.918083
30
0
11
-1.307107
21
-3.918083
31
0
39
0
210
0
220
0
230
1
0
LINE
5
BC
100
AcDbEntity
8
SK1
62
256
6
ByLayer
370
18
48
1
60
0
100
AcDbLine
10
-1.99504
20
17.325269
30
0
11
-1.99504
21
17.320045
31
0
39
0
210
0
220
0
230
1
0
LINE
5
BD
100
AcDbEntity
8
SK1
62
256
6
ByLayer
370
18
48
1
60
0
100
AcDbLine
10
-1.99504
20
-17.320045
30
0
11
-1.99504
21
-17.325269
31
0
39
0
210
0
220
0
230
1
0
LINE
5
BE
100
AcDbEntity
8
1
62
256
6
ByLayer
370
13
48
1
60
0
100
AcDbLine
10
472.8
20
-1.899495
30
0
11
472.8
21
-4.899495
31
0
39
0
210
0
220
0
230
1
0
LINE
5
BF
100
AcDbEntity
8
1
62
256
6
ByLayer
370
13
48
1
60
0
100
AcDbLine
10
472.8
20
-4.899495
30
0
11
472.8
21
-7.899495
31
0
39
0
210
0
220
0
230
1
0
LINE
5
C0
100
AcDbEntity
8
1
62
256
6
ByLayer
370
18
48
1
60
0
100
AcDbLine
10
473
20
-9.899495
30
0
11
473
21
-4.899495
31
0
39
0
210
0
220
0
230
1
0
LINE
5
C1
100
AcDbEntity
8
1
62
256
6
ByLayer
370
18
48
1
60
0
100
AcDbLine
10
473
20
-4.899495
30
0
11
473
21
0.100505
31
0
39
0
210
0
220
0
230
1
0
LINE
5
C2
100
AcDbEntity
8
1
62
256
6
ByLayer
370
13
48
1
60
0
100
AcDbLine
10
478.4
20
0.100505
30
0
11
478.4
21
-4.899495
31
0
39
0
210
0
220
0
230
1
0
LINE
5
C3
100
AcDbEntity
8
1
62
256
6
ByLayer
370
13
48
1
60
0
100
AcDbLine
10
478.4
20
-4.899495
30
0
11
478.4
21
-9.899495
31
0
39
0
210
0
220
0
230
1
0
LINE
5
C4
100
AcDbEntity
8
1
62
256
6
ByLayer
370
18
48
1
60
0
100
AcDbLine
10
479
20
-9.299495
30
0
11
479
21
-4.899495
31
0
39
0
210
0
220
0
230
1
0
LINE
5
C5
100
AcDbEntity
8
1
62
256
6
ByLayer
370
18
48
1
60
0
100
AcDbLine
10
479
20
-4.899495
30
0
11
479
21
-0.499495
31
0
39
0
210
0
220
0
230
1
0
LINE
5
C6
100
AcDbEntity
8
1
62
256
6
ByLayer
370
18
48
1
60
0
100
AcDbLine
10
468.32476
20
-13.976857
30
0
11
468.32476
21
-13.887542
31
0
39
0
210
0
220
0
230
1
0
LINE
5
C7
100
AcDbEntity
8
1
62
256
6
ByLayer
370
18
48
1
60
0
100
AcDbLine
10
468.32476
20
23.887542
30
0
11
468.32476
21
23.976857
31
0
39
0
210
0
220
0
230
1
0
LINE
5
C8
100
AcDbEntity
8
1
62
256
6
ByLayer
370
13
48
1
60
0
100
AcDbLine
10
467.650481
20
24.602807
30
0
11
467.650481
21
24.629489
31
0
39
0
210
0
220
0
230
1
0
LINE
5
C9
100
AcDbEntity
8
1
62
256
6
ByLayer
370
13
48
1
60
0
100
AcDbLine
10
467.650481
20
-14.629489
30
0
11
467.650481
21
-14.602807
31
0
39
0
210
0
220
0
230
1
0
LINE
5
CA
100
AcDbEntity
8
1
62
256
6
ByLayer
370
18
48
1
60
0
100
AcDbLine
10
468.32476
20
-13.842999
30
0
11
468.32476
21
-13.662842
31
0
39
0
210
0
220
0
230
1
0
LINE
5
CB
100
AcDbEntity
8
1
62
256
6
ByLayer
370
18
48
1
60
0
100
AcDbLine
10
468.32476
20
23.662842
30
0
11
468.32476
21
23.842999
31
0
39
0
210
0
220
0
230
1
0
LINE
5
CC
100
AcDbEntity
8
1
62
256
6
ByLayer
370
13
48
1
60
0
100
AcDbLine
10
467.650481
20
-14.470143
30
0
11
467.650481
21
-14.416627
31
0
39
0
210
0
220
0
230
1
0
LINE
5
CD
100
AcDbEntity
8
1
62
256
6
ByLayer
370
13
48
1
60
0
100
AcDbLine
10
467.650481
20
24.416627
30
0
11
467.650481
21
24.470143
31
0
39
0
210
0
220
0
230
1
0
LINE
5
CE
100
AcDbEntity
8
1
62
256
6
ByLayer
370
18
48
1
60
0
100
AcDbLine
10
468.32476
20
-13.587525
30
0
11
468.32476
21
-13.31313
31
0
39
0
210
0
220
0
230
1
0
LINE
5
CF
100
AcDbEntity
8
1
62
256
6
ByLayer
370
18
48
1
60
0
100
AcDbLine
10
468.32476
20
23.31313
30
0
11
468.32476
21
23.587525
31
0
39
0
210
0
220
0
230
1
0
LINE
5
D0
100
AcDbEntity
8
1
62
256
6
ByLayer
370
13
48
1
60
0
100
AcDbLine
10
467.650481
20
24.111162
30
0
11
467.650481
21
24.192605
31
0
39
0
210
0
220
0
230
1
0
LINE
5
D1
100
AcDbEntity
8
1
62
256
6
ByLayer
370
13
48
1
60
0
100
AcDbLine
10
467.650481
20
-14.192605
30
0
11
467.650481
21
-14.111162
31
0
39
0
210
0
220
0
230
1
0
LINE
5
D2
100
AcDbEntity
8
1
62
256
6
ByLayer
370
18
48
1
60
0
100
AcDbLine
10
468.32476
20
-13.205318
30
0
11
468.32476
21
-12.830489
31
0
39
0
210
0
220
0
230
1
0
LINE
5
D3
100
AcDbEntity
8
1
62
256
6
ByLayer
370
18
48
1
60
0
100
AcDbLine
10
468.32476
20
22.830489
30
0
11
468.32476
21
23.205318
31
0
39
0
210
0
220
0
230
1
0
LINE
5
D4
100
AcDbEntity
8
1
62
256
6
ByLayer
370
13
48
1
60
0
100
AcDbLine
10
467.650481
20
-13.791639
30
0
11
467.650481
21
-13.680651
31
0
39
0
210
0
220
0
230
1
0
LINE
5
D5
100
AcDbEntity
8
1
62
256
6
ByLayer
370
13
48
1
60
0
100
AcDbLine
10
467.650481
20
23.680651
30
0
11
467.650481
21
23.791639
31
0
39
0
210
0
220
0
230
1
0
LINE
5
D6
100
AcDbEntity
8
1
62
256
6
ByLayer
370
18
48
1
60
0
100
AcDbLine
10
468.32476
20
-12.688163
30
0
11
468.32476
21
-12.204449
31
0
39
0
210
0
220
0
230
1
0
LINE
5
D7
100
AcDbEntity
8
1
62
256
6
ByLayer
370
18
48
1
60
0
100
AcDbLine
10
468.32476
20
22.204449
30
0
11
468.32476
21
22.688163
31
0
39
0
210
0
220
0
230
1
0
LINE
5
D8
100
AcDbEntity
8
1
62
256
6
ByLayer
370
13
48
1
60
0
100
AcDbLine
10
467.650481
20
-13.259116
30
0
11
467.650481
21
-13.116188
31
0
39
0
210
0
220
0
230
1
0
LINE
5
D9
100
AcDbEntity
8
1
62
256
6
ByLayer
370
13
48
1
60
0
100
AcDbLine
10
467.650481
20
23.116188
30
0
11
467.650481
21
23.259116
31
0
39
0
210
0
220
0
230
1
0
LINE
5
DA
100
AcDbEntity
8
1
62
256
6
ByLayer
370
18
48
1
60
0
100
AcDbLine
10
468.32476
20
-12.023766
30
0
11
468.32476
21
-11.418191
31
0
39
0
210
0
220
0
230
1
0
LINE
5
DB
100
AcDbEntity
8
1
62
256
6
ByLayer
370
18
48
1
60
0
100
AcDbLine
10
468.32476
20
21.418191
30
0
11
468.32476
21
22.023766
31
0
39
0
210
0
220
0
230
1
0
LINE
5
DC
100
AcDbEntity
8
1
62
256
6
ByLayer
370
13
48
1
60
0
100
AcDbLine
10
467.650481
20
-12.583086
30
0
11
467.650481
21
-12.404844
31
0
39
0
210
0
220
0
230
1
0
LINE
5
DD
100
AcDbEntity
8
1
62
256
6
ByLayer
370
13
48
1
60
0
100
AcDbLine
10
467.650481
20
22.404844
30
0
11
467.650481
21
22.583086
31
0
39
0
210
0
220
0
230
1
0
LINE
5
DE
100
AcDbEntity
8
1
62
256
6
ByLayer
370
18
48
1
60
0
100
AcDbLine
10
468.32476
20
-11.194014
30
0
11
468.32476
21
-10.447336
31
0
39
0
210
0
220
0
230
1
0
LINE
5
DF
100
AcDbEntity
8
1
62
256
6
ByLayer
370
18
48
1
60
0
100
AcDbLine
10
468.32476
20
20.447336
30
0
11
468.32476
21
21.194014
31
0
39
0
210
0
220
0
230
1
0
LINE
5
E0
100
AcDbEntity
8
1
62
256
6
ByLayer
370
13
48
1
60
0
100
AcDbLine
10
467.650481
20
-11.74618
30
0
11
467.650481
21
-11.527523
31
0
39
0
210
0
220
0
230
1
0
LINE
5
E1
100
AcDbEntity
8
1
62
256
6
ByLayer
370
13
48
1
60
0
100
AcDbLine
10
467.650481
20
21.527523
30
0
11
467.650481
21
21.74618
31
0
39
0
210
0
220
0
230
1
0
LINE
5
E2
100
AcDbEntity
8
1
62
256
6
ByLayer
370
18
48
1
60
0
100
AcDbLine
10
468.32476
20
-10.171803
30
0
11
468.32476
21
-9.254246
31
0
39
0
210
0
220
0
230
1
0
LINE
5
E3
100
AcDbEntity
8
1
62
256
6
ByLayer
370
18
48
1
60
0
100
AcDbLine
10
468.32476
20
19.254246
30
0
11
468.32476
21
20.171803
31
0
39
0
210
0
220
0
230
1
0
LINE
5
E4
100
AcDbEntity
8
1
62
256
6
ByLayer
370
13
48
1
60
0
100
AcDbLine
10
467.650481
20
20.456027
30
0
11
467.650481
21
20.722727
31
0
39
0
210
0
220
0
230
1
0
LINE
5
E5
100
AcDbEntity
8
1
62
256
6
ByLayer
370
13
48
1
60
0
100
AcDbLine
10
467.650481
20
-10.722727
30
0
11
467.650481
21
-10.456027
31
0
39
0
210
0
220
0
230
1
0
LINE
5
E6
100
AcDbEntity
8
1
62
256
6
ByLayer
370
18
48
1
60
0
100
AcDbLine
10
468.32476
20
17.776776
30
0
11
468.32476
21
18.91478
31
0
39
0
210
0
220
0
230
1
0
LINE
5
E7
100
AcDbEntity
8
1
62
256
6
ByLayer
370
18
48
1
60
0
100
AcDbLine
10
468.32476
20
-8.91478
30
0
11
468.32476
21
-7.776776
31
0
39
0
210
0
220
0
230
1
0
LINE
5
E8
100
AcDbEntity
8
1
62
256
6
ByLayer
370
13
48
1
60
0
100
AcDbLine
10
467.650481
20
-9.473209
30
0
11
467.650481
21
-9.146205
31
0
39
0
210
0
220
0
230
1
0
LINE
5
E9
100
AcDbEntity
8
1
62
256
6
ByLayer
370
13
48
1
60
0
100
AcDbLine
10
467.650481
20
19.146205
30
0
11
467.650481
21
19.473209
31
0
39
0
210
0
220
0
230
1
0
LINE
5
EA
100
AcDbEntity
8
1
62
256
6
ByLayer
370
18
48
1
60
0
100
AcDbLine
10
468.32476
20
-7.351461
30
0
11
468.32476
21
-5.899779
31
0
39
0
210
0
220
0
230
1
0
LINE
5
EB
100
AcDbEntity
8
1
62
256
6
ByLayer
370
18
48
1
60
0
100
AcDbLine
10
468.32476
20
15.899779
30
0
11
468.32476
21
17.351461
31
0
39
0
210
0
220
0
230
1
0
LINE
5
EC
100
AcDbEntity
8
1
62
256
6
ByLayer
370
13
48
1
60
0
100
AcDbLine
10
467.650481
20
-7.932262
30
0
11
467.650481
21
-7.523683
31
0
39
0
210
0
220
0
230
1
0
LINE
5
ED
100
AcDbEntity
8
1
62
256
6
ByLayer
370
13
48
1
60
0
100
AcDbLine
10
467.650481
20
17.523683
30
0
11
467.650481
21
17.932262
31
0
39
0
210
0
220
0
230
1
0
LINE
5
EE
100
AcDbEntity
8
1
62
256
6
ByLayer
370
18
48
1
60
0
100
AcDbLine
10
468.32476
20
-5.343892
30
0
11
468.32476
21
-3.358834
31
0
39
0
210
0
220
0
230
1
0
LINE
5
EF
100
AcDbEntity
8
1
62
256
6
ByLayer
370
18
48
1
60
0
100
AcDbLine
10
468.32476
20
13.358834
30
0
11
468.32476
21
15.343892
31
0
39
0
210
0
220
0
230
1
0
LINE
5
F0
100
AcDbEntity
8
1
62
256
6
ByLayer
370
13
48
1
60
0
100
AcDbLine
10
467.650481
20
-5.977842
30
0
11
467.650481
21
-5.444044
31
0
39
0
210
0
220
0
230
1
0
LINE
5
F1
100
AcDbEntity
8
1
62
256
6
ByLayer
370
13
48
1
60
0
100
AcDbLine
10
467.650481
20
15.444044
30
0
11
467.650481
21
15.977842
31
0
39
0
210
0
220
0
230
1
0
LINE
5
F2
100
AcDbEntity
8
1
62
256
6
ByLayer
370
18
48
1
60
0
100
AcDbLine
10
468.32476
20
-2.545435
30
0
11
468.32476
21
0.946215
31
0
39
0
210
0
220
0
230
1
0
LINE
5
F3
100
AcDbEntity
8
1
62
256
6
ByLayer
370
18
48
1
60
0
100
AcDbLine
10
468.32476
20
9.053785
30
0
11
468.32476
21
12.545435
31
0
39
0
210
0
220
0
230
1
0
LINE
5
F4
100
AcDbEntity
8
1
62
256
6
ByLayer
370
13
48
1
60
0
100
AcDbLine
10
467.650481
20
-3.323618
30
0
11
467.650481
21
-2.537296
31
0
39
0
210
0
220
0
230
1
0
LINE
5
F5
100
AcDbEntity
8
1
62
256
6
ByLayer
370
13
48
1
60
0
100
AcDbLine
10
467.650481
20
12.537296
30
0
11
467.650481
21
13.323618
31
0
39
0
210
0
220
0
230
1
0
LINE
5
F6
100
AcDbEntity
8
1
62
256
6
ByLayer
370
18
48
1
60
0
100
AcDbLine
10
468.32476
20
3.460164
30
0
11
468.32476
21
6.539836
31
0
39
0
210
0
220
0
230
1
0
LINE
5
F7
100
AcDbEntity
8
1
62
256
6
ByLayer
370
13
48
1
60
0
100
AcDbLine
10
467.650481
20
1.318664
30
0
11
467.650481
21
4.790509
31
0
39
0
210
0
220
0
230
1
0
LINE
5
F8
100
AcDbEntity
8
1
62
256
6
ByLayer
370
13
48
1
60
0
100
AcDbLine
10
467.650481
20
5.209491
30
0
11
467.650481
21
8.681336
31
0
39
0
210
0
220
0
230
1
0
LINE
5
F9
100
AcDbEntity
8
1
62
256
6
ByLayer
370
18
48
1
60
0
100
AcDbLine
10
468.32476
20
-13.976857
30
0
11
468.32476
21
-13.991672
31
0
39
0
210
0
220
0
230
1
0
LINE
5
FA
100
AcDbEntity
8
1
62
256
6
ByLayer
370
18
48
1
60
0
100
AcDbLine
10
468.32476
20
-13.842999
30
0
11
468.32476
21
-13.887723
31
0
39
0
210
0
220
0
230
1
0
LINE
5
FB
100
AcDbEntity
8
1
62
256
6
ByLayer
370
18
48
1
60
0
100
AcDbLine
10
468.32476
20
-13.587525
30
0
11
468.32476
21
-13.663027
31
0
39
0
210
0
220
0
230
1
0
LINE
5
FC
100
AcDbEntity
8
1
62
256
6
ByLayer
370
18
48
1
60
0
100
AcDbLine
10
468.32476
20
-13.205318
30
0
11
468.32476
21
-13.31314
31
0
39
0
210
0
220
0
230
1
0
LINE
5
FD
100
AcDbEntity
8
1
62
256
6
ByLayer
370
18
48
1
60
0
100
AcDbLine
10
468.32476
20
-12.688163
30
0
11
468.32476
21
-12.830692
31
0
39
0
210
0
220
0
230
1
0
LINE
5
FE
100
AcDbEntity
8
1
62
256
6
ByLayer
370
18
48
1
60
0
100
AcDbLine
10
468.32476
20
-12.023766
30
0
11
468.32476
21
-12.204537
31
0
39
0
210
0
220
0
230
1
0
LINE
5
FF
100
AcDbEntity
8
1
62
256
6
ByLayer
370
18
48
1
60
0
100
AcDbLine
10
468.32476
20
-11.194014
30
0
11
468.32476
21
-11.41824
31
0
39
0
210
0
220
0
230
1
0
LINE
5
100
100
AcDbEntity
8
1
62
256
6
ByLayer
370
18
48
1
60
0
100
AcDbLine
10
468.32476
20
-10.171803
30
0
11
468.32476
21
-10.447365
31
0
39
0
210
0
220
0
230
1
0
LINE
5
101
100
AcDbEntity
8
1
62
256
6
ByLayer
370
18
48
1
60
0
100
AcDbLine
10
468.32476
20
-8.91478
30
0
11
468.32476
21
-9.254248
31
0
39
0
210
0
220
0
230
1
0
LINE
5
102
100
AcDbEntity
8
1
62
256
6
ByLayer
370
18
48
1
60
0
100
AcDbLine
10
468.32476
20
-7.351461
30
0
11
468.32476
21
-7.776779
31
0
39
0
210
0
220
0
230
1
0
LINE
5
103
100
AcDbEntity
8
1
62
256
6
ByLayer
370
18
48
1
60
0
100
AcDbLine
10
468.32476
20
-5.343892
30
0
11
468.32476
21
-5.899935
31
0
39
0
210
0
220
0
230
1
0
LINE
5
104
100
AcDbEntity
8
1
62
256
6
ByLayer
370
18
48
1
60
0
100
AcDbLine
10
468.32476
20
-2.545435
30
0
11
468.32476
21
-3.358893
31
0
39
0
210
0
220
0
230
1
0
LINE
5
105
100
AcDbEntity
8
1
62
256
6
ByLayer
370
18
48
1
60
0
100
AcDbLine
10
468.32476
20
3.460164
30
0
11
468.32476
21
0.946163
31
0
39
0
210
0
220
0
230
1
0
LINE
5
106
100
AcDbEntity
8
1
62
256
6
ByLayer
370
18
48
1
60
0
100
AcDbLine
10
468.32476
20
9.053837
30
0
11
468.32476
21
6.539836
31
0
39
0
210
0
220
0
230
1
0
LINE
5
107
100
AcDbEntity
8
1
62
256
6
ByLayer
370
18
48
1
60
0
100
AcDbLine
10
468.32476
20
13.358893
30
0
11
468.32476
21
12.545435
31
0
39
0
210
0
220
0
230
1
0
LINE
5
108
100
AcDbEntity
8
1
62
256
6
ByLayer
370
18
48
1
60
0
100
AcDbLine
10
468.32476
20
15.899935
30
0
11
468.32476
21
15.343892
31
0
39
0
210
0
220
0
230
1
0
LINE
5
109
100
AcDbEntity
8
1
62
256
6
ByLayer
370
18
48
1
60
0
100
AcDbLine
10
468.32476
20
17.776779
30
0
11
468.32476
21
17.351461
31
0
39
0
210
0
220
0
230
1
0
LINE
5
10A
100
AcDbEntity
8
1
62
256
6
ByLayer
370
18
48
1
60
0
100
AcDbLine
10
468.32476
20
19.254248
30
0
11
468.32476
21
18.91478
31
0
39
0
210
0
220
0
230
1
0
LINE
5
10B
100
AcDbEntity
8
1
62
256
6
ByLayer
370
18
48
1
60
0
100
AcDbLine
10
468.32476
20
20.447365
30
0
11
468.32476
21
20.171803
31
0
39
0
210
0
220
0
230
1
0
LINE
5
10C
100
AcDbEntity
8
1
62
256
6
ByLayer
370
18
48
1
60
0
100
AcDbLine
10
468.32476
20
21.41824
30
0
11
468.32476
21
21.194014
31
0
39
0
210
0
220
0
230
1
0
LINE
5
10D
100
AcDbEntity
8
1
62
256
6
ByLayer
370
18
48
1
60
0
100
AcDbLine
10
468.32476
20
22.204537
30
0
11
468.32476
21
22.023766
31
0
39
0
210
0
220
0
230
1
0
LINE
5
10E
100
AcDbEntity
8
1
62
256
6
ByLayer
370
18
48
1
60
0
100
AcDbLine
10
468.32476
20
22.830692
30
0
11
468.32476
21
22.688163
31
0
39
0
210
0
220
0
230
1
0
LINE
5
10F
100
AcDbEntity
8
1
62
256
6
ByLayer
370
18
48
1
60
0
100
AcDbLine
10
468.32476
20
23.31314
30
0
11
468.32476
21
23.205318
31
0
39
0
210
0
220
0
230
1
0
LINE
5
110
100
AcDbEntity
8
1
62
256
6
ByLayer
370
18
48
1
60
0
100
AcDbLine
10
468.32476
20
23.663027
30
0
11
468.32476
21
23.587525
31
0
39
0
210
0
220
0
230
1
0
LINE
5
111
100
AcDbEntity
8
1
62
256
6
ByLayer
370
18
48
1
60
0
100
AcDbLine
10
468.32476
20
23.887723
30
0
11
468.32476
21
23.842999
31
0
39
0
210
0
220
0
230
1
0
LINE
5
112
100
AcDbEntity
8
1
62
256
6
ByLayer
370
18
48
1
60
0
100
AcDbLine
10
468.32476
20
23.991672
30
0
11
468.32476
21
23.976857
31
0
39
0
210
0
220
0
230
1
0
LINE
5
113
100
AcDbEntity
8
1
62
256
6
ByLayer
370
18
48
1
60
0
100
AcDbLine
10
467.32476
20
-15
30
0
11
467.32476
21
25
31
0
39
0
210
0
220
0
230
1
0
LINE
5
114
100
AcDbEntity
8
1
62
256
6
ByLayer
370
13
48
1
60
0
100
AcDbLine
10
466.5
20
-15
30
0
11
466.5
21
22.536585
31
0
39
0
210
0
220
0
230
1
0
LINE
5
115
100
AcDbEntity
8
1
62
256
6
ByLayer
370
18
48
1
60
0
100
AcDbLine
10
464
20
24.8
30
0
11
464
21
-24.8
31
0
39
0
210
0
220
0
230
1
0
LINE
5
116
100
AcDbEntity
8
1
62
256
6
ByLayer
370
13
48
1
60
0
100
AcDbLine
10
464.2
20
25
30
0
11
464.2
21
-25
31
0
39
0
210
0
220
0
230
1
0
LINE
5
117
100
AcDbEntity
8
1
62
256
6
ByLayer
370
18
48
1
60
0
100
AcDbLine
10
466
20
-24.5
30
0
11
466
21
20.5
31
0
39
0
210
0
220
0
230
1
0
LINE
5
118
100
AcDbEntity
8
1
62
256
6
ByLayer
370
18
48
1
60
0
100
AcDbLine
10
465.5
20
-25
30
0
11
465.5
21
20.918367
31
0
39
0
210
0
220
0
230
1
0
LINE
5
119
100
AcDbEntity
8
1
62
256
6
ByLayer
370
13
48
1
60
0
100
AcDbLine
10
472.8
20
17.899495
30
0
11
472.8
21
11.899495
31
0
39
0
210
0
220
0
230
1
0
LINE
5
11A
100
AcDbEntity
8
1
62
256
6
ByLayer
370
18
48
1
60
0
100
AcDbLine
10
473
20
19.899495
30
0
11
473
21
9.899495
31
0
39
0
210
0
220
0
230
1
0
LINE
5
11B
100
AcDbEntity
8
1
62
256
6
ByLayer
370
13
48
1
60
0
100
AcDbLine
10
478.4
20
19.899495
30
0
11
478.4
21
9.899495
31
0
39
0
210
0
220
0
230
1
0
LINE
5
11C
100
AcDbEntity
8
1
62
256
6
ByLayer
370
18
48
1
60
0
100
AcDbLine
10
479
20
19.299495
30
0
11
479
21
10.499495
31
0
39
0
210
0
220
0
230
1
0
LINE
5
11D
100
AcDbEntity
8
1
62
256
6
ByLayer
370
18
48
1
60
0
100
AcDbLine
10
0
20
-24.7
30
0
11
0.3
21
-25
31
0
39
0
210
0
220
0
230
1
0
LINE
5
11E
100
AcDbEntity
8
1
62
256
6
ByLayer
370
18
48
1
60
0
100
AcDbLine
10
0.3
20
25
30
0
11
0
21
24.7
31
0
39
0
210
0
220
0
230
1
0
LINE
5
11F
100
AcDbEntity
8
1
62
256
6
ByLayer
370
18
48
1
60
0
100
AcDbLine
10
463.8
20
25
30
0
11
0.3
21
25
31
0
39
0
210
0
220
0
230
1
0
LINE
5
120
100
AcDbEntity
8
1
62
256
6
ByLayer
370
18
48
1
60
0
100
AcDbLine
10
0.3
20
-25
30
0
11
463.8
21
-25
31
0
39
0
210
0
220
0
230
1
0
LINE
5
121
100
AcDbEntity
8
1
62
256
6
ByLayer
370
18
48
1
60
0
100
AcDbLine
10
468.324609
20
-7.899495
30
0
11
472.8
21
-7.899495
31
0
39
0
210
0
220
0
230
1
0
LINE
5
122
100
AcDbEntity
8
1
62
256
6
ByLayer
370
18
48
1
60
0
100
AcDbLine
10
472.8
20
-1.899495
30
0
11
468.324609
21
-1.899495
31
0
39
0
210
0
220
0
230
1
0
LINE
5
123
100
AcDbEntity
8
1
62
256
6
ByLayer
370
18
48
1
60
0
100
AcDbLine
10
473
20
-9.899495
30
0
11
478.4
21
-9.899495
31
0
39
0
210
0
220
0
230
1
0
LINE
5
124
100
AcDbEntity
8
1
62
256
6
ByLayer
370
18
48
1
60
0
100
AcDbLine
10
478.4
20
0.100505
30
0
11
473
21
0.100505
31
0
39
0
210
0
220
0
230
1
0
LINE
5
125
100
AcDbEntity
8
1
62
256
6
ByLayer
370
18
48
1
60
0
100
AcDbLine
10
467.552123
20
24.772637
30
0
11
467.32476
21
25
31
0
39
0
210
0
220
0
230
1
0
LINE
5
126
100
AcDbEntity
8
1
62
256
6
ByLayer
370
18
48
1
60
0
100
AcDbLine
10
467.32476
20
-15
30
0
11
467.552123
21
-14.772637
31
0
39
0
210
0
220
0
230
1
0
LINE
5
127
100
AcDbEntity
8
1
62
256
6
ByLayer
370
18
48
1
60
0
100
AcDbLine
10
466.5
20
-15
30
0
11
467.32476
21
-15
31
0
39
0
210
0
220
0
230
1
0
LINE
5
128
100
AcDbEntity
8
1
62
256
6
ByLayer
370
18
48
1
60
0
100
AcDbLine
10
467.32476
20
25
30
0
11
466
21
25
31
0
39
0
210
0
220
0
230
1
0
LINE
5
129
100
AcDbEntity
8
1
62
256
6
ByLayer
370
18
48
1
60
0
100
AcDbLine
10
466.02
20
25
30
0
11
464.2
21
25
31
0
39
0
210
0
220
0
230
1
0
LINE
5
12A
100
AcDbEntity
8
1
62
256
6
ByLayer
370
18
48
1
60
0
100
AcDbLine
10
464.2
20
-25
30
0
11
465.5
21
-25
31
0
39
0
210
0
220
0
230
1
0
LINE
5
12B
100
AcDbEntity
8
1
62
256
6
ByLayer
370
18
48
1
60
0
100
AcDbLine
10
465.5
20
-25
30
0
11
466
21
-24.5
31
0
39
0
210
0
220
0
230
1
0
LINE
5
12C
100
AcDbEntity
8
1
62
256
6
ByLayer
370
18
48
1
60
0
100
AcDbLine
10
468.324609
20
11.899495
30
0
11
472.8
21
11.899495
31
0
39
0
210
0
220
0
230
1
0
LINE
5
12D
100
AcDbEntity
8
1
62
256
6
ByLayer
370
18
48
1
60
0
100
AcDbLine
10
472.8
20
17.899495
30
0
11
468.324609
21
17.899495
31
0
39
0
210
0
220
0
230
1
0
LINE
5
12E
100
AcDbEntity
8
1
62
256
6
ByLayer
370
18
48
1
60
0
100
AcDbLine
10
473
20
9.899495
30
0
11
478.4
21
9.899495
31
0
39
0
210
0
220
0
230
1
0
LINE
5
12F
100
AcDbEntity
8
1
62
256
6
ByLayer
370
18
48
1
60
0
100
AcDbLine
10
478.4
20
19.899495
30
0
11
473
21
19.899495
31
0
39
0
210
0
220
0
230
1
0
LINE
5
130
100
AcDbEntity
8
SK2
62
256
6
ByLayer
370
18
48
1
60
0
100
AcDbLine
10
-36.6
20
-25
30
0
11
-36.6
21
25
31
0
39
0
210
0
220
0
230
1
0
LINE
5
132
100
AcDbEntity
8
SK2
62
256
6
ByLayer
370
18
48
1
60
0
100
AcDbLine
10
-1.2875
20
25
30
0
11
-38.6
21
25
31
0
39
0
210
0
220
0
230
1
0
LINE
5
133
100
AcDbEntity
8
SK2
62
256
6
ByLayer
370
18
48
1
60
0
100
AcDbLine
10
-1.2875
20
-25
30
0
11
-38.6
21
-25
31
0
39
0
210
0
220
0
230
1
0
LINE
5
134
100
AcDbEntity
8
1
62
256
6
ByLayer
370
18
48
1
60
1
100
AcDbLine
10
-36.6
20
25
30
0
11
-36.139216
21
21.500002
31
0
39
0
210
0
220
0
230
1
0
LINE
5
135
100
AcDbEntity
8
1
62
256
6
ByLayer
370
18
48
1
60
1
100
AcDbLine
10
-36.139216
20
21.500002
30
0
11
-37.060784
21
21.499998
31
0
39
0
210
0
220
0
230
1
0
LINE
5
136
100
AcDbEntity
8
1
62
256
6
ByLayer
370
18
48
1
60
1
100
AcDbLine
10
-37.060784
20
21.499998
30
0
11
-36.6
21
25
31
0
39
0
210
0
220
0
230
1
0
LINE
5
137
100
AcDbEntity
8
1
62
256
6
ByLayer
370
18
48
1
60
1
100
AcDbLine
10
-36.6
20
-25
30
0
11
-37.060784
21
-21.500002
31
0
39
0
210
0
220
0
230
1
0
LINE
5
138
100
AcDbEntity
8
1
62
256
6
ByLayer
370
18
48
1
60
1
100
AcDbLine
10
-37.060784
20
-21.500002
30
0
11
-36.139216
21
-21.499998
31
0
39
0
210
0
220
0
230
1
0
LINE
5
139
100
AcDbEntity
8
1
62
256
6
ByLayer
370
18
48
1
60
1
100
AcDbLine
10
-36.139216
20
-21.499998
30
0
11
-36.6
21
-25
31
0
39
0
210
0
220
0
230
1
0
LINE
5
13A
100
AcDbEntity
8
SK2
62
256
6
ByLayer
370
18
48
1
60
0
100
AcDbLine
10
499.748181
20
-25
30
0
11
499.748181
21
25
31
0
39
0
210
0
220
0
230
1
0
LINE
5
13B
100
AcDbEntity
8
SK2
62
256
6
ByLayer
370
18
48
1
60
0
100
AcDbLine
10
465.3875
20
25
30
0
11
501.748181
21
25
31
0
39
0
210
0
220
0
230
1
0
LINE
5
13C
100
AcDbEntity
8
SK2
62
256
6
ByLayer
370
18
48
1
60
0
100
AcDbLine
10
465.3875
20
-25
30
0
11
501.748181
21
-25
31
0
39
0
210
0
220
0
230
1
0
LINE
5
13D
100
AcDbEntity
8
1
62
256
6
ByLayer
370
18
48
1
60
1
100
AcDbLine
10
499.748181
20
25
30
0
11
500.208964
21
21.500002
31
0
39
0
210
0
220
0
230
1
0
LINE
5
13E
100
AcDbEntity
8
1
62
256
6
ByLayer
370
18
48
1
60
1
100
AcDbLine
10
500.208964
20
21.500002
30
0
11
499.287397
21
21.499998
31
0
39
0
210
0
220
0
230
1
0
LINE
5
13F
100
AcDbEntity
8
1
62
256
6
ByLayer
370
18
48
1
60
1
100
AcDbLine
10
499.287397
20
21.499998
30
0
11
499.748181
21
25
31
0
39
0
210
0
220
0
230
1
0
LINE
5
140
100
AcDbEntity
8
1
62
256
6
ByLayer
370
18
48
1
60
1
100
AcDbLine
10
499.748181
20
-25
30
0
11
499.287397
21
-21.500002
31
0
39
0
210
0
220
0
230
1
0
LINE
5
141
100
AcDbEntity
8
1
62
256
6
ByLayer
370
18
48
1
60
1
100
AcDbLine
10
499.287397
20
-21.500002
30
0
11
500.208964
21
-21.499998
31
0
39
0
210
0
220
0
230
1
0
LINE
5
142
100
AcDbEntity
8
1
62
256
6
ByLayer
370
18
48
1
60
1
100
AcDbLine
10
500.208964
20
-21.499998
30
0
11
499.748181
21
-25
31
0
39
0
210
0
220
0
230
1
0
LINE
5
143
100
AcDbEntity
8
SK2
62
256
6
ByLayer
370
13
48
1
60
0
100
AcDbLine
10
488.123181
20
25
30
0
11
488.123181
21
-15
31
0
39
0
210
0
220
0
230
1
0
LINE
5
144
100
AcDbEntity
8
SK2
62
256
6
ByLayer
370
13
48
1
60
0
100
AcDbLine
10
468.91226
20
-15
30
0
11
490.123181
21
-15
31
0
39
0
210
0
220
0
230
1
0
LINE
5
145
100
AcDbEntity
8
SK2
62
256
6
ByLayer
370
13
48
1
60
0
100
AcDbLine
10
468.91226
20
25
30
0
11
490.123181
21
25
31
0
39
0
210
0
220
0
230
1
0
LINE
5
146
100
AcDbEntity
8
1
62
256
6
ByLayer
370
18
48
1
60
1
100
AcDbLine
10
488.123181
20
-15
30
0
11
487.662397
21
-11.500002
31
0
39
0
210
0
220
0
230
1
0
LINE
5
147
100
AcDbEntity
8
1
62
256
6
ByLayer
370
18
48
1
60
1
100
AcDbLine
10
487.662397
20
-11.500002
30
0
11
488.583964
21
-11.499998
31
0
39
0
210
0
220
0
230
1
0
LINE
5
148
100
AcDbEntity
8
1
62
256
6
ByLayer
370
18
48
1
60
1
100
AcDbLine
10
488.583964
20
-11.499998
30
0
11
488.123181
21
-15
31
0
39
0
210
0
220
0
230
1
0
LINE
5
149
100
AcDbEntity
8
1
62
256
6
ByLayer
370
18
48
1
60
1
100
AcDbLine
10
488.123181
20
25
30
0
11
488.583964
21
21.500002
31
0
39
0
210
0
220
0
230
1
0
LINE
5
14A
100
AcDbEntity
8
1
62
256
6
ByLayer
370
18
48
1
60
1
100
AcDbLine
10
488.583964
20
21.500002
30
0
11
487.662397
21
21.499998
31
0
39
0
210
0
220
0
230
1
0
LINE
5
14B
100
AcDbEntity
8
1
62
256
6
ByLayer
370
18
48
1
60
1
100
AcDbLine
10
487.662397
20
21.499998
30
0
11
488.123181
21
25
31
0
39
0
210
0
220
0
230
1
0
LINE
5
14C
100
AcDbEntity
8
SK2
62
256
6
ByLayer
370
18
48
1
60
0
100
AcDbLine
10
0
20
30.795327
30
0
11
468
21
30.795327
31
0
39
0
210
0
220
0
230
1
0
LINE
5
14D
100
AcDbEntity
8
SK2
62
256
6
ByLayer
370
18
48
1
60
0
100
AcDbLine
10
468
20
26.5875
30
0
11
468
21
32.795327
31
0
39
0
210
0
220
0
230
1
0
LINE
5
14E
100
AcDbEntity
8
SK2
62
256
6
ByLayer
370
18
48
1
60
0
100
AcDbLine
10
0
20
26.2875
30
0
11
0
21
32.795327
31
0
39
0
210
0
220
0
230
1
0
LINE
5
14F
100
AcDbEntity
8
1
62
256
6
ByLayer
370
18
48
1
60
1
100
AcDbLine
10
468
20
30.795327
30
0
11
464.500002
21
30.334543
31
0
39
0
210
0
220
0
230
1
0
LINE
5
150
100
AcDbEntity
8
1
62
256
6
ByLayer
370
18
48
1
60
1
100
AcDbLine
10
464.500002
20
30.334543
30
0
11
464.499998
21
31.25611
31
0
39
0
210
0
220
0
230
1
0
LINE
5
151
100
AcDbEntity
8
1
62
256
6
ByLayer
370
18
48
1
60
1
100
AcDbLine
10
464.499998
20
31.25611
30
0
11
468
21
30.795327
31
0
39
0
210
0
220
0
230
1
0
LINE
5
152
100
AcDbEntity
8
1
62
256
6
ByLayer
370
18
48
1
60
1
100
AcDbLine
10
0
20
30.795327
30
0
11
3.499998
21
31.25611
31
0
39
0
210
0
220
0
230
1
0
LINE
5
153
100
AcDbEntity
8
1
62
256
6
ByLayer
370
18
48
1
60
1
100
AcDbLine
10
3.499998
20
31.25611
30
0
11
3.500002
21
30.334543
31
0
39
0
210
0
220
0
230
1
0
LINE
5
154
100
AcDbEntity
8
1
62
256
6
ByLayer
370
18
48
1
60
1
100
AcDbLine
10
3.500002
20
30.334543
30
0
11
0
21
30.795327
31
0
39
0
210
0
220
0
230
1
0
LINE
5
1E2
100
AcDbEntity
8
1
62
256
6
ByLayer
370
18
48
1
60
1
100
AcDbLine
10
-36.6
20
25
30
0
11
-36.139216
21
21.500002
31
0
39
0
210
0
220
0
230
1
0
LINE
5
1E3
100
AcDbEntity
8
1
62
256
6
ByLayer
370
18
48
1
60
1
100
AcDbLine
10
-36.139216
20
21.500002
30
0
11
-37.060784
21
21.499998
31
0
39
0
210
0
220
0
230
1
0
LINE
5
1E4
100
AcDbEntity
8
1
62
256
6
ByLayer
370
18
48
1
60
1
100
AcDbLine
10
-37.060784
20
21.499998
30
0
11
-36.6
21
25
31
0
39
0
210
0
220
0
230
1
0
LINE
5
1E6
100
AcDbEntity
8
1
62
256
6
ByLayer
370
18
48
1
60
1
100
AcDbLine
10
-36.6
20
-25
30
0
11
-37.060784
21
-21.500002
31
0
39
0
210
0
220
0
230
1
0
LINE
5
1E7
100
AcDbEntity
8
1
62
256
6
ByLayer
370
18
48
1
60
1
100
AcDbLine
10
-37.060784
20
-21.500002
30
0
11
-36.139216
21
-21.499998
31
0
39
0
210
0
220
0
230
1
0
LINE
5
1E8
100
AcDbEntity
8
1
62
256
6
ByLayer
370
18
48
1
60
1
100
AcDbLine
10
-36.139216
20
-21.499998
30
0
11
-36.6
21
-25
31
0
39
0
210
0
220
0
230
1
0
LINE
5
1EC
100
AcDbEntity
8
1
62
256
6
ByLayer
370
18
48
1
60
1
100
AcDbLine
10
499.748181
20
25
30
0
11
500.208964
21
21.500002
31
0
39
0
210
0
220
0
230
1
0
LINE
5
1ED
100
AcDbEntity
8
1
62
256
6
ByLayer
370
18
48
1
60
1
100
AcDbLine
10
500.208964
20
21.500002
30
0
11
499.287397
21
21.499998
31
0
39
0
210
0
220
0
230
1
0
LINE
5
1EE
100
AcDbEntity
8
1
62
256
6
ByLayer
370
18
48
1
60
1
100
AcDbLine
10
499.287397
20
21.499998
30
0
11
499.748181
21
25
31
0
39
0
210
0
220
0
230
1
0
LINE
5
1F0
100
AcDbEntity
8
1
62
256
6
ByLayer
370
18
48
1
60
1
100
AcDbLine
10
499.748181
20
-25
30
0
11
499.287397
21
-21.500002
31
0
39
0
210
0
220
0
230
1
0
LINE
5
1F1
100
AcDbEntity
8
1
62
256
6
ByLayer
370
18
48
1
60
1
100
AcDbLine
10
499.287397
20
-21.500002
30
0
11
500.208964
21
-21.499998
31
0
39
0
210
0
220
0
230
1
0
LINE
5
1F2
100
AcDbEntity
8
1
62
256
6
ByLayer
370
18
48
1
60
1
100
AcDbLine
10
500.208964
20
-21.499998
30
0
11
499.748181
21
-25
31
0
39
0
210
0
220
0
230
1
0
LINE
5
1F8
100
AcDbEntity
8
1
62
256
6
ByLayer
370
18
48
1
60
1
100
AcDbLine
10
488.123181
20
-15
30
0
11
487.662397
21
-11.500002
31
0
39
0
210
0
220
0
230
1
0
LINE
5
1F9
100
AcDbEntity
8
1
62
256
6
ByLayer
370
18
48
1
60
1
100
AcDbLine
10
487.662397
20
-11.500002
30
0
11
488.583964
21
-11.499998
31
0
39
0
210
0
220
0
230
1
0
LINE
5
1FA
100
AcDbEntity
8
1
62
256
6
ByLayer
370
18
48
1
60
1
100
AcDbLine
10
488.583964
20
-11.499998
30
0
11
488.123181
21
-15
31
0
39
0
210
0
220
0
230
1
0
LINE
5
1FC
100
AcDbEntity
8
1
62
256
6
ByLayer
370
18
48
1
60
1
100
AcDbLine
10
488.123181
20
25
30
0
11
488.583964
21
21.500002
31
0
39
0
210
0
220
0
230
1
0
LINE
5
1FD
100
AcDbEntity
8
1
62
256
6
ByLayer
370
18
48
1
60
1
100
AcDbLine
10
488.583964
20
21.500002
30
0
11
487.662397
21
21.499998
31
0
39
0
210
0
220
0
230
1
0
LINE
5
1FE
100
AcDbEntity
8
1
62
256
6
ByLayer
370
18
48
1
60
1
100
AcDbLine
10
487.662397
20
21.499998
30
0
11
488.123181
21
25
31
0
39
0
210
0
220
0
230
1
0
LINE
5
201
100
AcDbEntity
8
1
62
256
6
ByLayer
370
18
48
1
60
1
100
AcDbLine
10
468
20
30.795327
30
0
11
464.500002
21
30.334543
31
0
39
0
210
0
220
0
230
1
0
LINE
5
202
100
AcDbEntity
8
1
62
256
6
ByLayer
370
18
48
1
60
1
100
AcDbLine
10
464.500002
20
30.334543
30
0
11
464.499998
21
31.25611
31
0
39
0
210
0
220
0
230
1
0
LINE
5
203
100
AcDbEntity
8
1
62
256
6
ByLayer
370
18
48
1
60
1
100
AcDbLine
10
464.499998
20
31.25611
30
0
11
468
21
30.795327
31
0
39
0
210
0
220
0
230
1
0
LINE
5
205
100
AcDbEntity
8
1
62
256
6
ByLayer
370
18
48
1
60
1
100
AcDbLine
10
0
20
30.795327
30
0
11
3.499998
21
31.25611
31
0
39
0
210
0
220
0
230
1
0
LINE
5
206
100
AcDbEntity
8
1
62
256
6
ByLayer
370
18
48
1
60
1
100
AcDbLine
10
3.499998
20
31.25611
30
0
11
3.500002
21
30.334543
31
0
39
0
210
0
220
0
230
1
0
LINE
5
207
100
AcDbEntity
8
1
62
256
6
ByLayer
370
18
48
1
60
1
100
AcDbLine
10
3.500002
20
30.334543
30
0
11
0
21
30.795327
31
0
39
0
210
0
220
0
230
1
0
MTEXT
5
1DE
100
AcDbEntity
8
SK2
62
256
6
ByLayer
370
18
48
1
60
0
100
AcDbMText
10
-38.164634
20
-4.530622
30
0
210
0
220
0
230
1
1
%%c
40
3.5
41
0
44
1.084337
50
90
71
7
72
5
7
iso_b_vert
0
MTEXT
5
1E1
100
AcDbEntity
8
SK2
62
256
6
ByLayer
370
18
48
1
60
0
100
AcDbMText
10
-38.164634
20
2.442034
30
0
210
0
220
0
230
1
1
\W0.6740;50
40
3.5
41
0
44
1.084337
50
90
71
7
72
5
7
iso_b_vert
0
MTEXT
5
1EA
100
AcDbEntity
8
SK2
62
256
6
ByLayer
370
18
48
1
60
0
100
AcDbMText
10
498.183547
20
-4.530622
30
0
210
0
220
0
230
1
1
%%c
40
3.5
41
0
44
1.084337
50
90
71
7
72
5
7
iso_b_vert
0
MTEXT
5
1EB
100
AcDbEntity
8
SK2
62
256
6
ByLayer
370
18
48
1
60
0
100
AcDbMText
10
498.183547
20
2.442034
30
0
210
0
220
0
230
1
1
\W0.6740;50
40
3.5
41
0
44
1.084337
50
90
71
7
72
5
7
iso_b_vert
0
MTEXT
5
1F4
100
AcDbEntity
8
SK2
62
256
6
ByLayer
370
18
48
1
60
0
100
AcDbMText
10
485.902297
20
11.807233
30
0
210
0
220
0
230
1
1
\W1.1313;{\H1.88x;)}
40
3.5
41
0
44
1.084337
50
90
71
7
72
5
7
iso_b_vert
0
MTEXT
5
1F5
100
AcDbEntity
8
SK2
62
256
6
ByLayer
370
18
48
1
60
0
100
AcDbMText
10
485.902297
20
-3.942233
30
0
210
0
220
0
230
1
1
\W1.1313;{\H1.88x;(}
40
3.5
41
0
44
1.084337
50
90
71
7
72
5
7
iso_b_vert
0
MTEXT
5
1F6
100
AcDbEntity
8
SK2
62
256
6
ByLayer
370
18
48
1
60
0
100
AcDbMText
10
485.902297
20
0.285111
30
0
210
0
220
0
230
1
1
%%c
40
3.5
41
0
44
1.084337
50
90
71
7
72
5
7
iso_b_vert
0
MTEXT
5
1F7
100
AcDbEntity
8
SK2
62
256
6
ByLayer
370
18
48
1
60
0
100
AcDbMText
10
485.902297
20
7.257767
30
0
210
0
220
0
230
1
1
\W0.7361;40
40
3.5
41
0
44
1.084337
50
90
71
7
72
5
7
iso_b_vert
0
MTEXT
5
200
100
AcDbEntity
8
SK2
62
256
6
ByLayer
370
18
48
1
60
0
100
AcDbMText
10
230.603034
20
31.82796
30
0
210
0
220
0
230
1
1
\W0.7541;468
40
3.5
41
0
44
1.084337
50
0
71
7
72
5
7
iso_b_vert
0
MTEXT
5
209
100
AcDbEntity
8
SK6
62
256
6
ByLayer
370
18
48
1
60
0
100
AcDbMText
10
201.083627
20
-50.567391
30
0
210
0
220
0
230
1
1
\W0.7737;HT30D-C5 50 468R40
40
3.5
41
0
44
1.084337
50
0
71
7
72
5
7
iso_b_vert
0
HATCH
5
1E5
100
AcDbEntity
8
SK2
62
256
6
ByLayer
370
13
48
1
60
0
100
AcDbHatch
10
0
20
0
30
0
210
0
220
0
230
1
2
ANSI31
70
0
71
0
91
1
92
5
93
3
72
1
10
-36.6000000000001
20
24.9999999999983
11
-36.1392162584473
21
21.5000016925515
72
1
10
-36.1392162584473
20
21.5000016925515
11
-37.0607837415528
21
21.4999983074451
72
1
10
-37.0607837415528
20
21.4999983074451
11
-36.6000000000001
21
24.9999999999983
97
0
75
0
76
1
52
0
41
0.0062
77
0
78
1
53
45
43
0
44
0
45
-0.0139193969876572
46
0.0139193969876572
79
0
47
0
98
1
10
0
20
0
0
HATCH
5
1E9
100
AcDbEntity
8
SK2
62
256
6
ByLayer
370
13
48
1
60
0
100
AcDbHatch
10
0
20
0
30
0
210
0
220
0
230
1
2
ANSI31
70
0
71
0
91
1
92
5
93
3
72
1
10
-36.6000000000001
20
-25.0000000000017
11
-37.0607837415528
21
-21.5000016925549
72
1
10
-37.0607837415528
20
-21.5000016925549
11
-36.1392162584473
21
-21.4999983074486
72
1
10
-36.1392162584473
20
-21.4999983074486
11
-36.6000000000001
21
-25.0000000000017
97
0
75
0
76
1
52
0
41
0.0062
77
0
78
1
53
45
43
0
44
0
45
-0.0139193969876572
46
0.0139193969876572
79
0
47
0
98
1
10
0
20
0
0
HATCH
5
1EF
100
AcDbEntity
8
SK2
62
256
6
ByLayer
370
13
48
1
60
0
100
AcDbHatch
10
0
20
0
30
0
210
0
220
0
230
1
2
ANSI31
70
0
71
0
91
1
92
5
93
3
72
1
10
499.748180566759
20
24.9999999999983
11
500.208964308312
21
21.5000016925515
72
1
10
500.208964308312
20
21.5000016925515
11
499.287396825206
21
21.4999983074451
72
1
10
499.287396825206
20
21.4999983074451
11
499.748180566759
21
24.9999999999983
97
0
75
0
76
1
52
0
41
0.0062
77
0
78
1
53
45
43
0
44
0
45
-0.0139193969876572
46
0.0139193969876572
79
0
47
0
98
1
10
0
20
0
0
HATCH
5
1F3
100
AcDbEntity
8
SK2
62
256
6
ByLayer
370
13
48
1
60
0
100
AcDbHatch
10
0
20
0
30
0
210
0
220
0
230
1
2
ANSI31
70
0
71
0
91
1
92
5
93
3
72
1
10
499.748180566759
20
-25.0000000000017
11
499.287396825206
21
-21.5000016925549
72
1
10
499.287396825206
20
-21.5000016925549
11
500.208964308312
21
-21.4999983074486
72
1
10
500.208964308312
20
-21.4999983074486
11
499.748180566759
21
-25.0000000000017
97
0
75
0
76
1
52
0
41
0.0062
77
0
78
1
53
45
43
0
44
0
45
-0.0139193969876572
46
0.0139193969876572
79
0
47
0
98
1
10
0
20
0
0
HATCH
5
1FB
100
AcDbEntity
8
SK2
62
256
6
ByLayer
370
13
48
1
60
0
100
AcDbHatch
10
0
20
0
30
0
210
0
220
0
230
1
2
ANSI31
70
0
71
0
91
1
92
5
93
3
72
1
10
488.123180566759
20
-15.0000000000018
11
487.662396825206
21
-11.5000016925549
72
1
10
487.662396825206
20
-11.5000016925549
11
488.583964308312
21
-11.4999983074486
72
1
10
488.583964308312
20
-11.4999983074486
11
488.123180566759
21
-15.0000000000018
97
0
75
0
76
1
52
0
41
0.0062
77
0
78
1
53
45
43
0
44
0
45
-0.0139193969876572
46
0.0139193969876572
79
0
47
0
98
1
10
0
20
0
0
HATCH
5
1FF
100
AcDbEntity
8
SK2
62
256
6
ByLayer
370
13
48
1
60
0
100
AcDbHatch
10
0
20
0
30
0
210
0
220
0
230
1
2
ANSI31
70
0
71
0
91
1
92
5
93
3
72
1
10
488.123180566759
20
24.9999999999982
11
488.583964308312
21
21.5000016925514
72
1
10
488.583964308312
20
21.5000016925514
11
487.662396825206
21
21.4999983074451
72
1
10
487.662396825206
20
21.4999983074451
11
488.123180566759
21
24.9999999999982
97
0
75
0
76
1
52
0
41
0.0062
77
0
78
1
53
45
43
0
44
0
45
-0.0139193969876572
46
0.0139193969876572
79
0
47
0
98
1
10
0
20
0
0
HATCH
5
204
100
AcDbEntity
8
SK2
62
256
6
ByLayer
370
13
48
1
60
0
100
AcDbHatch
10
0
20
0
30
0
210
0
220
0
230
1
2
ANSI31
70
0
71
0
91
1
92
5
93
3
72
1
10
468
20
30.7953266343501
11
464.500001692553
21
30.3345428927973
72
1
10
464.500001692553
20
30.3345428927973
11
464.499998307447
21
31.2561103759028
72
1
10
464.499998307447
20
31.2561103759028
11
468
21
30.7953266343501
97
0
75
0
76
1
52
0
41
0.0062
77
0
78
1
53
45
43
0
44
0
45
-0.0139193969876572
46
0.0139193969876572
79
0
47
0
98
1
10
0
20
0
0
HATCH
5
208
100
AcDbEntity
8
SK2
62
256
6
ByLayer
370
13
48
1
60
0
100
AcDbHatch
10
0
20
0
30
0
210
0
220
0
230
1
2
ANSI31
70
0
71
0
91
1
92
5
93
3
72
1
10
0
20
30.7953266343501
11
3.4999983074468
21
31.2561103759028
72
1
10
3.4999983074468
20
31.2561103759028
11
3.5000016925532
21
30.3345428927973
72
1
10
3.5000016925532
20
30.3345428927973
11
0
21
30.7953266343501
97
0
75
0
76
1
52
0
41
0.0062
77
0
78
1
53
45
43
0
44
0
45
-0.0139193969876572
46
0.0139193969876572
79
0
47
0
98
1
10
0
20
0
0
ENDSEC
0
SECTION
2
OBJECTS
0
DICTIONARY
5
278
330
0
100
AcDbDictionary
280
0
281
1
3
ACAD_GROUP
350
279
3
ACAD_MLINESTYLE
350
27a
0
DICTIONARY
5
279
330
0
100
AcDbDictionary
280
0
281
1
0
DICTIONARY
5
27a
330
0
100
AcDbDictionary
280
0
281
1
3
Standard
350
18
0
MLINESTYLE
5
18
330
27a
100
AcDbMlineStyle
2
Standard
70
0
3

62
256
51
90
52
90
71
2
49
-0.5
62
256
6
ByLayer
49
0.5
62
256
6
ByLayer
0
RASTERVARIABLES
5
266
330

100
AcDbRasterVariables
90
0
70
1
71
1
72
1
0
ENDSEC
0
EOF
