0
SECTION
2
HEADER
9
$ACADVER
1
AC1015
9
$DWGCODEPAGE
3
ANSI_1252
9
$HANDSEED
5
292
9
$ANGBASE
50
0
9
$ANGDIR
70
0
9
$ATTMODE
70
1
9
$AUNITS
70
0
9
$AUPREC
70
0
9
$CECOLOR
62
256
9
$CELTSCALE
40
1
9
$CELTYPE
6
ByLayer
9
$CELWEIGHT
370
18
9
$CLAYER
8
0
9
$CMLJUST
70
0
9
$CMLSCALE
40
1
9
$CMLSTYLE
2
Standard
9
$DIMSTYLE
2
Standard
9
$TEXTSIZE
40
0.2
9
$TEXTSTYLE
7
Standard
9
$LUNITS
70
2
9
$LUPREC
70
4
9
$EXTNAMES
290
1
9
$INSUNITS
70
4
9
$LTSCALE
40
1
9
$LWDISPLAY
290
1
9
$PDMODE
70
0
9
$PDSIZE
40
0
9
$PLINEGEN
70
0
0
ENDSEC
0
SECTION
2
CLASSES
0
CLASS
1
RASTERVARIABLES
2
AcDbRasterVariables
3
ISM
90
0
280
0
281
0
0
ENDSEC
0
SECTION
2
TABLES
0
TABLE
2
VPORT
5
288
100
AcDbSymbolTable
0
VPORT
5
1
100
AcDbSymbolTableRecord
100
AcDbViewportTableRecord
2
*Active
70
0
10
0
20
0
11
1
21
1
12
-1
22
1
13
0
23
0
14
0.5
24
0.5
15
10
25
10
16
0
26
0
36
1
17
0
27
0
37
0
0
ENDTAB
0
TABLE
2
LTYPE
5
289
100
AcDbSymbolTable
0
LTYPE
5
14
100
AcDbSymbolTableRecord
100
AcDbLinetypeTableRecord
70
0
2
ByBlock
3

72
65
73
0
40
0
0
LTYPE
5
15
100
AcDbSymbolTableRecord
100
AcDbLinetypeTableRecord
70
0
2
ByLayer
3

72
65
73
0
40
0
0
LTYPE
5
16
100
AcDbSymbolTableRecord
100
AcDbLinetypeTableRecord
70
0
2
Continuous
3
Solid line
72
65
73
0
40
0
0
LTYPE
5
6E
100
AcDbSymbolTableRecord
100
AcDbLinetypeTableRecord
70
0
2
CENTER
3
____ _ ____ _ ____ _ ____
72
65
73
4
40
47.5
49
22
74
0
49
-8.5
74
0
49
8.5
74
0
49
-8.5
74
0
0
LTYPE
5
6F
100
AcDbSymbolTableRecord
100
AcDbLinetypeTableRecord
70
0
2
DASHED
3
__ __ __ __ __ __ __ __ __
72
65
73
2
40
25.72
49
12.86
74
0
49
-12.86
74
0
0
ENDTAB
0
TABLE
2
LAYER
5
28a
100
AcDbSymbolTable
0
LAYER
5
10
100
AcDbSymbolTableRecord
100
AcDbLayerTableRecord
2
0
70
0
62
7
6
Continuous
290
1
370
-3
390
0
0
LAYER
5
71
100
AcDbSymbolTableRecord
100
AcDbLayerTableRecord
2
2
70
0
62
7
6
Continuous
290
1
370
-3
390
0
0
LAYER
5
98
100
AcDbSymbolTableRecord
100
AcDbLayerTableRecord
2
81
70
0
62
-3
6
Continuous
290
1
370
-3
390
0
0
LAYER
5
9A
100
AcDbSymbolTableRecord
100
AcDbLayerTableRecord
2
80
70
0
62
-6
6
Continuous
290
1
370
-3
390
0
0
LAYER
5
9C
100
AcDbSymbolTableRecord
100
AcDbLayerTableRecord
2
1
70
0
62
4
6
Continuous
290
1
370
-3
390
0
0
LAYER
5
A8
100
AcDbSymbolTableRecord
100
AcDbLayerTableRecord
2
4
70
0
62
-2
6
CENTER
290
1
370
-3
390
0
0
LAYER
5
274
100
AcDbSymbolTableRecord
100
AcDbLayerTableRecord
2
SK4
70
0
62
2
6
CENTER
290
1
370
-3
390
0
0
LAYER
5
275
100
AcDbSymbolTableRecord
100
AcDbLayerTableRecord
2
SK1
70
0
62
4
6
Continuous
290
1
370
-3
390
0
0
LAYER
5
276
100
AcDbSymbolTableRecord
100
AcDbLayerTableRecord
2
SK2
70
0
62
7
6
Continuous
290
1
370
-3
390
0
0
LAYER
5
277
100
AcDbSymbolTableRecord
100
AcDbLayerTableRecord
2
SK6
70
0
62
5
6
Continuous
290
1
370
-3
390
0
0
ENDTAB
0
TABLE
2
STYLE
5
28b
100
AcDbSymbolTable
0
STYLE
5
11
100
AcDbSymbolTableRecord
100
AcDbTextStyleTableRecord
2
Standard
3
txt
70
0
71
0
40
0
41
1
42
0
50
0
0
STYLE
5
1EC
100
AcDbSymbolTableRecord
100
AcDbTextStyleTableRecord
2
iso_b_vert
3
simplex.shx
70
0
71
0
40
0
41
1
42
0
50
0
0
STYLE
5
1ED
100
AcDbSymbolTableRecord
100
AcDbTextStyleTableRecord
2
DWGDirectTextStyle
3
simplex
70
0
71
0
40
0
41
1
42
0
50
0
0
ENDTAB
0
TABLE
2
DIMSTYLE
5
28c
100
AcDbSymbolTable
100
AcDbDimStyleTable
0
DIMSTYLE
105
27
100
AcDbSymbolTableRecord
100
AcDbDimStyleTableRecord
2
Standard
70
0
3
<>
41
0.18
42
0.0625
44
0.18
140
0.18
147
0.09
73
0
74
0
77
1
271
2
275
0
278
52
280
0
340
11
0
ENDTAB
0
TABLE
2
VIEW
5
28d
100
AcDbSymbolTable
0
ENDTAB
0
TABLE
2
UCS
5
28e
100
AcDbSymbolTable
0
ENDTAB
0
TABLE
2
APPID
5
28f
100
AcDbSymbolTable
0
APPID
5
12
100
AcDbSymbolTableRecord
100
AcDbRegAppTableRecord
2
ACAD
70
0
0
APPID
5
270
100
AcDbSymbolTableRecord
100
AcDbRegAppTableRecord
2
ACAD_MLEADERVER
70
0
0
ENDTAB
0
TABLE
2
BLOCK_RECORD
5
290
100
AcDbSymbolTable
0
BLOCK_RECORD
5
1F
100
AcDbSymbolTableRecord
100
AcDbBlockTableRecord
2
*Model_Space
340
0
70
0
0
BLOCK_RECORD
5
1B
100
AcDbSymbolTableRecord
100
AcDbBlockTableRecord
2
*Paper_Space
340
0
70
0
0
BLOCK_RECORD
5
23
100
AcDbSymbolTableRecord
100
AcDbBlockTableRecord
2
*Paper_Space0
340
0
70
0
0
ENDTAB
0
ENDSEC
0
SECTION
2
BLOCKS
0
BLOCK
5
20
100
AcDbEntity
8
0
100
AcDbBlockBegin
2
*Model_Space
70
0
10
0
20
0
30
0
3
*Model_Space
0
ENDBLK
5
21
100
AcDbEntity
8
0
100
AcDbBlockEnd
0
BLOCK
5
1C
100
AcDbEntity
8
0
100
AcDbBlockBegin
2
*Paper_Space
70
0
10
0
20
0
30
0
3
*Paper_Space
0
ENDBLK
5
1D
100
AcDbEntity
8
0
100
AcDbBlockEnd
0
BLOCK
5
24
100
AcDbEntity
8
0
100
AcDbBlockBegin
2
*Paper_Space0
70
0
10
0
20
0
30
0
3
*Paper_Space0
0
ENDBLK
5
25
100
AcDbEntity
8
0
100
AcDbBlockEnd
0
ENDSEC
0
SECTION
2
ENTITIES
0
ARC
5
15E
100
AcDbEntity
8
1
62
256
6
ByLayer
370
18
48
1
60
0
100
AcDbCircle
39
0
10
263.8
20
-24.8
30
0
40
0.2
210
0
220
0
230
1
100
AcDbArc
50
270
51
360
0
ARC
5
15F
100
AcDbEntity
8
1
62
256
6
ByLayer
370
18
48
1
60
0
100
AcDbCircle
39
0
10
263.8
20
24.8
30
0
40
0.2
210
0
220
0
230
1
100
AcDbArc
50
360
51
90
0
ARC
5
160
100
AcDbEntity
8
SK1
62
256
6
ByLayer
370
18
48
1
60
0
100
AcDbCircle
39
0
10
-0.6
20
18.75
30
0
40
0.999999999999998
210
0
220
0
230
1
100
AcDbArc
50
293.578178
51
306.869898
0
ARC
5
161
100
AcDbEntity
8
SK1
62
256
6
ByLayer
370
18
48
1
60
0
100
AcDbCircle
39
0
10
-0.6
20
-18.75
30
0
40
0.999999999999998
210
0
220
0
230
1
100
AcDbArc
50
53.130102
51
66.421822
0
ARC
5
162
100
AcDbEntity
8
1
62
256
6
ByLayer
370
18
48
1
60
0
100
AcDbCircle
39
0
10
266.5
20
-15.5
30
0
40
0.5
210
0
220
0
230
1
100
AcDbArc
50
90
51
180
0
ARC
5
163
100
AcDbEntity
8
1
62
256
6
ByLayer
370
18
48
1
60
0
100
AcDbCircle
39
0
10
264.2
20
-24.8
30
0
40
0.2
210
0
220
0
230
1
100
AcDbArc
50
180
51
270
0
ARC
5
164
100
AcDbEntity
8
1
62
256
6
ByLayer
370
18
48
1
60
0
100
AcDbCircle
39
0
10
264.2
20
24.8
30
0
40
0.2
210
0
220
0
230
1
100
AcDbArc
50
90
51
180
0
ARC
5
165
100
AcDbEntity
8
1
62
256
6
ByLayer
370
18
48
1
60
0
100
AcDbCircle
39
0
10
272.8
20
11.699495
30
0
40
0.2
210
0
220
0
230
1
100
AcDbArc
50
0
51
90
0
ARC
5
166
100
AcDbEntity
8
1
62
256
6
ByLayer
370
18
48
1
60
0
100
AcDbCircle
39
0
10
272.8
20
18.099495
30
0
40
0.2
210
0
220
0
230
1
100
AcDbArc
50
270
51
0
0
ARC
5
167
100
AcDbEntity
8
1
62
256
6
ByLayer
370
18
48
1
60
0
100
AcDbCircle
39
0
10
278.4
20
10.499495
30
0
40
0.6
210
0
220
0
230
1
100
AcDbArc
50
270
51
360
0
ARC
5
168
100
AcDbEntity
8
1
62
256
6
ByLayer
370
18
48
1
60
0
100
AcDbCircle
39
0
10
278.4
20
19.299495
30
0
40
0.6
210
0
220
0
230
1
100
AcDbArc
50
360
51
90
0
ARC
5
169
100
AcDbEntity
8
1
62
256
6
ByLayer
370
18
48
1
60
0
100
AcDbCircle
39
0
10
272.8
20
-8.099495
30
0
40
0.2
210
0
220
0
230
1
100
AcDbArc
50
0
51
90
0
ARC
5
16A
100
AcDbEntity
8
1
62
256
6
ByLayer
370
18
48
1
60
0
100
AcDbCircle
39
0
10
272.8
20
-1.699495
30
0
40
0.2
210
0
220
0
230
1
100
AcDbArc
50
270
51
0
0
ARC
5
16B
100
AcDbEntity
8
1
62
256
6
ByLayer
370
18
48
1
60
0
100
AcDbCircle
39
0
10
278.4
20
-9.299495
30
0
40
0.6
210
0
220
0
230
1
100
AcDbArc
50
270
51
360
0
ARC
5
16C
100
AcDbEntity
8
1
62
256
6
ByLayer
370
18
48
1
60
0
100
AcDbCircle
39
0
10
278.4
20
-0.499495
30
0
40
0.6
210
0
220
0
230
1
100
AcDbArc
50
360
51
90
0
ELLIPSE
5
16D
100
AcDbEntity
8
1
62
256
6
ByLayer
370
18
48
1
60
0
100
AcDbEllipse
10
-1.056258
20
0
30
0
11
11.709272349726
21
24.677186440936
31
0
210
0
220
0
230
1
40
0.341999
41
-1.08183270048932
42
-0.167213071908995
0
ELLIPSE
5
16E
100
AcDbEntity
8
1
62
256
6
ByLayer
370
18
48
1
60
0
100
AcDbEllipse
10
21.056258
20
0
30
0
11
11.7092723497267
21
-24.6771864409367
31
0
210
0
220
0
230
1
40
0.341999
41
-2.97437958168081
42
-2.0597599531005
0
ELLIPSE
5
16F
100
AcDbEntity
8
1
62
256
6
ByLayer
370
18
48
1
60
0
100
AcDbEllipse
10
21.056258
20
0
30
0
11
11.7092723497265
21
24.6771864409365
31
0
210
0
220
0
230
1
40
0.341999
41
2.05975995310049
42
2.97437958168081
0
ELLIPSE
5
170
100
AcDbEntity
8
1
62
256
6
ByLayer
370
18
48
1
60
0
100
AcDbEllipse
10
-1.056258
20
0
30
0
11
11.7092723497282
21
-24.6771864409388
31
0
210
0
220
0
230
1
40
0.341999
41
0.167213071908979
42
1.08183270048924
0
ELLIPSE
5
171
100
AcDbEntity
8
1
62
256
6
ByLayer
370
13
48
1
60
0
100
AcDbEllipse
10
266.5
20
22.975
30
0
11
-0.5
21
1.83758715709137E-15
31
0
210
0
220
0
230
1
40
0.876829
41
0.526344188063901
42
1.5707963267949
0
POINT
5
70
100
AcDbEntity
8
2
62
256
6
ByLayer
370
18
48
1
60
0
100
AcDbPoint
10
269
20
-4.899495
30
0
39
0
210
0
220
0
230
1
50
360
0
POINT
5
72
100
AcDbEntity
8
2
62
256
6
ByLayer
370
18
48
1
60
0
100
AcDbPoint
10
269
20
-4.899495
30
0
39
0
210
0
220
0
230
1
50
360
0
POINT
5
73
100
AcDbEntity
8
2
62
256
6
ByLayer
370
18
48
1
60
0
100
AcDbPoint
10
230.8
20
17
30
0
39
0
210
0
220
0
230
1
50
360
0
POINT
5
74
100
AcDbEntity
8
2
62
256
6
ByLayer
370
18
48
1
60
0
100
AcDbPoint
10
248
20
0
30
0
39
0
210
0
220
0
230
1
50
360
0
POINT
5
75
100
AcDbEntity
8
2
62
256
6
ByLayer
370
18
48
1
60
0
100
AcDbPoint
10
255
20
0
30
0
39
0
210
0
220
0
230
1
50
360
0
POINT
5
76
100
AcDbEntity
8
2
62
256
6
ByLayer
370
18
48
1
60
0
100
AcDbPoint
10
273
20
14.899495
30
0
39
0
210
0
220
0
230
1
50
360
0
POINT
5
77
100
AcDbEntity
8
2
62
256
6
ByLayer
370
18
48
1
60
0
100
AcDbPoint
10
255
20
0
30
0
39
0
210
0
220
0
230
1
50
360
0
POINT
5
78
100
AcDbEntity
8
2
62
256
6
ByLayer
370
18
48
1
60
0
100
AcDbPoint
10
172
20
0
30
0
39
0
210
0
220
0
230
1
50
360
0
POINT
5
79
100
AcDbEntity
8
2
62
256
6
ByLayer
370
18
48
1
60
0
100
AcDbPoint
10
213.5
20
0
30
0
39
0
210
0
220
0
230
1
50
360
0
POINT
5
7A
100
AcDbEntity
8
2
62
256
6
ByLayer
370
18
48
1
60
0
100
AcDbPoint
10
265.37476
20
5
30
0
39
0
210
0
220
0
230
1
50
360
0
POINT
5
7B
100
AcDbEntity
8
2
62
256
6
ByLayer
370
18
48
1
60
0
100
AcDbPoint
10
193.2
20
17
30
0
39
0
210
0
220
0
230
1
50
360
0
POINT
5
7C
100
AcDbEntity
8
2
62
256
6
ByLayer
370
18
48
1
60
0
100
AcDbPoint
10
255
20
0
30
0
39
0
210
0
220
0
230
1
50
360
0
POINT
5
7D
100
AcDbEntity
8
2
62
256
6
ByLayer
370
18
48
1
60
0
100
AcDbPoint
10
268
20
5
30
0
39
0
210
0
220
0
230
1
50
360
0
POINT
5
7E
100
AcDbEntity
8
2
62
256
6
ByLayer
370
18
48
1
60
0
100
AcDbPoint
10
264
20
0
30
0
39
0
210
0
220
0
230
1
50
360
0
POINT
5
7F
100
AcDbEntity
8
2
62
256
6
ByLayer
370
18
48
1
60
0
100
AcDbPoint
10
240
20
0
30
0
39
0
210
0
220
0
230
1
50
360
0
POINT
5
80
100
AcDbEntity
8
2
62
256
6
ByLayer
370
18
48
1
60
0
100
AcDbPoint
10
265.37476
20
5
30
0
39
0
210
0
220
0
230
1
50
360
0
POINT
5
81
100
AcDbEntity
8
2
62
256
6
ByLayer
370
18
48
1
60
0
100
AcDbPoint
10
268
20
5
30
0
39
0
210
0
220
0
230
1
50
360
0
POINT
5
82
100
AcDbEntity
8
2
62
256
6
ByLayer
370
50
48
1
60
0
100
AcDbPoint
10
248.5
20
0
30
0
39
0
210
0
220
0
230
1
50
360
0
POINT
5
83
100
AcDbEntity
8
2
62
256
6
ByLayer
370
18
48
1
60
0
100
AcDbPoint
10
248
20
0
30
0
39
0
210
0
220
0
230
1
50
360
0
POINT
5
84
100
AcDbEntity
8
2
62
256
6
ByLayer
370
50
48
1
60
0
100
AcDbPoint
10
273
20
0
30
0
39
0
210
0
220
0
230
1
50
360
0
POINT
5
85
100
AcDbEntity
8
2
62
256
6
ByLayer
370
18
48
1
60
0
100
AcDbPoint
10
264
20
0
30
0
39
0
210
0
220
0
230
1
50
360
0
POINT
5
86
100
AcDbEntity
8
2
62
256
6
ByLayer
370
18
48
1
60
0
100
AcDbPoint
10
269
20
14.899495
30
0
39
0
210
0
220
0
230
1
50
360
0
POINT
5
87
100
AcDbEntity
8
2
62
256
6
ByLayer
370
18
48
1
60
0
100
AcDbPoint
10
167.1
20
0
30
0
39
0
210
0
220
0
230
1
50
360
0
POINT
5
88
100
AcDbEntity
8
2
62
256
6
ByLayer
370
18
48
1
60
0
100
AcDbPoint
10
171.3
20
0
30
0
39
0
210
0
220
0
230
1
50
360
0
POINT
5
89
100
AcDbEntity
8
2
62
256
6
ByLayer
370
18
48
1
60
0
100
AcDbPoint
10
176
20
0
30
0
39
0
210
0
220
0
230
1
50
360
0
POINT
5
8A
100
AcDbEntity
8
2
62
256
6
ByLayer
370
18
48
1
60
0
100
AcDbPoint
10
175.5
20
0
30
0
39
0
210
0
220
0
230
1
50
360
0
POINT
5
8B
100
AcDbEntity
8
2
62
256
6
ByLayer
370
18
48
1
60
0
100
AcDbPoint
10
167.1
20
0
30
0
39
0
210
0
220
0
230
1
50
360
0
POINT
5
8C
100
AcDbEntity
8
2
62
256
6
ByLayer
370
18
48
1
60
0
100
AcDbPoint
10
171.55
20
0
30
0
39
0
210
0
220
0
230
1
50
360
0
POINT
5
8D
100
AcDbEntity
8
2
62
256
6
ByLayer
370
18
48
1
60
0
100
AcDbPoint
10
248
20
0
30
0
39
0
210
0
220
0
230
1
50
360
0
POINT
5
8E
100
AcDbEntity
8
2
62
256
6
ByLayer
370
18
48
1
60
0
100
AcDbPoint
10
176
20
0
30
0
39
0
210
0
220
0
230
1
50
360
0
POINT
5
8F
100
AcDbEntity
8
2
62
256
6
ByLayer
370
18
48
1
60
0
100
AcDbPoint
10
248
20
0
30
0
39
0
210
0
220
0
230
1
50
360
0
POINT
5
90
100
AcDbEntity
8
2
62
256
6
ByLayer
370
18
48
1
60
0
100
AcDbPoint
10
176
20
0
30
0
39
0
210
0
220
0
230
1
50
360
0
POINT
5
91
100
AcDbEntity
8
2
62
256
6
ByLayer
370
18
48
1
60
0
100
AcDbPoint
10
238.8
20
0
30
0
39
0
210
0
220
0
230
1
50
360
0
POINT
5
92
100
AcDbEntity
8
2
62
256
6
ByLayer
370
18
48
1
60
0
100
AcDbPoint
10
212
20
0
30
0
39
0
210
0
220
0
230
1
50
360
0
POINT
5
93
100
AcDbEntity
8
2
62
256
6
ByLayer
370
18
48
1
60
0
100
AcDbPoint
10
185.2
20
0
30
0
39
0
210
0
220
0
230
1
50
360
0
POINT
5
94
100
AcDbEntity
8
2
62
256
6
ByLayer
370
18
48
1
60
0
100
AcDbPoint
10
230.8
20
17
30
0
39
0
210
0
220
0
230
1
50
360
0
POINT
5
95
100
AcDbEntity
8
2
62
256
6
ByLayer
370
18
48
1
60
0
100
AcDbPoint
10
193.2
20
17
30
0
39
0
210
0
220
0
230
1
50
360
0
POINT
5
96
100
AcDbEntity
8
2
62
256
6
ByLayer
370
18
48
1
60
0
100
AcDbPoint
10
273
20
14.899495
30
0
39
0
210
0
220
0
230
1
50
360
0
POINT
5
97
100
AcDbEntity
8
81
62
256
6
ByLayer
370
18
48
1
60
0
100
AcDbPoint
10
268
20
5
30
0
39
0
210
0
220
0
230
1
50
360
0
POINT
5
99
100
AcDbEntity
8
80
62
256
6
ByLayer
370
18
48
1
60
0
100
AcDbPoint
10
0
20
0
30
0
39
0
210
0
220
0
230
1
50
360
0
POINT
5
9B
100
AcDbEntity
8
1
62
256
6
ByLayer
370
13
48
1
60
1
100
AcDbPoint
10
260.05
20
-4.899495
30
0
39
0
210
0
220
0
230
1
50
360
0
POINT
5
9D
100
AcDbEntity
8
1
62
256
6
ByLayer
370
13
48
1
60
1
100
AcDbPoint
10
279.9
20
-4.899495
30
0
39
0
210
0
220
0
230
1
50
360
0
POINT
5
9E
100
AcDbEntity
8
1
62
256
6
ByLayer
370
13
48
1
60
1
100
AcDbPoint
10
267.52
20
0
30
0
39
0
210
0
220
0
230
1
50
360
0
POINT
5
9F
100
AcDbEntity
8
1
62
256
6
ByLayer
370
13
48
1
60
1
100
AcDbPoint
10
262.7
20
0
30
0
39
0
210
0
220
0
230
1
50
360
0
POINT
5
A0
100
AcDbEntity
8
1
62
256
6
ByLayer
370
13
48
1
60
1
100
AcDbPoint
10
264.330172
20
5
30
0
39
0
210
0
220
0
230
1
50
360
0
POINT
5
A1
100
AcDbEntity
8
1
62
256
6
ByLayer
370
13
48
1
60
1
100
AcDbPoint
10
269.82476
20
5
30
0
39
0
210
0
220
0
230
1
50
360
0
POINT
5
A2
100
AcDbEntity
8
1
62
256
6
ByLayer
370
13
48
1
60
1
100
AcDbPoint
10
260.05
20
14.899495
30
0
39
0
210
0
220
0
230
1
50
360
0
POINT
5
A3
100
AcDbEntity
8
1
62
256
6
ByLayer
370
13
48
1
60
1
100
AcDbPoint
10
279.9
20
14.899495
30
0
39
0
210
0
220
0
230
1
50
360
0
SPLINE
5
172
100
AcDbEntity
8
1
62
256
6
ByLayer
370
18
48
1
60
0
100
AcDbSpline
70
4
71
3
72
26
73
22
40
0
40
0
40
0
40
0
40
0.0625000000000036
40
0.0625000000000036
40
0.0937500000000016
40
0.0937500000000016
40
0.125
40
0.125
40
0.249999999999993
40
0.249999999999993
40
0.374999999999987
40
0.374999999999987
40
0.437499999999985
40
0.437499999999985
40
0.499999999999983
40
0.499999999999983
40
0.624999999999986
40
0.624999999999986
40
0.749999999999988
40
0.749999999999988
40
1
40
1
40
1
40
1
41
1
10
11.4613248654053
20
23.8391299750502
30
0
41
1
10
11.47720131202
20
23.8391299750502
30
0
41
1
10
11.4927843117433
20
23.8386381480422
30
0
41
1
10
11.5157579869924
20
23.8372273769847
30
0
41
1
10
11.5233488813097
20
23.8366445991221
30
0
41
1
10
11.5384012334118
20
23.8352611656444
30
0
41
1
10
11.5458956692736
20
23.8344558067494
30
0
41
1
10
11.5824040005112
20
23.8299833264008
30
0
41
1
10
11.6089650834004
20
23.8249896713849
30
0
41
1
10
11.6582924559949
20
23.8130059693789
30
0
41
1
10
11.6801688454704
20
23.8062336877525
30
0
41
1
10
11.7102266942347
20
23.7952700628808
30
0
41
1
10
11.7197736129841
20
23.7914778883489
30
0
41
1
10
11.7380555263964
20
23.7836514357394
30
0
41
1
10
11.7468017366173
20
23.7796095569562
30
0
41
1
10
11.7716769242358
20
23.7673085978343
30
0
41
1
10
11.7865761040499
20
23.7588292909636
30
0
41
1
10
11.8138519277099
20
23.7414211400326
30
0
41
1
10
11.8262196262292
20
23.7324910902463
30
0
41
1
10
11.8602443227468
20
23.7051129235881
30
0
41
1
10
11.8788862370738
20
23.686033116806
30
0
41
1
10
11.8943375672976
20
23.6665017920808
30
0
0
SPLINE
5
173
100
AcDbEntity
8
1
62
256
6
ByLayer
370
18
48
1
60
0
100
AcDbSpline
70
4
71
3
72
30
73
26
40
0
40
0
40
0
40
0
40
0.25
40
0.25
40
0.375000000000005
40
0.375000000000005
40
0.437500000000003
40
0.437500000000003
40
0.500000000000001
40
0.500000000000001
40
0.625000000000001
40
0.625000000000001
40
0.687499999999999
40
0.687499999999999
40
0.749999999999996
40
0.749999999999996
40
0.812499999999994
40
0.812499999999994
40
0.843749999999996
40
0.843749999999996
40
0.874999999999999
40
0.874999999999999
40
0.9375
40
0.9375
40
1
40
1
40
1
40
1
41
1
10
11.8943375672974
20
8.05584836782788
30
0
41
1
10
11.878892303015
20
7.99849169434924
30
0
41
1
10
11.8604037172645
20
7.94218253951269
30
0
41
1
10
11.8264575712212
20
7.85991012495433
30
0
41
1
10
11.8140962699691
20
7.83285506058508
30
0
41
1
10
11.7935837333005
20
7.79297622996168
30
0
41
1
10
11.7864159259844
20
7.77980127287393
30
0
41
1
10
11.7713191828915
20
7.75372482186643
30
0
41
1
10
11.7633824368151
20
7.74081492713992
30
0
41
1
10
11.7384769785308
20
7.70292805784942
30
0
41
1
10
11.7203772593316
20
7.67866353751197
30
0
41
1
10
11.6901125047558
20
7.64434849039856
30
0
41
1
10
11.6794995583259
20
7.63327217102545
30
0
41
1
10
11.6573691354905
20
7.61232137865164
30
0
41
1
10
11.6458165560481
20
7.60240297286811
30
0
41
1
10
11.6215461384039
20
7.5839002553621
30
0
41
1
10
11.6088302857938
20
7.57531366225032
30
0
41
1
10
11.5886665813883
20
7.56368345606452
30
0
41
1
10
11.5817366894218
20
7.56000567013072
30
0
41
1
10
11.5676991017995
20
7.55323657194799
30
0
41
1
10
11.5605721090663
20
7.55013193108823
30
0
41
1
10
11.5388449404601
20
7.54171396614043
30
0
41
1
10
11.5239007732521
20
7.53729092133949
30
0
41
1
10
11.4929356027573
20
7.53123335639162
30
0
41
1
10
11.477175816822
20
7.52966679426493
30
0
41
1
10
11.4613248654053
20
7.52966679426493
30
0
0
SPLINE
5
174
100
AcDbEntity
8
1
62
256
6
ByLayer
370
18
48
1
60
0
100
AcDbSpline
70
4
71
3
72
26
73
22
40
0
40
0
40
0
40
0
40
0.0625000000000022
40
0.0625000000000022
40
0.0937500000000002
40
0.0937500000000002
40
0.124999999999998
40
0.124999999999998
40
0.249999999999999
40
0.249999999999999
40
0.374999999999999
40
0.374999999999999
40
0.4375
40
0.4375
40
0.500000000000002
40
0.500000000000002
40
0.625000000000001
40
0.625000000000001
40
0.750000000000001
40
0.750000000000001
40
1
40
1
40
1
40
1
41
1
10
8.5386751345949
20
7.5296667942651
30
0
41
1
10
8.52279868798018
20
7.5296667942651
30
0
41
1
10
8.50721568825685
20
7.53122440152953
30
0
41
1
10
8.48424201300782
20
7.53568798536659
30
0
41
1
10
8.47665111869044
20
7.53753139400638
30
0
41
1
10
8.46159876658842
20
7.54190496002258
30
0
41
1
10
8.45410433072655
20
7.54444995843574
30
0
41
1
10
8.41759599948902
20
7.55857361750111
30
0
41
1
10
8.39103491659976
20
7.57431556968115
30
0
41
1
10
8.34170754400523
20
7.61190750686268
30
0
41
1
10
8.31983115452978
20
7.63307325241206
30
0
41
1
10
8.28977330576541
20
7.6671549516565
30
0
41
1
10
8.28022638701603
20
7.67891539799626
30
0
41
1
10
8.26194447360368
20
7.70312184666881
30
0
41
1
10
8.25319826338284
20
7.71559105034072
30
0
41
1
10
8.22832307576431
20
7.75343444963906
30
0
41
1
10
8.21342389595024
20
7.77938351245612
30
0
41
1
10
8.18614807229017
20
7.83234954293007
30
0
41
1
10
8.17378037377095
20
7.85937042586588
30
0
41
1
10
8.13975567725335
20
7.94172327888197
30
0
41
1
10
8.12111376292627
20
7.99846916820712
30
0
41
1
10
8.10566243270253
20
8.05584836782776
30
0
0
SPLINE
5
175
100
AcDbEntity
8
1
62
256
6
ByLayer
370
18
48
1
60
0
100
AcDbSpline
70
4
71
3
72
30
73
26
40
0
40
0
40
0
40
0
40
0.250000000000004
40
0.250000000000004
40
0.375000000000009
40
0.375000000000009
40
0.437500000000008
40
0.437500000000008
40
0.500000000000007
40
0.500000000000007
40
0.625000000000003
40
0.625000000000003
40
0.687500000000003
40
0.687500000000003
40
0.750000000000002
40
0.750000000000002
40
0.812500000000001
40
0.812500000000001
40
0.84375
40
0.84375
40
0.874999999999999
40
0.874999999999999
40
0.9375
40
0.9375
40
1
40
1
40
1
40
1
41
1
10
8.10566243270274
20
23.6665017920808
30
0
41
1
10
8.12110769698515
20
23.6860254491251
30
0
41
1
10
8.13959628273555
20
23.704958919593
30
0
41
1
10
8.17354242877884
20
23.7323123198156
30
0
41
1
10
8.18590373003101
20
23.7412544902041
30
0
41
1
10
8.20641626669962
20
23.7543620682906
30
0
41
1
10
8.2135840740157
20
23.7586801045418
30
0
41
1
10
8.22868081710858
20
23.7672030231185
30
0
41
1
10
8.23661756318502
20
23.7714105724815
30
0
41
1
10
8.26152302146927
20
23.7837256270429
30
0
41
1
10
8.27962274066847
20
23.7915679133937
30
0
41
1
10
8.30988749524435
20
23.8026065911347
30
0
41
1
10
8.32050044167426
20
23.8061604830514
30
0
41
1
10
8.34263086450963
20
23.812868038308
30
0
41
1
10
8.35418344395201
20
23.816035844018
30
0
41
1
10
8.37845386159628
20
23.8219342456095
30
0
41
1
10
8.39116971420636
20
23.8246655611124
30
0
41
1
10
8.41133341861185
20
23.8283593459882
30
0
41
1
10
8.41826331057838
20
23.8295263669799
30
0
41
1
10
8.43230089820068
20
23.8316728303992
30
0
41
1
10
8.4394278909338
20
23.8326565134122
30
0
41
1
10
8.46115505954009
20
23.8353222152631
30
0
41
1
10
8.476099226748
20
23.8367207404254
30
0
41
1
10
8.50706439724283
20
23.838635326325
30
0
41
1
10
8.52282418317812
20
23.8391299750504
30
0
41
1
10
8.5386751345949
20
23.8391299750504
30
0
0
SPLINE
5
176
100
AcDbEntity
8
1
62
256
6
ByLayer
370
18
48
1
60
0
100
AcDbSpline
70
4
71
3
72
26
73
22
40
0
40
0
40
0
40
0
40
0.0625000000000006
40
0.0625000000000006
40
0.093749999999997
40
0.093749999999997
40
0.124999999999994
40
0.124999999999994
40
0.249999999999994
40
0.249999999999994
40
0.374999999999994
40
0.374999999999994
40
0.437499999999993
40
0.437499999999993
40
0.499999999999992
40
0.499999999999992
40
0.62499999999999
40
0.62499999999999
40
0.749999999999991
40
0.749999999999991
40
1
40
1
40
1
40
1
41
1
10
8.53867513459478
20
-23.8391299750503
30
0
41
1
10
8.52279868798007
20
-23.8391299750503
30
0
41
1
10
8.50721568825674
20
-23.8386381480423
30
0
41
1
10
8.48424201300769
20
-23.8372273769849
30
0
41
1
10
8.47665111869033
20
-23.8366445991222
30
0
41
1
10
8.46159876658831
20
-23.8352611656445
30
0
41
1
10
8.45410433072644
20
-23.8344558067495
30
0
41
1
10
8.4175959994889
20
-23.8299833264009
30
0
41
1
10
8.39103491659965
20
-23.824989671385
30
0
41
1
10
8.34170754400512
20
-23.8130059693791
30
0
41
1
10
8.31983115452967
20
-23.8062336877526
30
0
41
1
10
8.28977330576529
20
-23.7952700628809
30
0
41
1
10
8.28022638701592
20
-23.791477888349
30
0
41
1
10
8.26194447360356
20
-23.7836514357396
30
0
41
1
10
8.25319826338273
20
-23.7796095569563
30
0
41
1
10
8.22832307576419
20
-23.7673085978344
30
0
41
1
10
8.21342389595011
20
-23.7588292909637
30
0
41
1
10
8.18614807229005
20
-23.7414211400327
30
0
41
1
10
8.17378037377082
20
-23.7324910902464
30
0
41
1
10
8.13975567725322
20
-23.7051129235882
30
0
41
1
10
8.12111376292614
20
-23.6860331168061
30
0
41
1
10
8.1056624327024
20
-23.6665017920809
30
0
0
SPLINE
5
177
100
AcDbEntity
8
1
62
256
6
ByLayer
370
18
48
1
60
0
100
AcDbSpline
70
4
71
3
72
30
73
26
40
0
40
0
40
0
40
0
40
0.249999999999993
40
0.249999999999993
40
0.374999999999989
40
0.374999999999989
40
0.437499999999986
40
0.437499999999986
40
0.499999999999982
40
0.499999999999982
40
0.624999999999982
40
0.624999999999982
40
0.687499999999983
40
0.687499999999983
40
0.749999999999984
40
0.749999999999984
40
0.812499999999986
40
0.812499999999986
40
0.843749999999985
40
0.843749999999985
40
0.874999999999985
40
0.874999999999985
40
0.937499999999992
40
0.937499999999992
40
1
40
1
40
1
40
1
41
1
10
8.10566243270262
20
-8.05584836782785
30
0
41
1
10
8.12110769698502
20
-7.99849169434921
30
0
41
1
10
8.13959628273545
20
-7.94218253951266
30
0
41
1
10
8.17354242877873
20
-7.8599101249543
30
0
41
1
10
8.1859037300309
20
-7.83285506058502
30
0
41
1
10
8.20641626669951
20
-7.79297622996162
30
0
41
1
10
8.2135840740156
20
-7.7798012728739
30
0
41
1
10
8.22868081710848
20
-7.75372482186637
30
0
41
1
10
8.23661756318492
20
-7.74081492713987
30
0
41
1
10
8.26152302146916
20
-7.70292805784936
30
0
41
1
10
8.27962274066837
20
-7.67866353751191
30
0
41
1
10
8.30988749524425
20
-7.6443484903985
30
0
41
1
10
8.32050044167414
20
-7.6332721710254
30
0
41
1
10
8.3426308645095
20
-7.61232137865156
30
0
41
1
10
8.3541834439519
20
-7.60240297286802
30
0
41
1
10
8.37845386159617
20
-7.58390025536201
30
0
41
1
10
8.39116971420626
20
-7.57531366225027
30
0
41
1
10
8.41133341861173
20
-7.56368345606447
30
0
41
1
10
8.41826331057828
20
-7.56000567013066
30
0
41
1
10
8.43230089820057
20
-7.55323657194793
30
0
41
1
10
8.43942789093369
20
-7.55013193108815
30
0
41
1
10
8.46115505953999
20
-7.54171396614038
30
0
41
1
10
8.47609922674789
20
-7.53729092133941
30
0
41
1
10
8.5070643972427
20
-7.53123335639154
30
0
41
1
10
8.522824183178
20
-7.52966679426484
30
0
41
1
10
8.53867513459478
20
-7.52966679426484
30
0
0
SPLINE
5
178
100
AcDbEntity
8
1
62
256
6
ByLayer
370
18
48
1
60
0
100
AcDbSpline
70
4
71
3
72
26
73
22
40
0
40
0
40
0
40
0
40
0.0624999999999969
40
0.0624999999999969
40
0.0937499999999961
40
0.0937499999999961
40
0.124999999999995
40
0.124999999999995
40
0.249999999999998
40
0.249999999999998
40
0.375
40
0.375
40
0.437500000000001
40
0.437500000000001
40
0.500000000000002
40
0.500000000000002
40
0.625000000000001
40
0.625000000000001
40
0.75
40
0.75
40
1
40
1
40
1
40
1
41
1
10
11.4613248654051
20
-7.5296667942653
30
0
41
1
10
11.4772013120199
20
-7.5296667942653
30
0
41
1
10
11.4927843117432
20
-7.53122440152973
30
0
41
1
10
11.5157579869922
20
-7.53568798536679
30
0
41
1
10
11.5233488813096
20
-7.53753139400658
30
0
41
1
10
11.5384012334116
20
-7.54190496002278
30
0
41
1
10
11.5458956692735
20
-7.54444995843593
30
0
41
1
10
11.582404000511
20
-7.55857361750128
30
0
41
1
10
11.6089650834002
20
-7.57431556968132
30
0
41
1
10
11.6582924559948
20
-7.61190750686285
30
0
41
1
10
11.6801688454702
20
-7.63307325241223
30
0
41
1
10
11.7102266942346
20
-7.66715495165667
30
0
41
1
10
11.719773612984
20
-7.67891539799643
30
0
41
1
10
11.7380555263963
20
-7.70312184666895
30
0
41
1
10
11.7468017366171
20
-7.71559105034086
30
0
41
1
10
11.7716769242357
20
-7.75343444963917
30
0
41
1
10
11.7865761040497
20
-7.77938351245623
30
0
41
1
10
11.8138519277098
20
-7.83234954293019
30
0
41
1
10
11.826219626229
20
-7.85937042586596
30
0
41
1
10
11.8602443227466
20
-7.94172327888202
30
0
41
1
10
11.8788862370737
20
-7.99846916820727
30
0
41
1
10
11.8943375672975
20
-8.05584836782791
30
0
0
SPLINE
5
179
100
AcDbEntity
8
1
62
256
6
ByLayer
370
18
48
1
60
0
100
AcDbSpline
70
4
71
3
72
30
73
26
40
0
40
0
40
0
40
0
40
0.250000000000003
40
0.250000000000003
40
0.375000000000007
40
0.375000000000007
40
0.43750000000001
40
0.43750000000001
40
0.500000000000013
40
0.500000000000013
40
0.62500000000002
40
0.62500000000002
40
0.68750000000002
40
0.68750000000002
40
0.750000000000021
40
0.750000000000021
40
0.812500000000021
40
0.812500000000021
40
0.843750000000017
40
0.843750000000017
40
0.875000000000014
40
0.875000000000014
40
0.937500000000007
40
0.937500000000007
40
1
40
1
40
1
40
1
41
1
10
11.8943375672972
20
-23.6665017920809
30
0
41
1
10
11.8788923030148
20
-23.6860254491252
30
0
41
1
10
11.8604037172644
20
-23.7049589195931
30
0
41
1
10
11.8264575712211
20
-23.7323123198157
30
0
41
1
10
11.814096269969
20
-23.7412544902042
30
0
41
1
10
11.7935837333004
20
-23.7543620682907
30
0
41
1
10
11.7864159259843
20
-23.7586801045418
30
0
41
1
10
11.7713191828914
20
-23.7672030231186
30
0
41
1
10
11.763382436815
20
-23.7714105724815
30
0
41
1
10
11.7384769785307
20
-23.7837256270429
30
0
41
1
10
11.7203772593315
20
-23.7915679133937
30
0
41
1
10
11.6901125047556
20
-23.8026065911347
30
0
41
1
10
11.6794995583257
20
-23.8061604830514
30
0
41
1
10
11.6573691354904
20
-23.8128680383081
30
0
41
1
10
11.645816556048
20
-23.8160358440181
30
0
41
1
10
11.6215461384037
20
-23.8219342456095
30
0
41
1
10
11.6088302857937
20
-23.8246655611125
30
0
41
1
10
11.5886665813882
20
-23.8283593459882
30
0
41
1
10
11.5817366894216
20
-23.8295263669799
30
0
41
1
10
11.5676991017994
20
-23.8316728303992
30
0
41
1
10
11.5605721090662
20
-23.8326565134122
30
0
41
1
10
11.5388449404599
20
-23.8353222152631
30
0
41
1
10
11.523900773252
20
-23.8367207404254
30
0
41
1
10
11.4929356027572
20
-23.838635326325
30
0
41
1
10
11.4771758168219
20
-23.8391299750505
30
0
41
1
10
11.4613248654051
20
-23.8391299750504
30
0
0
SPLINE
5
17A
100
AcDbEntity
8
SK1
62
256
6
ByLayer
370
18
48
1
60
0
100
AcDbSpline
70
4
71
3
72
45
73
41
40
0
40
0
40
0
40
0
40
0.0236943065444053
40
0.0517123102427793
40
0.0797303139411532
40
0.107748317639527
40
0.163784325036275
40
0.219820332433023
40
0.247838336131397
40
0.275856339829771
40
0.303874343528145
40
0.331892347226519
40
0.359910350924893
40
0.387928354623267
40
0.415946358321641
40
0.429955360170828
40
0.443964362020015
40
0.471982365718389
40
0.485991367567576
40
0.492995868492169
40
0.500000369416763
40
0.507004870341356
40
0.51400937126595
40
0.528018373115137
40
0.556036376813511
40
0.570045378662698
40
0.584054380511885
40
0.612072384210258
40
0.640090387908632
40
0.668108391607006
40
0.69612639530538
40
0.724144399003754
40
0.752162402702128
40
0.780180406400502
40
0.83621641379725
40
0.892252421193998
40
0.920270424892372
40
0.948288428590746
40
0.97630643228912
40
1
40
1
40
1
40
1
41
1
10
-30.0000000000001
20
-15.9931892300036
30
0
41
1
10
-30.0000000000001
20
-15.9976541737328
30
0
41
1
10
-30.0000000000001
20
-15.9670776502479
30
0
41
1
10
-30.0000000000001
20
-15.7965331178348
30
0
41
1
10
-30.0000000000001
20
-15.4890632796304
30
0
41
1
10
-30.0000000000001
20
-14.9202435431777
30
0
41
1
10
-30
20
-13.943032723557
30
0
41
1
10
-30
20
-12.645067835693
30
0
41
1
10
-30
20
-11.4213703621899
30
0
41
1
10
-30
20
-10.4224345134303
30
0
41
1
10
-30
20
-9.34179268341299
30
0
41
1
10
-30
20
-8.18272261240918
30
0
41
1
10
-30
20
-6.94914665451265
30
0
41
1
10
-30
20
-5.64597210397014
30
0
41
1
10
-30
20
-4.51272453462835
30
0
41
1
10
-30
20
-3.56968201835687
30
0
41
1
10
-30
20
-2.61530592334955
30
0
41
1
10
-30
20
-1.67591474804144
30
0
41
1
10
-30
20
-0.833341855678839
30
0
41
1
10
-30
20
-0.354131622770325
30
0
41
1
10
-30
20
4.002278899E-07
30
0
41
1
10
-30
20
0.354131996183867
30
0
41
1
10
-30
20
0.833341540478585
30
0
41
1
10
-30
20
1.67591488034611
30
0
41
1
10
-30
20
2.61530613672127
30
0
41
1
10
-30
20
3.56968220154863
30
0
41
1
10
-30
20
4.51272494557495
30
0
41
1
10
-30
20
5.64597176408029
30
0
41
1
10
-30
20
6.9491470426357
30
0
41
1
10
-30
20
8.18272269843553
30
0
41
1
10
-30
20
9.34179238961883
30
0
41
1
10
-30
20
10.4224348167647
30
0
41
1
10
-30
20
11.421370391299
30
0
41
1
10
-29.9999999999999
20
12.6450674903884
30
0
41
1
10
-29.9999999999999
20
13.9430330734597
30
0
41
1
10
-29.9999999999999
20
14.9202427964399
30
0
41
1
10
-29.9999999999999
20
15.4890634139889
30
0
41
1
10
-29.9999999999999
20
15.7965327535814
30
0
41
1
10
-29.9999999999999
20
15.9670755110857
30
0
41
1
10
-29.9999999999999
20
15.9976531633023
30
0
41
1
10
-29.9999999999999
20
15.9931895366107
30
0
0
SPLINE
5
17B
100
AcDbEntity
8
SK1
62
256
6
ByLayer
370
18
48
1
60
0
100
AcDbSpline
70
4
71
3
72
38
73
34
40
0
40
0
40
0
40
0
40
0.250000000000004
40
0.250000000000004
40
0.375000000000005
40
0.375000000000005
40
0.500000000000006
40
0.500000000000006
40
0.625000000000007
40
0.625000000000007
40
0.687500000000007
40
0.687500000000007
40
0.750000000000006
40
0.750000000000006
40
0.812500000000005
40
0.812500000000005
40
0.843750000000004
40
0.843750000000004
40
0.875000000000004
40
0.875000000000004
40
0.906250000000003
40
0.906250000000003
40
0.921875000000003
40
0.921875000000003
40
0.937500000000002
40
0.937500000000002
40
0.953125000000002
40
0.953125000000002
40
0.968750000000001
40
0.968750000000001
40
0.984375000000001
40
0.984375000000001
40
1
40
1
40
1
40
1
41
1
10
-0.200000000000031
20
-6.07843116862819
30
0
41
1
10
-0.200329859654744
20
-6.01357702681216
30
0
41
1
10
-0.201930655445096
20
-5.94848814748264
30
0
41
1
10
-0.207062820514722
20
-5.85044931358669
30
0
41
1
10
-0.209234214279519
20
-5.81770188154849
30
0
41
1
10
-0.214779228537779
20
-5.75205694597241
30
0
41
1
10
-0.218149341071324
20
-5.71913713924843
30
0
41
1
10
-0.226581907125777
20
-5.65322539657006
30
0
41
1
10
-0.231616433421479
20
-5.62029294902339
30
0
41
1
10
-0.241184891539916
20
-5.57099638970121
30
0
41
1
10
-0.244723140953226
20
-5.55455058376137
30
0
41
1
10
-0.252718404682326
20
-5.5218878599284
30
0
41
1
10
-0.25716439474391
20
-5.50568135296541
30
0
41
1
10
-0.267422418729026
20
-5.47365965349934
30
0
41
1
10
-0.273206407019188
20
-5.45783596374693
30
0
41
1
10
-0.283724888361988
20
-5.43464123738531
30
0
41
1
10
-0.287542348293428
20
-5.4270010731546
30
0
41
1
10
-0.296164698039036
20
-5.41201401791545
30
0
41
1
10
-0.301003751718966
20
-5.40461199814789
30
0
41
1
10
-0.31201932633951
20
-5.39094692539055
30
0
41
1
10
-0.318249907555952
20
-5.38460165612528
30
0
41
1
10
-0.328982330604248
20
-5.37709874944122
30
0
41
1
10
-0.332865959292391
20
-5.37490714744834
30
0
41
1
10
-0.340905624745219
20
-5.37162929612282
30
0
41
1
10
-0.345153788553688
20
-5.37051023807433
30
0
41
1
10
-0.353672033871149
20
-5.36955188220819
30
0
41
1
10
-0.35790438709958
20
-5.36969675293611
30
0
41
1
10
-0.366271728735953
20
-5.37110702101791
30
0
41
1
10
-0.37024125061383
20
-5.3723360299343
30
0
41
1
10
-0.377868038063724
20
-5.37555831609174
30
0
41
1
10
-0.381539373885118
20
-5.37756780385979
30
0
41
1
10
-0.388473887026279
20
-5.38206549938212
30
0
41
1
10
-0.39176092894752
20
-5.38456196831947
30
0
41
1
10
-0.394913799811306
20
-5.38724256160012
30
0
0
SPLINE
5
17C
100
AcDbEntity
8
SK1
62
256
6
ByLayer
370
18
48
1
60
0
100
AcDbSpline
70
4
71
3
72
38
73
34
40
0
40
0
40
0
40
0
40
0.0156250000000001
40
0.0156250000000001
40
0.0312500000000002
40
0.0312500000000002
40
0.0468750000000004
40
0.0468750000000004
40
0.0625000000000005
40
0.0625000000000005
40
0.0781250000000006
40
0.0781250000000006
40
0.0937500000000007
40
0.0937500000000007
40
0.125000000000002
40
0.125000000000002
40
0.156250000000003
40
0.156250000000003
40
0.187500000000004
40
0.187500000000004
40
0.250000000000004
40
0.250000000000004
40
0.312500000000003
40
0.312500000000003
40
0.375000000000003
40
0.375000000000003
40
0.500000000000001
40
0.500000000000001
40
0.625
40
0.625
40
0.749999999999999
40
0.749999999999999
40
1
40
1
40
1
40
1
41
1
10
-0.394913799809089
20
5.38724490303883
30
0
41
1
10
-0.39178183295067
20
5.38458208568073
30
0
41
1
10
-0.388519962703768
20
5.3821033059937
30
0
41
1
10
-0.381650196472478
20
5.37763658736259
30
0
41
1
10
-0.378006935713046
20
5.37563233451903
30
0
41
1
10
-0.370423579197151
20
5.3724029821978
30
0
41
1
10
-0.366503702076429
20
5.37117873901857
30
0
41
1
10
-0.358331183030074
20
5.36974313779842
30
0
41
1
10
-0.354015865513162
20
5.36955368909105
30
0
41
1
10
-0.345568573158758
20
5.37043109064084
30
0
41
1
10
-0.341321667102974
20
5.37150405183561
30
0
41
1
10
-0.3332638902219
20
5.37470929745373
30
0
41
1
10
-0.329419339218219
20
5.37683593115614
30
0
41
1
10
-0.318577749103312
20
5.38430052549953
30
0
41
1
10
-0.31240097932151
20
5.39054104494755
30
0
41
1
10
-0.301354650858101
20
5.40411801099191
30
0
41
1
10
-0.296591327986135
20
5.41134235290917
30
0
41
1
10
-0.287922394076162
20
5.42628126698935
30
0
41
1
10
-0.284017391060772
20
5.43403466061349
30
0
41
1
10
-0.273296210573321
20
5.45757128507682
30
0
41
1
10
-0.267463037667483
20
5.47353830586408
30
0
41
1
10
-0.257144178245809
20
5.50574351678898
30
0
41
1
10
-0.252692130238884
20
5.52198910291162
30
0
41
1
10
-0.2446998001259
20
5.55465646091204
30
0
41
1
10
-0.241167183894646
20
5.57107991706795
30
0
41
1
10
-0.231573562776447
20
5.62053570750788
30
0
41
1
10
-0.226533735280626
20
5.65356559342146
30
0
41
1
10
-0.218124597314017
20
5.71937115218233
30
0
41
1
10
-0.214765406462931
20
5.75220767186642
30
0
41
1
10
-0.209230735864452
20
5.81775962891638
30
0
41
1
10
-0.207061534202282
20
5.85047499196594
30
0
41
1
10
-0.201932717755383
20
5.94845143863458
30
0
41
1
10
-0.200330038101555
20
6.01354333629638
30
0
41
1
10
-0.199999999999974
20
6.07843244581235
30
0
0
SPLINE
5
17D
100
AcDbEntity
8
SK1
62
256
6
ByLayer
370
13
48
1
60
0
100
AcDbSpline
70
4
71
3
72
20
73
16
40
0
40
0
40
0
40
0
40
0.0453685402355583
40
0.113618264770418
40
0.181867989305277
40
0.250117713840136
40
0.318367438374995
40
0.386617162909854
40
0.454866887444714
40
0.591366336514432
40
0.727865785584151
40
0.79611551011901
40
0.864365234653869
40
0.932614959188728
40
1
40
1
40
1
40
1
41
1
10
-0.394913799811306
20
-5.38724256160785
30
0
41
1
10
-0.394913799811306
20
-5.7190547501427
30
0
41
1
10
-0.39491379981132
20
-6.5348354946259
30
0
41
1
10
-0.39491379981132
20
-7.7796880789966
30
0
41
1
10
-0.39491379981132
20
-9.09679923539034
30
0
41
1
10
-0.394913799811334
20
-10.3283869583107
30
0
41
1
10
-0.394913799811334
20
-11.4729576347282
30
0
41
1
10
-0.394913799811334
20
-12.5286533763275
30
0
41
1
10
-0.394913799811349
20
-13.8156305223415
30
0
41
1
10
-0.394913799811349
20
-15.1889742433629
30
0
41
1
10
-0.394913799811349
20
-16.224825355641
30
0
41
1
10
-0.394913799811349
20
-16.8259463034278
30
0
41
1
10
-0.394913799811349
20
-17.1536380024563
30
0
41
1
10
-0.394913799811363
20
-17.3456596444379
30
0
41
1
10
-0.394913799811363
20
-17.3741382161125
30
0
41
1
10
-0.394913799811363
20
-17.360218892648
30
0
0
SPLINE
5
17E
100
AcDbEntity
8
SK1
62
256
6
ByLayer
370
18
48
1
60
0
100
AcDbSpline
70
4
71
3
72
50
73
46
40
0
40
0
40
0
40
0
40
0.0312500000000003
40
0.0312500000000003
40
0.0468750000000004
40
0.0468750000000004
40
0.0625000000000005
40
0.0625000000000005
40
0.0781250000000006
40
0.0781250000000006
40
0.0937500000000008
40
0.0937500000000008
40
0.109375000000001
40
0.109375000000001
40
0.125000000000001
40
0.125000000000001
40
0.140625000000001
40
0.140625000000001
40
0.156250000000001
40
0.156250000000001
40
0.187500000000001
40
0.187500000000001
40
0.218750000000002
40
0.218750000000002
40
0.250000000000002
40
0.250000000000002
40
0.281250000000002
40
0.281250000000002
40
0.312500000000002
40
0.312500000000002
40
0.375000000000002
40
0.375000000000002
40
0.437500000000003
40
0.437500000000003
40
0.500000000000003
40
0.500000000000003
40
0.625000000000003
40
0.625000000000003
40
0.687500000000003
40
0.687500000000003
40
0.750000000000003
40
0.750000000000003
40
0.875000000000001
40
0.875000000000001
40
1
40
1
40
1
40
1
41
1
10
-0.394913799811306
20
-5.38724256160785
30
0
41
1
10
-0.411056331481717
20
-5.40096705709072
30
0
41
1
10
-0.428167571421099
20
-5.41359596702645
30
0
41
1
10
-0.455974774655175
20
-5.43013648208
30
0
41
1
10
-0.465658214707005
20
-5.43526409556435
30
0
41
1
10
-0.485484698823498
20
-5.44430592701531
30
0
41
1
10
-0.495657428995102
20
-5.44824432393753
30
0
41
1
10
-0.516608715435069
20
-5.45476351226009
30
0
41
1
10
-0.527386860231857
20
-5.45734523281897
30
0
41
1
10
-0.549664818445308
20
-5.46089328829356
30
0
41
1
10
-0.560930035443789
20
-5.46180969649637
30
0
41
1
10
-0.583365846617895
20
-5.46187131057607
30
0
41
1
10
-0.594591467840061
20
-5.46102572365922
30
0
41
1
10
-0.617058166617767
20
-5.45757599588921
30
0
41
1
10
-0.627999143283219
20
-5.45501931647436
30
0
41
1
10
-0.649331735085596
20
-5.44848807488123
30
0
41
1
10
-0.659758151599846
20
-5.44449947952498
30
0
41
1
10
-0.680036525045054
20
-5.43533205618729
30
0
41
1
10
-0.689742098894556
20
-5.43022628481569
30
0
41
1
10
-0.717826906306101
20
-5.41366379171245
30
0
41
1
10
-0.735187935399352
20
-5.40097830060952
30
0
41
1
10
-0.768034946557933
20
-5.3733304614868
30
0
41
1
10
-0.783237057424174
20
-5.35859529837754
30
0
41
1
10
-0.811836627358701
20
-5.32802442998909
30
0
41
1
10
-0.825257514876014
20
-5.31215335693128
30
0
41
1
10
-0.850807302550209
20
-5.27953884086708
30
0
41
1
10
-0.8629322094869
20
-5.26279281423709
30
0
41
1
10
-0.886169886076814
20
-5.22860723544372
30
0
41
1
10
-0.897260448987041
20
-5.21119248410568
30
0
41
1
10
-0.929029640850729
20
-5.15857889561173
30
0
41
1
10
-0.94834717718625
20
-5.12284414993093
30
0
41
1
10
-0.98448753502646
20
-5.05043807526349
30
0
41
1
10
-1.00129416978025
20
-5.01376164954297
30
0
41
1
10
-1.03304457478237
20
-4.93966608077306
30
0
41
1
10
-1.04798244371668
20
-4.90224508459647
30
0
41
1
10
-1.09059413059556
20
-4.78904752584498
30
0
41
1
10
-1.11609621830425
20
-4.71234577760796
30
0
41
1
10
-1.15135515985605
20
-4.5958383808707
30
0
41
1
10
-1.16260343866756
20
-4.55673847320068
30
0
41
1
10
-1.18417456263646
20
-4.47826299864514
30
0
41
1
10
-1.19450305218302
20
-4.43886894670428
30
0
41
1
10
-1.22429462395718
20
-4.32024366329262
30
0
41
1
10
-1.24257202444838
20
-4.24057073726354
30
0
41
1
10
-1.2766185980946
20
-4.08013408760158
30
0
41
1
10
-1.29238372607519
20
-3.99936988902869
30
0
41
1
10
-1.30710678118656
20
-3.91808269248793
30
0
0
SPLINE
5
17F
100
AcDbEntity
8
SK1
62
256
6
ByLayer
370
18
48
1
60
0
100
AcDbSpline
70
4
71
3
72
53
73
49
40
0
40
0
40
0
40
0
40
0.125000000000001
40
0.125000000000001
40
0.250000000000002
40
0.250000000000002
40
0.312500000000001
40
0.312500000000001
40
0.375
40
0.375
40
0.499999999999998
40
0.499999999999998
40
0.562499999999997
40
0.562499999999997
40
0.624999999999997
40
0.624999999999997
40
0.687499999999996
40
0.687499999999996
40
0.718749999999996
40
0.718749999999996
40
0.749999999999996
40
0.749999999999996
40
0.781249999999996
40
0.781249999999996
40
0.812499999999996
40
0.812499999999996
40
0.843749999999996
40
0.843749999999996
40
0.859374999999996
40
0.859374999999996
40
0.874999999999996
40
0.874999999999996
40
0.890624999999996
40
0.890624999999996
40
0.898437499999996
40
0.898437499999996
40
0.906249999999996
40
0.906249999999996
40
0.921874999999996
40
0.929687499999996
40
0.929687499999996
40
0.937499999999996
40
0.937499999999996
40
0.968749999999998
40
0.968749999999998
40
0.984374999999999
40
0.984374999999999
40
1
40
1
40
1
40
1
41
1
10
-1.30710678118653
20
3.91808311129773
30
0
41
1
10
-1.29239108240532
20
3.99932964943409
30
0
41
1
10
-1.27663490881504
20
4.0800505842036
30
0
41
1
10
-1.24261095077242
20
4.24039497937332
30
0
41
1
10
-1.22434718173432
20
4.32001891689728
30
0
41
1
10
-1.19458151328422
20
4.4385658061575
30
0
41
1
10
-1.18426257821702
20
4.47793290560358
30
0
41
1
10
-1.16271294340754
20
4.55635268985438
30
0
41
1
10
-1.15147501748676
20
4.59543056617446
30
0
41
1
10
-1.11622081339448
20
4.71196262616613
30
0
41
1
10
-1.0907278395606
20
4.7886606233923
30
0
41
1
10
-1.0481521641187
20
4.90181336669087
30
0
41
1
10
-1.03323011355688
20
4.93921284702586
30
0
41
1
10
-1.00152410230015
20
5.01324987497119
30
0
41
1
10
-0.984745886096832
20
5.04988928444084
30
0
41
1
10
-0.948685190430837
20
5.12220258194975
30
0
41
1
10
-0.929418355061486
20
5.15788155457784
30
0
41
1
10
-0.897760317588336
20
5.21039425330497
30
0
41
1
10
-0.88674297083648
20
5.22772922691763
30
0
41
1
10
-0.863513824307887
20
5.26197522516898
30
0
41
1
10
-0.851357742368521
20
5.27880041053604
30
0
41
1
10
-0.825828436847374
20
5.3114635713869
30
0
41
1
10
-0.812437519911711
20
5.32733553299161
30
0
41
1
10
-0.783971777383783
20
5.35785904442625
30
0
41
1
10
-0.768905931142328
20
5.37251692611173
30
0
41
1
10
-0.736341322354392
20
5.40008757388534
30
0
41
1
10
-0.718704728837807
20
5.41307616107991
30
0
41
1
10
-0.690494000998399
20
5.42981903443436
30
0
41
1
10
-0.680770506185965
20
5.43496537787163
30
0
41
1
10
-0.660532703009139
20
5.44418605279546
30
0
41
1
10
-0.650045797816901
20
5.44823342219192
30
0
41
1
10
-0.628779113835932
20
5.45481846069112
30
0
41
1
10
-0.61793228547711
20
5.45738916347963
30
0
41
1
10
-0.601299914959654
20
5.46002170773141
30
0
41
1
10
-0.595695338836947
20
5.46069496960087
30
0
41
1
10
-0.584356912700045
20
5.46160478770398
30
0
41
1
10
-0.578637021974146
20
5.46183701163631
30
0
41
1
10
-0.561675487241843
20
5.46185622962997
30
0
41
1
10
-0.544917445528696
20
5.460540346752
30
0
41
1
10
-0.52844521027032
20
5.45734844847985
30
0
41
1
10
-0.517525389033267
20
5.45481548249097
30
0
41
1
10
-0.512078734988108
20
5.4533397528954
30
0
41
1
10
-0.485450985324832
20
5.44513209892818
30
0
41
1
10
-0.465729936503891
20
5.43590631685376
30
0
41
1
10
-0.437770416117473
20
5.41932732155468
30
0
41
1
10
-0.428743917867394
20
5.41334179407005
30
0
41
1
10
-0.411386251483435
20
5.40075705360886
30
0
41
1
10
-0.403020392726987
20
5.39413717786459
30
0
41
1
10
-0.394913799811278
20
5.38724490303878
30
0
0
SPLINE
5
180
100
AcDbEntity
8
SK1
62
256
6
ByLayer
370
13
48
1
60
0
100
AcDbSpline
70
4
71
3
72
20
73
16
40
0
40
0
40
0
40
0
40
0.0673842632300751
40
0.135634051879292
40
0.203883840528509
40
0.272133629177726
40
0.408633206476159
40
0.545132783774593
40
0.61338257242381
40
0.681632361073027
40
0.749882149722244
40
0.818131938371461
40
0.886381727020678
40
0.954631515669894
40
1
40
1
40
1
40
1
41
1
10
-0.394913799811221
20
17.3602193112052
30
0
41
1
10
-0.394913799811221
20
17.3741378069709
30
0
41
1
10
-0.394913799811221
20
17.3456582492963
30
0
41
1
10
-0.394913799811221
20
17.1536376810083
30
0
41
1
10
-0.394913799811235
20
16.8259464323311
30
0
41
1
10
-0.394913799811235
20
16.2248245878661
30
0
41
1
10
-0.394913799811235
20
15.1889746622834
30
0
41
1
10
-0.394913799811235
20
13.8156301488903
30
0
41
1
10
-0.394913799811249
20
12.5286535254346
30
0
41
1
10
-0.394913799811249
20
11.4729578043957
30
0
41
1
10
-0.394913799811249
20
10.3283867090429
30
0
41
1
10
-0.394913799811263
20
9.09679950047928
30
0
41
1
10
-0.394913799811263
20
7.77968825069564
30
0
41
1
10
-0.394913799811263
20
6.53483606378791
30
0
41
1
10
-0.394913799811263
20
5.71905630139054
30
0
41
1
10
-0.394913799811278
20
5.38724490303881
30
0
0
SPLINE
5
181
100
AcDbEntity
8
SK1
62
256
6
ByLayer
370
18
48
1
60
0
100
AcDbSpline
70
4
71
3
72
38
73
34
40
0
40
0
40
0
40
0
40
0.0624999999999996
40
0.0624999999999996
40
0.124999999999999
40
0.124999999999999
40
0.249999999999999
40
0.249999999999999
40
0.374999999999998
40
0.374999999999998
40
0.390624999999998
40
0.390624999999998
40
0.406249999999998
40
0.406249999999998
40
0.437499999999998
40
0.437499999999998
40
0.499999999999998
40
0.499999999999998
40
0.562499999999998
40
0.562499999999998
40
0.624999999999998
40
0.624999999999998
40
0.749999999999998
40
0.749999999999998
40
0.781249999999998
40
0.781249999999998
40
0.812499999999998
40
0.812499999999998
40
0.874999999999999
40
0.874999999999999
40
0.937499999999999
40
0.937499999999999
40
1
40
1
40
1
40
1
41
1
10
-1.30710678118656
20
-3.91808269248793
30
0
41
1
10
-1.33526487251861
20
-3.76261955749283
30
0
41
1
10
-1.36267126502634
20
-3.60631098585768
30
0
41
1
10
-1.41562242099803
20
-3.29187611045597
30
0
41
1
10
-1.44117770353178
20
-3.13375373985022
30
0
41
1
10
-1.51435013598103
20
-2.65639932915298
30
0
41
1
10
-1.55846884179033
20
-2.33418302861884
30
0
41
1
10
-1.63296978491243
20
-1.68004719877027
30
0
41
1
10
-1.66337509736468
20
-1.34813830750841
30
0
41
1
10
-1.68707319146451
20
-0.968091690681831
30
0
41
1
10
-1.68955923537888
20
-0.925771372654225
30
0
41
1
10
-1.69422507481973
20
-0.840939584978486
30
0
41
1
10
-1.69640659794263
20
-0.798386309984636
30
0
41
1
10
-1.70245250680873
20
-0.670897601193644
30
0
41
1
10
-1.7058243793803
20
-0.58605256890192
30
0
41
1
10
-1.71388361409092
20
-0.331968562038014
30
0
41
1
10
-1.71646782396985
20
-0.163187101305937
30
0
41
1
10
-1.71636335941631
20
0.17321334833187
30
0
41
1
10
-1.71367008139578
20
0.340831662555331
30
0
41
1
10
-1.70293626023371
20
0.674902568806118
30
0
41
1
10
-1.69494665814693
20
0.84136228930052
30
0
41
1
10
-1.66399327242202
20
1.33914312869115
30
0
41
1
10
-1.63408221528162
20
1.66887252592323
30
0
41
1
10
-1.5876007265538
20
2.07872253566575
30
0
41
1
10
-1.57784909269047
20
2.16057674059007
30
0
41
1
10
-1.55749771994262
20
2.32406172494171
30
0
41
1
10
-1.54688933197929
20
2.40575612114199
30
0
41
1
10
-1.51394731043965
20
2.65007047288915
30
0
41
1
10
-1.49055743488208
20
2.81150726182858
30
0
41
1
10
-1.44149329508792
20
3.13180385741538
30
0
41
1
10
-1.41582315096537
20
3.29066553946589
30
0
41
1
10
-1.36271475580055
20
3.60607338167009
30
0
41
1
10
-1.33526589565591
20
3.76261441071907
30
0
41
1
10
-1.30710678118653
20
3.91808311129771
30
0
0
SPLINE
5
182
100
AcDbEntity
8
SK1
62
256
6
ByLayer
370
13
48
1
60
0
100
AcDbSpline
70
4
71
3
72
45
73
41
40
0
40
0
40
0
40
0
40
0.013924737200371
40
0.0425174009244975
40
0.0711100646486241
40
0.0997027283727506
40
0.156888055821004
40
0.214073383269257
40
0.242666046993383
40
0.27125871071751
40
0.299851374441636
40
0.328444038165763
40
0.35703670188989
40
0.385629365614016
40
0.414222029338143
40
0.428518361200206
40
0.442814693062269
40
0.471407356786396
40
0.485703688648459
40
0.49285185457949
40
0.500000020510522
40
0.507148186441554
40
0.514296352372585
40
0.528592684234649
40
0.557185347958775
40
0.571481679820838
40
0.585778011682902
40
0.614370675407028
40
0.642963339131155
40
0.671556002855281
40
0.700148666579408
40
0.728741330303535
40
0.757333994027661
40
0.785926657751787
40
0.84311198520004
40
0.900297312648293
40
0.92888997637242
40
0.957482640096547
40
0.986075303820673
40
1
40
1
40
1
40
1
41
1
10
-1.99503997793923
20
17.3200454234297
30
0
41
1
10
-1.99503997793923
20
17.313344264346
30
0
41
1
10
-1.99503997793923
20
17.2734193795898
30
0
41
1
10
-1.99503997793923
20
17.1138751154124
30
0
41
1
10
-1.99503997793923
20
16.7867763596001
30
0
41
1
10
-1.99503997793924
20
16.1866009265939
30
0
41
1
10
-1.99503997793924
20
15.1524691326423
30
0
41
1
10
-1.99503997793924
20
13.7813331880937
30
0
41
1
10
-1.99503997793926
20
12.4962106263157
30
0
41
1
10
-1.99503997793926
20
11.4421779521075
30
0
41
1
10
-1.99503997793926
20
10.2994799380558
30
0
41
1
10
-1.99503997793926
20
9.07001746022104
30
0
41
1
10
-1.99503997793927
20
7.75535376586828
30
0
41
1
10
-1.99503997793927
20
6.35676341745574
30
0
41
1
10
-1.99503997793928
20
5.12318926412428
30
0
41
1
10
-1.99503997793928
20
4.09531236648536
30
0
41
1
10
-1.99503997793928
20
3.04236295320669
30
0
41
1
10
-1.99503997793928
20
1.95640625727882
30
0
41
1
10
-1.9950399779393
20
0.981337226851394
30
0
41
1
10
-1.9950399779393
20
0.420771319084707
30
0
41
1
10
-1.9950399779393
20
6.88173714E-08
30
0
41
1
10
-1.9950399779393
20
-0.420771221994329
30
0
41
1
10
-1.9950399779393
20
-0.981337209960486
30
0
41
1
10
-1.9950399779393
20
-1.95640624898675
30
0
41
1
10
-1.99503997793931
20
-3.04236280324244
30
0
41
1
10
-1.99503997793931
20
-4.0953123914187
30
0
41
1
10
-1.99503997793931
20
-5.12318891405303
30
0
41
1
10
-1.99503997793933
20
-6.35676356337376
30
0
41
1
10
-1.99503997793933
20
-7.7553535878281
30
0
41
1
10
-1.99503997793933
20
-9.07001720037854
30
0
41
1
10
-1.99503997793934
20
-10.2994801886281
30
0
41
1
10
-1.99503997793934
20
-11.4421777785236
30
0
41
1
10
-1.99503997793934
20
-12.4962104807245
30
0
41
1
10
-1.99503997793934
20
-13.7813335607202
30
0
41
1
10
-1.99503997793936
20
-15.152468715744
30
0
41
1
10
-1.99503997793936
20
-16.1866016937524
30
0
41
1
10
-1.99503997793936
20
-16.786776230537
30
0
41
1
10
-1.99503997793936
20
-17.1138754381145
30
0
41
1
10
-1.99503997793936
20
-17.273419842917
30
0
41
1
10
-1.99503997793936
20
-17.3133444721289
30
0
41
1
10
-1.99503997793936
20
-17.3200455762737
30
0
0
SPLINE
5
183
100
AcDbEntity
8
SK1
62
256
6
ByLayer
370
18
48
1
60
0
100
AcDbSpline
70
4
71
3
72
45
73
41
40
0
40
0
40
0
40
0
40
0.013897064548912
40
0.0424913608572492
40
0.0710856571655864
40
0.0996799534739235
40
0.156868546090598
40
0.214057138707272
40
0.242651435015609
40
0.271245731323947
40
0.299840027632284
40
0.328434323940621
40
0.357028620248958
40
0.385622916557295
40
0.414217212865632
40
0.428514361019801
40
0.44281150917397
40
0.471405805482307
40
0.485702953636475
40
0.49285152771356
40
0.500000101790644
40
0.507148675867728
40
0.514297249944813
40
0.528594398098981
40
0.557188694407318
40
0.571485842561487
40
0.585782990715655
40
0.614377287023993
40
0.64297158333233
40
0.671565879640667
40
0.700160175949004
40
0.728754472257341
40
0.757348768565678
40
0.785943064874016
40
0.84313165749069
40
0.900320250107364
40
0.928914546415701
40
0.957508842724039
40
0.986103139032376
40
1
40
1
40
1
40
1
41
1
10
-2.19999999999993
20
17.5147945425414
30
0
41
1
10
-2.19999999999993
20
17.508019339129
30
0
41
1
10
-2.19999999999995
20
17.4676802390482
30
0
41
1
10
-2.19999999999993
20
17.3066644250431
30
0
41
1
10
-2.19999999999993
20
16.9766929599708
30
0
41
1
10
-2.19999999999993
20
16.3719288388599
30
0
41
1
10
-2.19999999999995
20
15.3294666616433
30
0
41
1
10
-2.19999999999995
20
13.9476224427057
30
0
41
1
10
-2.19999999999996
20
12.6535104390874
30
0
41
1
10
-2.19999999999996
20
11.5914144609754
30
0
41
1
10
-2.19999999999996
20
10.4396347881955
30
0
41
1
10
-2.19999999999996
20
9.19987052615136
30
0
41
1
10
-2.19999999999997
20
7.87333982787851
30
0
41
1
10
-2.19999999999997
20
6.46078575524433
30
0
41
1
10
-2.19999999999997
20
5.21252898167785
30
0
41
1
10
-2.19999999999999
20
4.17223684682958
30
0
41
1
10
-2.19999999999999
20
3.10486150423554
30
0
41
1
10
-2.19999999999999
20
1.99745537289451
30
0
41
1
10
-2.2
20
1.00299597482069
30
0
41
1
10
-2.2
20
0.430523794544854
30
0
41
1
10
-2.2
20
2.03164063E-08
30
0
41
1
10
-2.2
20
-0.430523737893537
30
0
41
1
10
-2.2
20
-1.00299590932914
30
0
41
1
10
-2.2
20
-1.9974553827513
30
0
41
1
10
-2.20000000000002
20
-3.10486136355075
30
0
41
1
10
-2.20000000000002
20
-4.17223690222139
30
0
41
1
10
-2.20000000000002
20
-5.21252864051553
30
0
41
1
10
-2.20000000000002
20
-6.46078587277509
30
0
41
1
10
-2.20000000000003
20
-7.87333968058334
30
0
41
1
10
-2.20000000000003
20
-9.19987024087132
30
0
41
1
10
-2.20000000000005
20
-10.4396350324424
30
0
41
1
10
-2.20000000000005
20
-11.5914143063801
30
0
41
1
10
-2.20000000000005
20
-12.6535102764493
30
0
41
1
10
-2.20000000000005
20
-13.9476228193307
30
0
41
1
10
-2.20000000000006
20
-15.3294662349403
30
0
41
1
10
-2.20000000000006
20
-16.3719296090069
30
0
41
1
10
-2.20000000000006
20
-16.9766928316826
30
0
41
1
10
-2.20000000000006
20
-17.3066647416643
30
0
41
1
10
-2.20000000000006
20
-17.46768033627
30
0
41
1
10
-2.20000000000006
20
-17.5080192384789
30
0
41
1
10
-2.20000000000006
20
-17.5147944572233
30
0
0
SPLINE
5
184
100
AcDbEntity
8
SK1
62
256
6
ByLayer
370
18
48
1
60
0
100
AcDbSpline
70
4
71
3
72
45
73
41
40
0
40
0
40
0
40
0
40
0.0275256181618415
40
0.055318231500836
40
0.0831108448398306
40
0.110903458178825
40
0.166488684856814
40
0.222073911534803
40
0.249866524873798
40
0.277659138212792
40
0.305451751551787
40
0.333244364890782
40
0.361036978229776
40
0.388829591568771
40
0.416622204907765
40
0.430518511577262
40
0.44441481824676
40
0.472207431585754
40
0.486103738255251
40
0.49305189159
40
0.500000044924749
40
0.506948198259497
40
0.513896351594246
40
0.527792658263743
40
0.555585271602738
40
0.569481578272235
40
0.583377884941732
40
0.611170498280727
40
0.638963111619721
40
0.666755724958716
40
0.69454833829771
40
0.722340951636705
40
0.7501335649757
40
0.777926178314694
40
0.833511404992683
40
0.889096631670672
40
0.916889245009667
40
0.944681858348661
40
0.972474471687656
40
1
40
1
40
1
40
1
41
1
10
-28.4999999999999
20
16.8545102407117
30
0
41
1
10
-28.4999999999999
20
16.8681141431614
30
0
41
1
10
-28.4999999999999
20
16.8405420084672
30
0
41
1
10
-28.4999999999999
20
16.6531187925378
30
0
41
1
10
-28.4999999999999
20
16.3328856609548
30
0
41
1
10
-28.4999999999999
20
15.743676951477
30
0
41
1
10
-28.4999999999999
20
14.7294543359373
30
0
41
1
10
-28.5
20
13.383910604677
30
0
41
1
10
-28.5
20
12.1202723366857
30
0
41
1
10
-28.5
20
11.0855105352456
30
0
41
1
10
-28.5
20
9.96451720849836
30
0
41
1
10
-28.5
20
8.75967545377569
30
0
41
1
10
-28.5
20
7.47337327542309
30
0
41
1
10
-28.5
20
6.10815549439164
30
0
41
1
10
-28.5
20
4.90967203214981
30
0
41
1
10
-28.5
20
3.91146689927399
30
0
41
1
10
-28.5
20
2.89299469927096
30
0
41
1
10
-28.5
20
1.85830102725052
30
0
41
1
10
-28.5
20
0.92957395693
30
0
41
1
10
-28.5
20
0.397463415028625
30
0
41
1
10
-28.5
20
1.847322437E-07
30
0
41
1
10
-28.5
20
-0.397463221290792
30
0
41
1
10
-28.5
20
-0.929574056191825
30
0
41
1
10
-28.5
20
-1.8583009755834
30
0
41
1
10
-28.5
20
-2.89299452712905
30
0
41
1
10
-28.5
20
-3.91146685141297
30
0
41
1
10
-28.5
20
-4.90967166078656
30
0
41
1
10
-28.5
20
-6.10815570815353
30
0
41
1
10
-28.5
20
-7.47337302390375
30
0
41
1
10
-28.5
20
-8.75967525472734
30
0
41
1
10
-28.5
20
-9.96451747418791
30
0
41
1
10
-28.5
20
-11.0855103162797
30
0
41
1
10
-28.5
20
-12.1202722318354
30
0
41
1
10
-28.5000000000001
20
-13.3839109677472
30
0
41
1
10
-28.5000000000001
20
-14.7294539424714
30
0
41
1
10
-28.5000000000001
20
-15.743677711493
30
0
41
1
10
-28.5000000000001
20
-16.3328855300395
30
0
41
1
10
-28.5000000000001
20
-16.6531191297729
30
0
41
1
10
-28.5000000000001
20
-16.840542396489
30
0
41
1
10
-28.5000000000001
20
-16.868114112645
30
0
41
1
10
-28.5000000000001
20
-16.8545104809557
30
0
0
SPLINE
5
185
100
AcDbEntity
8
1
62
256
6
ByLayer
370
18
48
1
60
0
100
AcDbSpline
70
4
71
3
72
74
73
70
40
0
40
0
40
0
40
0
40
0.0075024758933664
40
0.0148992199183553
40
0.0222838275355075
40
0.0296556764651519
40
0.0370148586585026
40
0.0443614840716229
40
0.0516956615373999
40
0.0590174987848199
40
0.0663271024572217
40
0.07362457813114
40
0.0809100303340368
40
0.0881835625619986
40
0.0954452772970439
40
0.102695276024101
40
0.109933659247669
40
0.117160526508159
40
0.124375976397934
40
0.13158010657706
40
0.138773013788735
40
0.14595479387455
40
0.153125541789216
40
0.160285351615352
40
0.167434316577782
40
0.174572151227107
40
0.181696970112387
40
0.188808589599453
40
0.195907112467902
40
0.20299264037258
40
0.210065273861699
40
0.217125112394308
40
0.224172254357279
40
0.231206797082911
40
0.238228836864867
40
0.245238468974708
40
0.252235787677648
40
0.316747179426861
40
0.379892843275316
40
0.441730493081838
40
0.502156069324699
40
0.523556877992398
40
0.54468581303242
40
0.565545342093676
40
0.586137744176478
40
0.606465117787054
40
0.626529388577498
40
0.646332316515477
40
0.665875502622876
40
0.685160395319474
40
0.704179925308679
40
0.7229210939456
40
0.741385566936026
40
0.759575129005815
40
0.777491414198034
40
0.795135912582951
40
0.812509976600285
40
0.829614827063497
40
0.846451558853518
40
0.86302114632665
40
0.879324448459495
40
0.895362213751704
40
0.911135084905637
40
0.926643603300433
40
0.941878976062404
40
0.956831121297613
40
0.971501264692092
40
0.985890545639715
40
1
40
1
40
1
40
1
41
1
10
266
20
24.999999999999
30
0
41
1
10
266.000521894441
20
24.9999752851221
30
0
41
1
10
266.001558328299
20
24.9999262036734
30
0
41
1
10
266.003108169379
20
24.999531859257
30
0
41
1
10
266.004648351702
20
24.9989085727691
30
0
41
1
10
266.006185065585
20
24.9980330865695
30
0
41
1
10
266.007718001871
20
24.9969128186655
30
0
41
1
10
266.009246905404
20
24.9955474026734
30
0
41
1
10
266.010771524938
20
24.9939385287231
30
0
41
1
10
266.012291611741
20
24.992087319464
30
0
41
1
10
266.013806919526
20
24.9899950318017
30
0
41
1
10
266.015317204292
20
24.9876628695866
30
0
41
1
10
266.016822224263
20
24.9850920339094
30
0
41
1
10
266.018321739772
20
24.9822837098888
30
0
41
1
10
266.019815513172
20
24.9792390704287
30
0
41
1
10
266.021303308736
20
24.9759592754362
30
0
41
1
10
266.022784892562
20
24.97244547225
30
0
41
1
10
266.024260032486
20
24.9686987957412
30
0
41
1
10
266.025728497987
20
24.9647203684981
30
0
41
1
10
266.0271900601
20
24.9605113009857
30
0
41
1
10
266.028644491327
20
24.9560726917082
30
0
41
1
10
266.030091565543
20
24.9514056273693
30
0
41
1
10
266.031531057934
20
24.9465111830246
30
0
41
1
10
266.032962744856
20
24.9413904222466
30
0
41
1
10
266.034386378844
20
24.9360444914242
30
0
41
1
10
266.0358015828
20
24.9304750585304
30
0
41
1
10
266.03720797058
20
24.9246839685818
30
0
41
1
10
266.038605182315
20
24.9186730674886
30
0
41
1
10
266.039992991908
20
24.9124436841501
30
0
41
1
10
266.041371193284
20
24.9059970565881
30
0
41
1
10
266.042739581551
20
24.8993344100557
30
0
41
1
10
266.044097952873
20
24.8924569571482
30
0
41
1
10
266.045446104452
20
24.88536589832
30
0
41
1
10
266.046783834343
20
24.8780624208405
30
0
41
1
10
266.048110941535
20
24.8705477036169
30
0
41
1
10
266.049427225551
20
24.8628229000623
30
0
41
1
10
266.054309407255
20
24.8331478192015
30
0
41
1
10
266.062388143032
20
24.7749692644852
30
0
41
1
10
266.072810739712
20
24.6748666979225
30
0
41
1
10
266.08189607865
20
24.5595370725074
30
0
41
1
10
266.087928966358
20
24.45706332463
30
0
41
1
10
266.091685371151
20
24.3773807210492
30
0
41
1
10
266.093806849155
20
24.3263248100877
30
0
41
1
10
266.095704729602
20
24.2739799163069
30
0
41
1
10
266.097376750635
20
24.2204191936399
30
0
41
1
10
266.098820815325
20
24.1657144520241
30
0
41
1
10
266.100035001887
20
24.1099360799827
30
0
41
1
10
266.101017546611
20
24.0531531671393
30
0
41
1
10
266.101766858061
20
23.9954335498677
30
0
41
1
10
266.10228136734
20
23.9368524127604
30
0
41
1
10
266.102559936066
20
23.8774994486163
30
0
41
1
10
266.102602362093
20
23.8174650047816
30
0
41
1
10
266.102408387515
20
23.756830924721
30
0
41
1
10
266.1019781172
20
23.6956619164985
30
0
41
1
10
266.101311763978
20
23.6340211421299
30
0
41
1
10
266.100409693882
20
23.5719705351003
30
0
41
1
10
266.099272414568
20
23.5095708634601
30
0
41
1
10
266.097900579693
20
23.446881777213
30
0
41
1
10
266.096294989944
20
23.383961852914
30
0
41
1
10
266.094456596297
20
23.3208686407312
30
0
41
1
10
266.092386501994
20
23.2576586824073
30
0
41
1
10
266.090085971515
20
23.1943876195409
30
0
41
1
10
266.087556417522
20
23.1311099572205
30
0
41
1
10
266.084800018477
20
23.0678926210274
30
0
41
1
10
266.081819869085
20
23.0048141694069
30
0
41
1
10
266.078622596323
20
22.941959872862
30
0
41
1
10
266.075204314262
20
22.879374787198
30
0
41
1
10
266.071595695201
20
22.8171854602397
30
0
41
1
10
266.068973504201
20
22.7754259003027
30
0
41
1
10
266.067675282232
20
22.7547511370659
30
0
0
SPLINE
5
186
100
AcDbEntity
8
1
62
256
6
ByLayer
370
13
48
1
60
0
100
AcDbSpline
70
4
71
1
72
4
73
2
40
0
40
0
40
1
40
1
41
1
10
265.635350564464
20
22.9943900756365
30
0
41
1
10
266.067675282232
20
22.7547511370658
30
0
0
SPLINE
5
187
100
AcDbEntity
8
1
62
256
6
ByLayer
370
13
48
1
60
0
100
AcDbSpline
70
4
71
3
72
34
73
30
40
0
40
0
40
0
40
0
40
0.0624999999999999
40
0.0624999999999999
40
0.125
40
0.15625
40
0.15625
40
0.1875
40
0.1875
40
0.25
40
0.25
40
0.375
40
0.40625
40
0.40625
40
0.4375
40
0.4375
40
0.5
40
0.5
40
0.625
40
0.625
40
0.6875
40
0.6875
40
0.75
40
0.75
40
0.875
40
0.875
40
0.9375
40
0.9375
40
1
40
1
40
1
40
1
41
1
10
266
20
24.999999999999
30
0
41
1
10
266.014812739614
20
24.999999999999
30
0
41
1
10
266.029622238173
20
24.9967241358786
30
0
41
1
10
266.059139800026
20
24.9836371974726
30
0
41
1
10
266.081206597765
20
24.9689207780151
30
0
41
1
10
266.103081239536
20
24.9468494149334
30
0
41
1
10
266.117611926543
20
24.9304980569
30
0
41
1
10
266.124852375046
20
24.9215017564257
30
0
41
1
10
266.146457520478
20
24.8920857452437
30
0
41
1
10
266.160712834101
20
24.8692332625326
30
0
41
1
10
266.20291630061
20
24.7909839098409
30
0
41
1
10
266.237152682465
20
24.709635261553
30
0
41
1
10
266.269682158228
20
24.6080642925882
30
0
41
1
10
266.282544446913
20
24.5658113771965
30
0
41
1
10
266.288902986091
20
24.5438661551309
30
0
41
1
10
266.3077213716
20
24.4756414302038
30
0
41
1
10
266.31991839485
20
24.4269981302981
30
0
41
1
10
266.355312517614
20
24.2716211294437
30
0
41
1
10
266.377321211601
20
24.1554500642246
30
0
41
1
10
266.40722530712
20
23.9622722142651
30
0
41
1
10
266.41667329215
20
23.8947236348502
30
0
41
1
10
266.43437761318
20
23.7532778952799
30
0
41
1
10
266.442617490402
20
23.6795117451554
30
0
41
1
10
266.465247523275
20
23.4491666082544
30
0
41
1
10
266.477575832709
20
23.283527491318
30
0
41
1
10
266.490600456538
20
23.0169088242278
30
0
41
1
10
266.494026128838
20
22.9249759938856
30
0
41
1
10
266.498725623193
20
22.7351579663387
30
0
41
1
10
266.5
20
22.6373314104557
30
0
41
1
10
266.5
20
22.5365853658614
30
0
0
SPLINE
5
188
100
AcDbEntity
8
1
62
256
6
ByLayer
370
18
48
1
60
0
100
AcDbSpline
70
4
71
3
72
36
73
32
40
0
40
0
40
0
40
0
40
0.122294168922007
40
0.122294168922007
40
0.195436321511844
40
0.195436321511844
40
0.23200739780676
40
0.23200739780676
40
0.268578474101676
40
0.268578474101676
40
0.341720626691508
40
0.341720626691508
40
0.378291702986423
40
0.378291702986423
40
0.414862779281339
40
0.414862779281339
40
0.488004931871169
40
0.488004931871169
40
0.524576008166084
40
0.524576008166084
40
0.561147084460998
40
0.561147084460998
40
0.634289237050832
40
0.634289237050832
40
0.707431389640665
40
0.707431389640665
40
0.780573542230498
40
0.780573542230498
40
0.853715694820331
40
0.853715694820331
40
1
40
1
40
1
40
1
41
1
10
267.607729614589
20
-14.7165323184187
30
0
41
1
10
267.598295176106
20
-14.7260353140278
30
0
41
1
10
267.589548040495
20
-14.7348526937606
30
0
41
1
10
267.576962978984
20
-14.7475455477907
30
0
41
1
10
267.572665768936
20
-14.7518812199205
30
0
41
1
10
267.566937041454
20
-14.7576626687898
30
0
41
1
10
267.565146159727
20
-14.7594703034843
30
0
41
1
10
267.561821741835
20
-14.7628262012995
30
0
41
1
10
267.560285385348
20
-14.7643773132473
30
0
41
1
10
267.556170769704
20
-14.7685318245786
30
0
41
1
10
267.554054662599
20
-14.7706689842474
30
0
41
1
10
267.551904777518
20
-14.7728403855665
30
0
41
1
10
267.551358069514
20
-14.7733926014487
30
0
41
1
10
267.550642684802
20
-14.7741152032578
30
0
41
1
10
267.550471174801
20
-14.7742884504578
30
0
41
1
10
267.550501778366
20
-14.7742575373647
30
0
41
1
10
267.551246131199
20
-14.7735056170728
30
0
41
1
10
267.553449587003
20
-14.771280119121
30
0
41
1
10
267.554366440456
20
-14.7703541331473
30
0
41
1
10
267.556507437831
20
-14.7681920072903
30
0
41
1
10
267.557735591993
20
-14.7669518171113
30
0
41
1
10
267.561863192775
20
-14.7627842351996
30
0
41
1
10
267.565218581561
20
-14.7593968992327
30
0
41
1
10
267.572951716672
20
-14.7515926878484
30
0
41
1
10
267.577252302461
20
-14.7472536906856
30
0
41
1
10
267.586584704884
20
-14.7378414692281
30
0
41
1
10
267.591617667416
20
-14.7327670857892
30
0
41
1
10
267.602342916788
20
-14.7219581556364
30
0
41
1
10
267.607954623723
20
-14.716304835689
30
0
41
1
10
267.625296915117
20
-14.6988417531492
30
0
41
1
10
267.637586054382
20
-14.6864770846465
30
0
41
1
10
267.650480947162
20
-14.6735161477116
30
0
0
SPLINE
5
189
100
AcDbEntity
8
1
62
256
6
ByLayer
370
18
48
1
60
0
100
AcDbSpline
70
4
71
3
72
8
73
4
40
0
40
0
40
0
40
0
40
1
40
1
40
1
40
1
41
1
10
267.650480947162
20
-14.6735161477116
30
0
41
1
10
267.875830405165
20
-14.4470125107007
30
0
41
1
10
268.100607863251
20
-14.2197546698719
30
0
41
1
10
268.324759526419
20
-13.991671694457
30
0
0
SPLINE
5
18A
100
AcDbEntity
8
1
62
256
6
ByLayer
370
18
48
1
60
0
100
AcDbSpline
70
4
71
3
72
8
73
4
40
0
40
0
40
0
40
0
40
1
40
1
40
1
40
1
41
1
10
268.324759526419
20
-13.976856793211
30
0
41
1
10
268.100458994954
20
-14.1950332762291
30
0
41
1
10
267.875685997486
20
-14.4125589107679
30
0
41
1
10
267.650480947162
20
-14.6294893682067
30
0
0
SPLINE
5
18B
100
AcDbEntity
8
1
62
256
6
ByLayer
370
18
48
1
60
0
100
AcDbSpline
70
4
71
3
72
36
73
32
40
0
40
0
40
0
40
0
40
0.0624999999999999
40
0.0624999999999999
40
0.125
40
0.125
40
0.1875
40
0.1875
40
0.25
40
0.25
40
0.3125
40
0.3125
40
0.374999999999999
40
0.374999999999999
40
0.437499999999999
40
0.437499999999999
40
0.499999999999999
40
0.499999999999999
40
0.562499999999999
40
0.562499999999999
40
0.624999999999999
40
0.624999999999999
40
0.687499999999999
40
0.687499999999999
40
0.749999999999999
40
0.749999999999999
40
0.812499999999999
40
0.812499999999999
40
0.874999999999999
40
0.874999999999999
40
1
40
1
40
1
40
1
41
1
10
267.650480947162
20
-14.6294893682067
30
0
41
1
10
267.643862084188
20
-14.6358650377155
30
0
41
1
10
267.63736815804
20
-14.6420854939402
30
0
41
1
10
267.624658212001
20
-14.6541795144039
30
0
41
1
10
267.618465781099
20
-14.6600302465747
30
0
41
1
10
267.606614451507
20
-14.6711317760511
30
0
41
1
10
267.600930365741
20
-14.6764066912086
30
0
41
1
10
267.590113554064
20
-14.6863246581531
30
0
41
1
10
267.584944456052
20
-14.691000029735
30
0
41
1
10
267.575462300344
20
-14.6994157565428
30
0
41
1
10
267.571165979257
20
-14.7031426233283
30
0
41
1
10
267.563582231134
20
-14.709502599634
30
0
41
1
10
267.560295493777
20
-14.712131438416
30
0
41
1
10
267.555115656292
20
-14.7159495810431
30
0
41
1
10
267.55318093426
20
-14.7171751733815
30
0
41
1
10
267.550745513604
20
-14.7181286395752
30
0
41
1
10
267.550291079597
20
-14.7178363837959
30
0
41
1
10
267.550812662286
20
-14.7158184071485
30
0
41
1
10
267.551796471514
20
-14.7140793421226
30
0
41
1
10
267.555138387984
20
-14.7092388666707
30
0
41
1
10
267.557446708715
20
-14.7062051495611
30
0
41
1
10
267.563158317433
20
-14.6990846204178
30
0
41
1
10
267.566592406128
20
-14.6949623448445
30
0
41
1
10
267.57432482138
20
-14.6859171291042
30
0
41
1
10
267.578590882068
20
-14.681029982192
30
0
41
1
10
267.587802061849
20
-14.6706380732879
30
0
41
1
10
267.592748132286
20
-14.6651324406491
30
0
41
1
10
267.60325464834
20
-14.6535639456452
30
0
41
1
10
267.608756349684
20
-14.6475660845116
30
0
41
1
10
267.625757992912
20
-14.6291819152161
30
0
41
1
10
267.63781344554
20
-14.61633815057
30
0
41
1
10
267.650480947162
20
-14.6030003410702
30
0
0
SPLINE
5
18C
100
AcDbEntity
8
1
62
256
6
ByLayer
370
18
48
1
60
0
100
AcDbSpline
70
4
71
3
72
8
73
4
40
0
40
0
40
0
40
0
40
1
40
1
40
1
40
1
41
1
10
267.650480947162
20
-14.6030003410702
30
0
41
1
10
267.876008003165
20
-14.3655393957395
30
0
41
1
10
268.100791090601
20
-14.1271433496662
30
0
41
1
10
268.324759526419
20
-13.8877233606922
30
0
0
SPLINE
5
18D
100
AcDbEntity
8
1
62
256
6
ByLayer
370
18
48
1
60
0
100
AcDbSpline
70
4
71
3
72
8
73
4
40
0
40
0
40
0
40
0
40
1
40
1
40
1
40
1
41
1
10
268.324759526419
20
-13.8429985339393
30
0
41
1
10
268.10033706691
20
-14.0525298860225
30
0
41
1
10
267.875567648883
20
-14.2615638584146
30
0
41
1
10
267.650480947162
20
-14.4701429912266
30
0
0
SPLINE
5
18E
100
AcDbEntity
8
1
62
256
6
ByLayer
370
18
48
1
60
0
100
AcDbSpline
70
4
71
3
72
38
73
34
40
0
40
0
40
0
40
0
40
0.0625000000000002
40
0.0625000000000002
40
0.125
40
0.125
40
0.187500000000001
40
0.187500000000001
40
0.250000000000001
40
0.250000000000001
40
0.312500000000001
40
0.312500000000001
40
0.375000000000001
40
0.375000000000001
40
0.437500000000001
40
0.437500000000001
40
0.500000000000001
40
0.500000000000001
40
0.531250000000003
40
0.531250000000003
40
0.562500000000004
40
0.562500000000004
40
0.625000000000004
40
0.625000000000004
40
0.687500000000003
40
0.687500000000003
40
0.750000000000003
40
0.750000000000003
40
0.812500000000003
40
0.812500000000003
40
0.875000000000002
40
0.875000000000002
40
1
40
1
40
1
40
1
41
1
10
267.650480947162
20
-14.4701429912266
30
0
41
1
10
267.643726881463
20
-14.4764017224423
30
0
41
1
10
267.637098160743
20
-14.4824675984272
30
0
41
1
10
267.624121587645
20
-14.4941653645867
30
0
41
1
10
267.617742143976
20
-14.4998242703934
30
0
41
1
10
267.605562970483
20
-14.5104136408798
30
0
41
1
10
267.599742695575
20
-14.5153637999649
30
0
41
1
10
267.588714807944
20
-14.5244776354354
30
0
41
1
10
267.583471678807
20
-14.5286687146879
30
0
41
1
10
267.573894168183
20
-14.5359672809043
30
0
41
1
10
267.569604727196
20
-14.5390430763013
30
0
41
1
10
267.562140118258
20
-14.5439116287629
30
0
41
1
10
267.558968752714
20
-14.5456925212599
30
0
41
1
10
267.55412676766
20
-14.5476893893337
30
0
41
1
10
267.552408786091
20
-14.5479394606962
30
0
41
1
10
267.550449968655
20
-14.5468649480104
30
0
41
1
10
267.550243871428
20
-14.5455532016635
30
0
41
1
10
267.550991933076
20
-14.5425459103032
30
0
41
1
10
267.551417710024
20
-14.5413688368428
30
0
41
1
10
267.552612851189
20
-14.5386745168143
30
0
41
1
10
267.553385026571
20
-14.5371539574111
30
0
41
1
10
267.556141299637
20
-14.5322031740124
30
0
41
1
10
267.558572250332
20
-14.5283601137453
30
0
41
1
10
267.56445428438
20
-14.5197418754234
30
0
41
1
10
267.567937837454
20
-14.5149253101646
30
0
41
1
10
267.575648799551
20
-14.5046892334923
30
0
41
1
10
267.579874304902
20
-14.4992680700752
30
0
41
1
10
267.588959245089
20
-14.4879075907872
30
0
41
1
10
267.593819464948
20
-14.481967630192
30
0
41
1
10
267.604115964568
20
-14.4696181549195
30
0
41
1
10
267.609513235996
20
-14.4632561734401
30
0
41
1
10
267.6261921918
20
-14.4438785061741
30
0
41
1
10
267.638027080278
20
-14.4304881908616
30
0
41
1
10
267.650480947162
20
-14.4166940319336
30
0
0
SPLINE
5
18F
100
AcDbEntity
8
1
62
256
6
ByLayer
370
18
48
1
60
0
100
AcDbSpline
70
4
71
3
72
8
73
4
40
0
40
0
40
0
40
0
40
1
40
1
40
1
40
1
41
1
10
267.650480947162
20
-14.4166940319336
30
0
41
1
10
267.876228917632
20
-14.1666509399759
30
0
41
1
10
268.101019214676
20
-13.9154654531775
30
0
41
1
10
268.324759526419
20
-13.6630274540343
30
0
0
SPLINE
5
190
100
AcDbEntity
8
1
62
256
6
ByLayer
370
18
48
1
60
0
100
AcDbSpline
70
4
71
3
72
8
73
4
40
0
40
0
40
0
40
0
40
1
40
1
40
1
40
1
41
1
10
268.324759526419
20
-13.5875252185448
30
0
41
1
10
268.100236859786
20
-13.7895703804302
30
0
41
1
10
267.875470342809
20
-13.9912532251739
30
0
41
1
10
267.650480947162
20
-14.1926049128585
30
0
0
SPLINE
5
191
100
AcDbEntity
8
1
62
256
6
ByLayer
370
18
48
1
60
0
100
AcDbSpline
70
4
71
3
72
39
73
35
40
0
40
0
40
0
40
0
40
0.0624999999999971
40
0.0624999999999971
40
0.124999999999994
40
0.124999999999994
40
0.187499999999991
40
0.187499999999991
40
0.249999999999988
40
0.249999999999988
40
0.312499999999985
40
0.312499999999985
40
0.343749999999985
40
0.343749999999985
40
0.374999999999984
40
0.406249999999984
40
0.406249999999984
40
0.437499999999983
40
0.437499999999983
40
0.499999999999985
40
0.499999999999985
40
0.562499999999987
40
0.562499999999987
40
0.62499999999999
40
0.62499999999999
40
0.687499999999992
40
0.687499999999992
40
0.749999999999994
40
0.749999999999994
40
0.812499999999996
40
0.812499999999996
40
0.874999999999998
40
0.874999999999998
40
1
40
1
40
1
40
1
41
1
10
267.650480947162
20
-14.1926049128585
30
0
41
1
10
267.643561481925
20
-14.1987974091724
30
0
41
1
10
267.636760597053
20
-14.2047594560303
30
0
41
1
10
267.623428732478
20
-14.2161568732057
30
0
41
1
10
267.616868043973
20
-14.221614922344
30
0
41
1
10
267.604372494835
20
-14.2316571174384
30
0
41
1
10
267.598405523108
20
-14.2362705085001
30
0
41
1
10
267.587120780066
20
-14.2445513660961
30
0
41
1
10
267.581757911793
20
-14.2482452222619
30
0
41
1
10
267.572161291116
20
-14.2542618829981
30
0
41
1
10
267.567898801765
20
-14.2566113207279
30
0
41
1
10
267.562409953693
20
-14.2590197111101
30
0
41
1
10
267.56074024976
20
-14.2596301418332
30
0
41
1
10
267.557792033825
20
-14.2604382600576
30
0
41
1
10
267.555212844325
20
-14.2608439260323
30
0
41
1
10
267.553367705005
20
-14.2604482498092
30
0
41
1
10
267.551893890274
20
-14.259646847813
30
0
41
1
10
267.551341802858
20
-14.2590371274935
30
0
41
1
10
267.550274927363
20
-14.2566430276484
30
0
41
1
10
267.550326458122
20
-14.2543028706045
30
0
41
1
10
267.551787967949
20
-14.2482959791925
30
0
41
1
10
267.553220516283
20
-14.2445964956724
30
0
41
1
10
267.557185296634
20
-14.2362910592434
30
0
41
1
10
267.559719213955
20
-14.2316610587586
30
0
41
1
10
267.565737405588
20
-14.2215788782879
30
0
41
1
10
267.569244994022
20
-14.2160956853234
30
0
41
1
10
267.576918114054
20
-14.2046829541815
30
0
41
1
10
267.581098727558
20
-14.1987255135266
30
0
41
1
10
267.590054837743
20
-14.1863774236144
30
0
41
1
10
267.594830979835
20
-14.1799863029423
30
0
41
1
10
267.604926584524
20
-14.1668094826124
30
0
41
1
10
267.61022432905
20
-14.1600533921716
30
0
41
1
10
267.626598565669
20
-14.1395788033858
30
0
41
1
10
267.638226288089
20
-14.1255569553049
30
0
41
1
10
267.650480947162
20
-14.1112111570004
30
0
0
SPLINE
5
192
100
AcDbEntity
8
1
62
256
6
ByLayer
370
18
48
1
60
0
100
AcDbSpline
70
4
71
3
72
8
73
4
40
0
40
0
40
0
40
0
40
1
40
1
40
1
40
1
41
1
10
267.650480947162
20
-14.1112111570004
30
0
41
1
10
267.876507770666
20
-13.8466150387271
30
0
41
1
10
268.101307459449
20
-13.5806365366899
30
0
41
1
10
268.324759526419
20
-13.3131399205608
30
0
0
SPLINE
5
193
100
AcDbEntity
8
1
62
256
6
ByLayer
370
18
48
1
60
0
100
AcDbSpline
70
4
71
3
72
8
73
4
40
0
40
0
40
0
40
0
40
1
40
1
40
1
40
1
41
1
10
268.324759526419
20
-13.2053177327405
30
0
41
1
10
268.100154848045
20
-13.4009956122078
30
0
41
1
10
267.875390693943
20
-13.5964289589482
30
0
41
1
10
267.650480947162
20
-13.7916390605863
30
0
0
SPLINE
5
194
100
AcDbEntity
8
1
62
256
6
ByLayer
370
18
48
1
60
0
100
AcDbSpline
70
4
71
3
72
32
73
28
40
0
40
0
40
0
40
0
40
0.125000000000003
40
0.125000000000003
40
0.187500000000006
40
0.187500000000006
40
0.250000000000008
40
0.250000000000008
40
0.312500000000011
40
0.312500000000011
40
0.375000000000013
40
0.375000000000013
40
0.437500000000015
40
0.437500000000015
40
0.500000000000018
40
0.500000000000018
40
0.56250000000002
40
0.56250000000002
40
0.625000000000023
40
0.625000000000023
40
0.750000000000018
40
0.750000000000018
40
0.812500000000015
40
0.812500000000015
40
0.875000000000013
40
0.875000000000013
40
1
40
1
40
1
40
1
41
1
10
267.650480947162
20
-13.7916390605863
30
0
41
1
10
267.636218452344
20
-13.8040181731096
30
0
41
1
10
267.622240264368
20
-13.8154173152057
30
0
41
1
10
267.602992291188
20
-13.8296153042818
30
0
41
1
10
267.596826112669
20
-13.8338945401541
30
0
41
1
10
267.585150324815
20
-13.8413094412345
30
0
41
1
10
267.579802545074
20
-13.8443419283302
30
0
41
1
10
267.570193548697
20
-13.8489058516394
30
0
41
1
10
267.565917359672
20
-13.8504253367866
30
0
41
1
10
267.5589614839
20
-13.8516753986753
30
0
41
1
10
267.556219248358
20
-13.8514436933267
30
0
41
1
10
267.552246458667
20
-13.849215664622
30
0
41
1
10
267.551085390741
20
-13.847251677176
30
0
41
1
10
267.550241537347
20
-13.8418614194546
30
0
41
1
10
267.550569080283
20
-13.838382972768
30
0
41
1
10
267.552511726574
20
-13.8303344171854
30
0
41
1
10
267.554109567751
20
-13.8257708187564
30
0
41
1
10
267.558360917358
20
-13.8157342041938
30
0
41
1
10
267.56103952816
20
-13.8102189029195
30
0
41
1
10
267.570274220005
20
-13.7928579231853
30
0
41
1
10
267.578003306719
20
-13.7801749967745
30
0
41
1
10
267.591401058081
20
-13.7598818429381
30
0
41
1
10
267.59613953536
20
-13.7529552766068
30
0
41
1
10
267.605993559771
20
-13.7389641660196
30
0
41
1
10
267.611125160039
20
-13.7318756087936
30
0
41
1
10
267.627074672477
20
-13.7103590621013
30
0
41
1
10
267.638441494712
20
-13.6956828090534
30
0
41
1
10
267.650480947162
20
-13.6807059996453
30
0
0
SPLINE
5
195
100
AcDbEntity
8
1
62
256
6
ByLayer
370
18
48
1
60
0
100
AcDbSpline
70
4
71
3
72
8
73
4
40
0
40
0
40
0
40
0
40
1
40
1
40
1
40
1
41
1
10
267.650480947162
20
-13.6807059996453
30
0
41
1
10
267.876866272618
20
-13.3990877212208
30
0
41
1
10
268.101678442285
20
-13.1158055554858
30
0
41
1
10
268.324759526419
20
-12.8306924641203
30
0
0
SPLINE
5
196
100
AcDbEntity
8
1
62
256
6
ByLayer
370
18
48
1
60
0
100
AcDbSpline
70
4
71
3
72
8
73
4
40
0
40
0
40
0
40
0
40
1
40
1
40
1
40
1
41
1
10
268.324759526419
20
-12.6881625317622
30
0
41
1
10
268.100089025132
20
-12.8786205059034
30
0
41
1
10
267.875326782244
20
-13.0689340213265
30
0
41
1
10
267.650480947162
20
-13.2591159102959
30
0
0
SPLINE
5
197
100
AcDbEntity
8
1
62
256
6
ByLayer
370
18
48
1
60
0
100
AcDbSpline
70
4
71
3
72
41
73
37
40
0
40
0
40
0
40
0
40
0.0625000000000016
40
0.0625000000000016
40
0.125000000000003
40
0.125000000000003
40
0.156250000000007
40
0.156250000000007
40
0.187500000000011
40
0.187500000000011
40
0.250000000000019
40
0.250000000000019
40
0.28125000000002
40
0.28125000000002
40
0.312500000000022
40
0.343750000000024
40
0.343750000000024
40
0.375000000000025
40
0.375000000000025
40
0.437500000000029
40
0.437500000000029
40
0.468750000000029
40
0.468750000000029
40
0.500000000000028
40
0.500000000000028
40
0.562500000000026
40
0.562500000000026
40
0.625000000000025
40
0.625000000000025
40
0.687500000000023
40
0.687500000000023
40
0.750000000000021
40
0.750000000000021
40
0.875000000000011
40
0.875000000000011
40
1
40
1
40
1
40
1
41
1
10
267.650480947162
20
-13.2591159102959
30
0
41
1
10
267.643120671969
20
-13.2653414694166
30
0
41
1
10
267.635804695087
20
-13.2712773588533
30
0
41
1
10
267.621558337367
20
-13.2822363602357
30
0
41
1
10
267.614658110684
20
-13.2872398905806
30
0
41
1
10
267.604698216193
20
-13.2939087063824
30
0
41
1
10
267.601443651369
20
-13.2959915195205
30
0
41
1
10
267.595080260981
20
-13.2998442241162
30
0
41
1
10
267.591968194618
20
-13.3016142220477
30
0
41
1
10
267.583076629913
20
-13.3062945367757
30
0
41
1
10
267.577668862641
20
-13.3086246746216
30
0
41
1
10
267.570442806861
20
-13.3107695863605
30
0
41
1
10
267.568202442333
20
-13.311249831675
30
0
41
1
10
267.564140466581
20
-13.3117249114438
30
0
41
1
10
267.560469603166
20
-13.3117232866635
30
0
41
1
10
267.557572696077
20
-13.3107769709451
30
0
41
1
10
267.555065784551
20
-13.309353963845
30
0
41
1
10
267.554012412702
20
-13.3084010300555
30
0
41
1
10
267.551498718449
20
-13.3049318251677
30
0
41
1
10
267.550641696582
20
-13.3017928744923
30
0
41
1
10
267.550431296051
20
-13.295997198854
30
0
41
1
10
267.550543891767
20
-13.2938771195681
30
0
41
1
10
267.551097439142
20
-13.2893835606961
30
0
41
1
10
267.55153724686
20
-13.2870008336855
30
0
41
1
10
267.553295887259
20
-13.2794861044513
30
0
41
1
10
267.555051097323
20
-13.2739898973767
30
0
41
1
10
267.559557801758
20
-13.2621650826902
30
0
41
1
10
267.562301249488
20
-13.255868425622
30
0
41
1
10
267.568507240897
20
-13.2428591198084
30
0
41
1
10
267.571983861287
20
-13.2361109336979
30
0
41
1
10
267.579584891849
20
-13.2221925717875
30
0
41
1
10
267.583728003621
20
-13.2149922619395
30
0
41
1
10
267.59691541842
20
-13.1930284474532
30
0
41
1
10
267.606613261902
20
-13.1780492255834
30
0
41
1
10
267.627467863824
20
-13.1475539976581
30
0
41
1
10
267.638630045339
20
-13.1320359563962
30
0
41
1
10
267.650480947162
20
-13.1162678662829
30
0
0
SPLINE
5
198
100
AcDbEntity
8
1
62
256
6
ByLayer
370
18
48
1
60
0
100
AcDbSpline
70
4
71
3
72
8
73
4
40
0
40
0
40
0
40
0
40
1
40
1
40
1
40
1
41
1
10
267.650480947162
20
-13.1162678662829
30
0
41
1
10
267.877337890168
20
-12.8144257977423
30
0
41
1
10
268.102167049584
20
-12.5105841761004
30
0
41
1
10
268.324759526419
20
-12.204537010627
30
0
0
SPLINE
5
199
100
AcDbEntity
8
1
62
256
6
ByLayer
370
18
48
1
60
0
100
AcDbSpline
70
4
71
3
72
8
73
4
40
0
40
0
40
0
40
0
40
1
40
1
40
1
40
1
41
1
10
268.324759526419
20
-12.0237655573035
30
0
41
1
10
268.100039125586
20
-12.2102687278786
30
0
41
1
10
267.875278354979
20
-12.3967070563419
30
0
41
1
10
267.650480947162
20
-12.5830864488545
30
0
0
SPLINE
5
19A
100
AcDbEntity
8
1
62
256
6
ByLayer
370
18
48
1
60
0
100
AcDbSpline
70
4
71
3
72
39
73
35
40
0
40
0
40
0
40
0
40
0.0624999999999868
40
0.0624999999999868
40
0.124999999999974
40
0.124999999999974
40
0.187499999999961
40
0.187499999999961
40
0.218749999999959
40
0.218749999999959
40
0.249999999999958
40
0.249999999999958
40
0.312499999999954
40
0.312499999999954
40
0.343749999999951
40
0.343749999999951
40
0.374999999999948
40
0.406249999999945
40
0.406249999999945
40
0.437499999999942
40
0.437499999999942
40
0.49999999999995
40
0.49999999999995
40
0.562499999999957
40
0.562499999999957
40
0.624999999999965
40
0.624999999999965
40
0.687499999999973
40
0.687499999999973
40
0.74999999999998
40
0.74999999999998
40
0.87499999999999
40
0.87499999999999
40
1
40
1
40
1
40
1
41
1
10
267.650480947162
20
-12.5830864488545
30
0
41
1
10
267.642848465984
20
-12.5894145343029
30
0
41
1
10
267.635230044314
20
-12.595390661751
30
0
41
1
10
267.620434193986
20
-12.6061779599136
30
0
41
1
10
267.613255140464
20
-12.6109974845258
30
0
41
1
10
267.599425158374
20
-12.6192459915897
30
0
41
1
10
267.592745263725
20
-12.6226722784107
30
0
41
1
10
267.583692680945
20
-12.6262998168299
30
0
41
1
10
267.580816760607
20
-12.6272697003254
30
0
41
1
10
267.575367399923
20
-12.6286973789881
30
0
41
1
10
267.572783455345
20
-12.6291527982113
30
0
41
1
10
267.565725370173
20
-12.6296830301401
30
0
41
1
10
267.561864611698
20
-12.6289563432174
30
0
41
1
10
267.557292459269
20
-12.6263023228401
30
0
41
1
10
267.55596873654
20
-12.6251453113997
30
0
41
1
10
267.553784251942
20
-12.6223872509883
30
0
41
1
10
267.552040779151
20
-12.6191809187853
30
0
41
1
10
267.551098579189
20
-12.6151589316106
30
0
41
1
10
267.550528264205
20
-12.6107578663781
30
0
41
1
10
267.550430700683
20
-12.6083568813511
30
0
41
1
10
267.550654051541
20
-12.6007652352962
30
0
41
1
10
267.551475794025
20
-12.5951597496364
30
0
41
1
10
267.554198267888
20
-12.5830737854485
30
0
41
1
10
267.556114381686
20
-12.5765557654393
30
0
41
1
10
267.560823333971
20
-12.5629298211251
30
0
41
1
10
267.563597798464
20
-12.5558628914167
30
0
41
1
10
267.569844713144
20
-12.5413066108052
30
0
41
1
10
267.573318283136
20
-12.5338165910076
30
0
41
1
10
267.580882685558
20
-12.5184630726745
30
0
41
1
10
267.584984596991
20
-12.5105829559687
30
0
41
1
10
267.597909096523
20
-12.4868430027674
30
0
41
1
10
267.60740422431
20
-12.4707518266133
30
0
41
1
10
267.627855969026
20
-12.4381338925017
30
0
41
1
10
267.638816630045
20
-12.4216059035302
30
0
41
1
10
267.650480947162
20
-12.4048713342168
30
0
0
SPLINE
5
19B
100
AcDbEntity
8
1
62
256
6
ByLayer
370
18
48
1
60
0
100
AcDbSpline
70
4
71
3
72
8
73
4
40
0
40
0
40
0
40
0
40
1
40
1
40
1
40
1
41
1
10
267.650480947162
20
-12.4048713342168
30
0
41
1
10
267.87797677687
20
-12.0784874839783
30
0
41
1
10
268.10282976625
20
-11.7496954266917
30
0
41
1
10
268.324759526419
20
-11.4182396666035
30
0
0
SPLINE
5
19C
100
AcDbEntity
8
1
62
256
6
ByLayer
370
18
48
1
60
0
100
AcDbSpline
70
4
71
3
72
8
73
4
40
0
40
0
40
0
40
0
40
1
40
1
40
1
40
1
41
1
10
268.324759526419
20
-11.1940141333158
30
0
41
1
10
268.100007511727
20
-11.3780816494076
30
0
41
1
10
267.875247737629
20
-11.562136533404
30
0
41
1
10
267.650480947162
20
-11.746179991573
30
0
0
SPLINE
5
19D
100
AcDbEntity
8
1
62
256
6
ByLayer
370
18
48
1
60
0
100
AcDbSpline
70
4
71
3
72
39
73
35
40
0
40
0
40
0
40
0
40
0.062500000000007
40
0.062500000000007
40
0.125000000000014
40
0.125000000000014
40
0.156250000000014
40
0.156250000000014
40
0.187500000000014
40
0.187500000000014
40
0.218750000000014
40
0.218750000000014
40
0.250000000000015
40
0.281250000000015
40
0.281250000000015
40
0.312500000000015
40
0.312500000000015
40
0.375000000000015
40
0.375000000000015
40
0.406250000000016
40
0.406250000000016
40
0.437500000000016
40
0.437500000000016
40
0.500000000000014
40
0.500000000000014
40
0.562500000000012
40
0.562500000000012
40
0.62500000000001
40
0.62500000000001
40
0.750000000000007
40
0.750000000000007
40
0.875000000000003
40
0.875000000000003
40
1
40
1
40
1
40
1
41
1
10
267.650480947162
20
-11.746179991573
30
0
41
1
10
267.642517355018
20
-11.7527007370729
30
0
41
1
10
267.63453440989
20
-11.7587815916516
30
0
41
1
10
267.619042460543
20
-11.7694623151681
30
0
41
1
10
267.611511726718
20
-11.7740895951831
30
0
41
1
10
267.600621370502
20
-11.7796806806265
30
0
41
1
10
267.597061556648
20
-11.7813124621382
30
0
41
1
10
267.590290341915
20
-11.7839856794475
30
0
41
1
10
267.587053841966
20
-11.7850409190099
30
0
41
1
10
267.58089623758
20
-11.7865551188083
30
0
41
1
10
267.577954952722
20
-11.787014546725
30
0
41
1
10
267.572512587958
20
-11.7872842763299
30
0
41
1
10
267.567547431314
20
-11.7869134556388
30
0
41
1
10
267.56348717482
20
-11.7853258627782
30
0
41
1
10
267.559865561372
20
-11.7831473720273
30
0
41
1
10
267.558264729514
20
-11.7817488018332
30
0
41
1
10
267.554196953588
20
-11.7767917693816
30
0
41
1
10
267.552440567205
20
-11.772507925754
30
0
41
1
10
267.550959029724
20
-11.7648963564566
30
0
41
1
10
267.550660070545
20
-11.7621461067265
30
0
41
1
10
267.550422720308
20
-11.7563820754741
30
0
41
1
10
267.550481076441
20
-11.7533611718071
30
0
41
1
10
267.551119474506
20
-11.7439343578554
30
0
41
1
10
267.552159177103
20
-11.7371671874774
30
0
41
1
10
267.555239798449
20
-11.7228437690721
30
0
41
1
10
267.557290439547
20
-11.7152746972413
30
0
41
1
10
267.562146245542
20
-11.6997853492498
30
0
41
1
10
267.564959968858
20
-11.6918233983916
30
0
41
1
10
267.574383518436
20
-11.667383516767
30
0
41
1
10
267.582020418221
20
-11.650262691225
30
0
41
1
10
267.598905986321
20
-11.6158494363728
30
0
41
1
10
267.608200334979
20
-11.598435293485
30
0
41
1
10
267.628249215424
20
-11.5632547901691
30
0
41
1
10
267.639006636006
20
-11.5454877152697
30
0
41
1
10
267.650480947162
20
-11.5275506630102
30
0
0
SPLINE
5
19E
100
AcDbEntity
8
1
62
256
6
ByLayer
370
18
48
1
60
0
100
AcDbSpline
70
4
71
3
72
8
73
4
40
0
40
0
40
0
40
0
40
1
40
1
40
1
40
1
41
1
10
267.650480947162
20
-11.5275506630102
30
0
41
1
10
267.878876276632
20
-11.1705149416595
30
0
41
1
10
268.103764009202
20
-10.8105598495171
30
0
41
1
10
268.324759526419
20
-10.4473652688745
30
0
0
SPLINE
5
19F
100
AcDbEntity
8
1
62
256
6
ByLayer
370
18
48
1
60
0
100
AcDbSpline
70
4
71
3
72
8
73
4
40
0
40
0
40
0
40
0
40
1
40
1
40
1
40
1
41
1
10
268.324759526419
20
-10.1718025873668
30
0
41
1
10
268.10000187134
20
-10.3554472734967
30
0
41
1
10
267.875242279349
20
-10.5390887989495
30
0
41
1
10
267.650480947162
20
-10.7227274845183
30
0
0
SPLINE
5
1A0
100
AcDbEntity
8
1
62
256
6
ByLayer
370
18
48
1
60
0
100
AcDbSpline
70
4
71
3
72
38
73
34
40
0
40
0
40
0
40
0
40
0.0624999999999862
40
0.0624999999999862
40
0.0937499999999819
40
0.0937499999999819
40
0.124999999999978
40
0.124999999999978
40
0.18749999999997
40
0.18749999999997
40
0.249999999999963
40
0.249999999999963
40
0.281249999999962
40
0.281249999999962
40
0.312499999999962
40
0.312499999999962
40
0.374999999999965
40
0.374999999999965
40
0.437499999999968
40
0.437499999999968
40
0.499999999999971
40
0.499999999999971
40
0.562499999999973
40
0.562499999999973
40
0.624999999999976
40
0.624999999999976
40
0.687499999999979
40
0.687499999999979
40
0.749999999999982
40
0.749999999999982
40
0.874999999999991
40
0.874999999999991
40
1
40
1
40
1
40
1
41
1
10
267.650480947162
20
-10.7227274845183
30
0
41
1
10
267.642084189611
20
-10.7295879596037
30
0
41
1
10
267.633635577278
20
-10.7358730778356
30
0
41
1
10
267.621331349082
20
-10.7438542779441
30
0
41
1
10
267.617278610407
20
-10.7462841546212
30
0
41
1
10
267.609284196945
20
-10.7506167225577
30
0
41
1
10
267.605312533919
20
-10.7525309641135
30
0
41
1
10
267.59384949108
20
-10.7572404234748
30
0
41
1
10
267.586793021271
20
-10.7590261770081
30
0
41
1
10
267.574217814694
20
-10.7594741859477
30
0
41
1
10
267.568995280752
20
-10.7581391109129
30
0
41
1
10
267.562595860953
20
-10.7540283498179
30
0
41
1
10
267.560701051961
20
-10.7522911875507
30
0
41
1
10
267.557471003325
20
-10.7482678595027
30
0
41
1
10
267.556116901746
20
-10.7459736675136
30
0
41
1
10
267.552741344183
20
-10.7383459141717
30
0
41
1
10
267.551412871276
20
-10.7322137165065
30
0
41
1
10
267.550260898918
20
-10.7189622551599
30
0
41
1
10
267.550404629694
20
-10.7117851145465
30
0
41
1
10
267.551786707427
20
-10.6965886813024
30
0
41
1
10
267.55302900844
20
-10.6885664010898
30
0
41
1
10
267.556428844899
20
-10.6718153503697
30
0
41
1
10
267.558575785074
20
-10.6631531994741
30
0
41
1
10
267.563557184201
20
-10.6455384394763
30
0
41
1
10
267.566399025425
20
-10.6365545230326
30
0
41
1
10
267.5726862554
20
-10.6182825742104
30
0
41
1
10
267.576143791446
20
-10.6089656304781
30
0
41
1
10
267.58354639268
20
-10.5902008455666
30
0
41
1
10
267.587481021919
20
-10.5807754721047
30
0
41
1
10
267.599905559109
20
-10.5523851374547
30
0
41
1
10
267.609009839549
20
-10.5333070438359
30
0
41
1
10
267.628661740995
20
-10.4948880043354
30
0
41
1
10
267.639211392285
20
-10.4755466757476
30
0
41
1
10
267.650480947162
20
-10.4560769820837
30
0
0
SPLINE
5
1A1
100
AcDbEntity
8
1
62
256
6
ByLayer
370
18
48
1
60
0
100
AcDbSpline
70
4
71
3
72
8
73
4
40
0
40
0
40
0
40
0
40
1
40
1
40
1
40
1
41
1
10
267.650480947162
20
-10.4560769820837
30
0
41
1
10
267.880211532645
20
-10.0591860512814
30
0
41
1
10
268.105152654041
20
-9.65871232422131
30
0
41
1
10
268.324759526419
20
-9.25424827025361
30
0
0
SPLINE
5
1A2
100
AcDbEntity
8
1
62
256
6
ByLayer
370
18
48
1
60
0
100
AcDbSpline
70
4
71
3
72
8
73
4
40
0
40
0
40
0
40
0
40
1
40
1
40
1
40
1
41
1
10
268.324759526419
20
-8.91477968744127
30
0
41
1
10
268.10004293855
20
-9.10099187452957
30
0
41
1
10
267.87528177088
20
-9.28713229076214
30
0
41
1
10
267.650480947162
20
-9.47320886309237
30
0
0
SPLINE
5
1A3
100
AcDbEntity
8
1
62
256
6
ByLayer
370
18
48
1
60
0
100
AcDbSpline
70
4
71
3
72
34
73
30
40
0
40
0
40
0
40
0
40
0.0625000000000157
40
0.0625000000000157
40
0.0937500000000254
40
0.0937500000000254
40
0.125000000000035
40
0.125000000000035
40
0.187500000000047
40
0.187500000000047
40
0.250000000000058
40
0.250000000000058
40
0.28125000000006
40
0.28125000000006
40
0.312500000000061
40
0.312500000000061
40
0.375000000000058
40
0.375000000000058
40
0.437500000000054
40
0.437500000000054
40
0.50000000000005
40
0.50000000000005
40
0.625000000000038
40
0.625000000000038
40
0.750000000000025
40
0.750000000000025
40
0.875000000000013
40
0.875000000000013
40
1
40
1
40
1
40
1
41
1
10
267.650480947162
20
-9.4732088630933
30
0
41
1
10
267.641610746045
20
-9.48055108093936
30
0
41
1
10
267.632717594853
20
-9.48709742601486
30
0
41
1
10
267.619328414583
20
-9.49520539499068
30
0
41
1
10
267.614948765931
20
-9.49756171194821
30
0
41
1
10
267.606376490094
20
-9.50149614590956
30
0
41
1
10
267.602156895126
20
-9.50308185095761
30
0
41
1
10
267.590005767027
20
-9.50643292619722
30
0
41
1
10
267.582819857639
20
-9.50675740049098
30
0
41
1
10
267.570335823892
20
-9.50344855594645
30
0
41
1
10
267.565449926247
20
-9.49992936230936
30
0
41
1
10
267.559738856258
20
-9.49254380095775
30
0
41
1
10
267.558096977763
20
-9.48970101832154
30
0
41
1
10
267.555363676397
20
-9.48351861218666
30
0
41
1
10
267.554261456695
20
-9.48017426130508
30
0
41
1
10
267.551618606382
20
-9.46950406988628
30
0
41
1
10
267.55074024509
20
-9.46148862181025
30
0
41
1
10
267.550322100162
20
-9.44464214165072
30
0
41
1
10
267.550767880496
20
-9.43576934561221
30
0
41
1
10
267.552650600946
20
-9.4173396015774
30
0
41
1
10
267.554097560382
20
-9.40774830411803
30
0
41
1
10
267.559624326733
20
-9.37836229807058
30
0
41
1
10
267.564840271178
20
-9.35804580031666
30
0
41
1
10
267.57746663017
20
-9.31641517319008
30
0
41
1
10
267.584781622077
20
-9.29544451247517
30
0
41
1
10
267.600983403359
20
-9.25325825027281
30
0
41
1
10
267.609876729726
20
-9.23204169530254
30
0
41
1
10
267.629096511696
20
-9.18938762024462
30
0
41
1
10
267.639424130324
20
-9.16794990812267
30
0
41
1
10
267.650480947162
20
-9.14640238484057
30
0
0
SPLINE
5
1A4
100
AcDbEntity
8
1
62
256
6
ByLayer
370
18
48
1
60
0
100
AcDbSpline
70
4
71
3
72
8
73
4
40
0
40
0
40
0
40
0
40
1
40
1
40
1
40
1
41
1
10
267.650480947162
20
-9.14640238484057
30
0
41
1
10
267.882352997816
20
-8.69453016127974
30
0
41
1
10
268.107382666912
20
-8.23816651619808
30
0
41
1
10
268.324759526419
20
-7.77677947489215
30
0
0
SPLINE
5
1A5
100
AcDbEntity
8
1
62
256
6
ByLayer
370
18
48
1
60
0
100
AcDbSpline
70
4
71
3
72
8
73
4
40
0
40
0
40
0
40
0
40
1
40
1
40
1
40
1
41
1
10
268.324759526419
20
-7.35146119898471
30
0
41
1
10
268.100191536751
20
-7.5453578173516
30
0
41
1
10
267.875423713527
20
-7.73894510745922
30
0
41
1
10
267.650480947162
20
-7.93226159791718
30
0
0
SPLINE
5
1A6
100
AcDbEntity
8
1
62
256
6
ByLayer
370
18
48
1
60
0
100
AcDbSpline
70
4
71
3
72
39
73
35
40
0
40
0
40
0
40
0
40
0.0312500000000012
40
0.0312500000000012
40
0.0625000000000022
40
0.0625000000000022
40
0.0937500000000033
40
0.0937500000000033
40
0.125000000000004
40
0.125000000000004
40
0.156250000000005
40
0.156250000000005
40
0.187500000000006
40
0.187500000000006
40
0.218750000000007
40
0.218750000000007
40
0.250000000000008
40
0.250000000000008
40
0.28125000000001
40
0.28125000000001
40
0.312500000000011
40
0.312500000000011
40
0.375000000000007
40
0.375000000000007
40
0.500000000000007
40
0.500000000000007
40
0.562500000000007
40
0.562500000000007
40
0.625000000000007
40
0.625000000000007
40
0.750000000000005
40
0.750000000000005
40
0.875000000000002
40
1
40
1
40
1
40
1
41
1
10
267.650480947162
20
-7.93226159791902
30
0
41
1
10
267.645659559596
20
-7.93640511290448
30
0
41
1
10
267.640801078904
20
-7.94027527253456
30
0
41
1
10
267.630992180374
20
-7.94733665601603
30
0
41
1
10
267.626006027204
20
-7.95054470916796
30
0
41
1
10
267.616213206618
20
-7.95591984139031
30
0
41
1
10
267.611384546088
20
-7.95810902100757
30
0
41
1
10
267.601890289183
20
-7.9612844521543
30
0
41
1
10
267.597355810905
20
-7.96222048374622
30
0
41
1
10
267.588820720175
20
-7.96271895541486
30
0
41
1
10
267.584759371
20
-7.96226588251636
30
0
41
1
10
267.577453125654
20
-7.96002560259484
30
0
41
1
10
267.574191909539
20
-7.95826207512442
30
0
41
1
10
267.568356163976
20
-7.95360470919078
30
0
41
1
10
267.565807208947
20
-7.95071591730155
30
0
41
1
10
267.561457307646
20
-7.94421632214596
30
0
41
1
10
267.559626662752
20
-7.9405816268451
30
0
41
1
10
267.556523269336
20
-7.93268665844519
30
0
41
1
10
267.555247510152
20
-7.9284035299882
30
0
41
1
10
267.55319751331
20
-7.91944341403394
30
0
41
1
10
267.552418485904
20
-7.91476360895021
30
0
41
1
10
267.550682498191
20
-7.90023434939587
30
0
41
1
10
267.550325735067
20
-7.88985561336946
30
0
41
1
10
267.550966789172
20
-7.85799228261828
30
0
41
1
10
267.553590221519
20
-7.83558668761304
30
0
41
1
10
267.559524476594
20
-7.80090260273141
30
0
41
1
10
267.561860927053
20
-7.78911380618999
30
0
41
1
10
267.567088729835
20
-7.76542058685163
30
0
41
1
10
267.569973709317
20
-7.75353553285933
30
0
41
1
10
267.579321527427
20
-7.7177809868887
30
0
41
1
10
267.58646953122
20
-7.69381309105472
30
0
41
1
10
267.602267862415
20
-7.64565947793474
30
0
41
1
10
267.619577003328
20
-7.59728693312169
30
0
41
1
10
267.639694160572
20
-7.54851064618569
30
0
41
1
10
267.650480947162
20
-7.52402032861451
30
0
0
SPLINE
5
1A7
100
AcDbEntity
8
1
62
256
6
ByLayer
370
18
48
1
60
0
100
AcDbSpline
70
4
71
3
72
8
73
4
40
0
40
0
40
0
40
0
40
1
40
1
40
1
40
1
41
1
10
267.650480947162
20
-7.52402032861451
30
0
41
1
10
267.886241901321
20
-6.98874871734324
30
0
41
1
10
268.111437539985
20
-6.44762852173562
30
0
41
1
10
268.324759526419
20
-5.89993549292939
30
0
0
SPLINE
5
1A8
100
AcDbEntity
8
1
62
256
6
ByLayer
370
18
48
1
60
0
100
AcDbSpline
70
4
71
3
72
8
73
4
40
0
40
0
40
0
40
0
40
1
40
1
40
1
40
1
41
1
10
268.324759526419
20
-5.3438916153458
30
0
41
1
10
268.100672937923
20
-5.55616259190816
30
0
41
1
10
267.875878259423
20
-5.76742938853343
30
0
41
1
10
267.650480947162
20
-5.97784155830416
30
0
0
SPLINE
5
1A9
100
AcDbEntity
8
1
62
256
6
ByLayer
370
18
48
1
60
0
100
AcDbSpline
70
4
71
3
72
39
73
35
40
0
40
0
40
0
40
0
40
0.0312500000000056
40
0.0312500000000056
40
0.0625000000000111
40
0.0625000000000111
40
0.0781250000000131
40
0.0781250000000131
40
0.0937500000000152
40
0.0937500000000152
40
0.125000000000018
40
0.125000000000018
40
0.156250000000022
40
0.156250000000022
40
0.187500000000025
40
0.187500000000025
40
0.218750000000028
40
0.218750000000028
40
0.250000000000031
40
0.250000000000031
40
0.281250000000034
40
0.281250000000034
40
0.312500000000038
40
0.312500000000038
40
0.375000000000036
40
0.375000000000036
40
0.500000000000029
40
0.500000000000029
40
0.625000000000022
40
0.625000000000022
40
0.750000000000014
40
0.750000000000014
40
0.875000000000007
40
1
40
1
40
1
40
1
41
1
10
267.650480947162
20
-5.97784155830593
30
0
41
1
10
267.645070573186
20
-5.98289223311735
30
0
41
1
10
267.639513106979
20
-5.98757922883834
30
0
41
1
10
267.628225225349
20
-5.99575979951473
30
0
41
1
10
267.622572736455
20
-5.99920331417292
30
0
41
1
10
267.614077225303
20
-6.00309188103947
30
0
41
1
10
267.611222335286
20
-6.00417688359627
30
0
41
1
10
267.605677702528
20
-6.00579678088098
30
0
41
1
10
267.602973531995
20
-6.00634145162715
30
0
41
1
10
267.595073068045
20
-6.00714902252295
30
0
41
1
10
267.590031566255
20
-6.00653248903444
30
0
41
1
10
267.581193349521
20
-6.00322100252211
30
0
41
1
10
267.577280359417
20
-6.00054314112577
30
0
41
1
10
267.570434037439
20
-5.99361295890813
30
0
41
1
10
267.567567506173
20
-5.98945546023654
30
0
41
1
10
267.562642849808
20
-5.98013118363454
30
0
41
1
10
267.560603852079
20
-5.9749764931922
30
0
41
1
10
267.557229405652
20
-5.96419775223481
30
0
41
1
10
267.555875895449
20
-5.95853365972957
30
0
41
1
10
267.553672457203
20
-5.94678901701676
30
0
41
1
10
267.552823959493
20
-5.94070730425935
30
0
41
1
10
267.551532822405
20
-5.92820667992879
30
0
41
1
10
267.551090778585
20
-5.92176918652808
30
0
41
1
10
267.550280304693
20
-5.9022578233627
30
0
41
1
10
267.550409275107
20
-5.88893362627496
30
0
41
1
10
267.552194406003
20
-5.84829137627221
30
0
41
1
10
267.555225580055
20
-5.82031433022186
30
0
41
1
10
267.56364088965
20
-5.76320726547408
30
0
41
1
10
267.568989094997
20
-5.73448453117359
30
0
41
1
10
267.581324248186
20
-5.67689172178731
30
0
41
1
10
267.588324868774
20
-5.64799917338235
30
0
41
1
10
267.603732419277
20
-5.59004840719558
30
0
41
1
10
267.620551977068
20
-5.53193141866862
30
0
41
1
10
267.640038964387
20
-5.47350179980808
30
0
41
1
10
267.650480947162
20
-5.44420748306325
30
0
0
SPLINE
5
1AA
100
AcDbEntity
8
1
62
256
6
ByLayer
370
18
48
1
60
0
100
AcDbSpline
70
4
71
3
72
8
73
4
40
0
40
0
40
0
40
0
40
1
40
1
40
1
40
1
41
1
10
267.650480947162
20
-5.44420748306325
30
0
41
1
10
267.895186418447
20
-4.75770188931241
30
0
41
1
10
268.120774732857
20
-4.06295440434468
30
0
41
1
10
268.324759526419
20
-3.35889309358703
30
0
0
SPLINE
5
1AB
100
AcDbEntity
8
1
62
256
6
ByLayer
370
18
48
1
60
0
100
AcDbSpline
70
4
71
3
72
8
73
4
40
0
40
0
40
0
40
0
40
1
40
1
40
1
40
1
41
1
10
268.324759526419
20
-2.54543529228204
30
0
41
1
10
268.102856207575
20
-2.80812939306756
30
0
41
1
10
267.87789393872
20
-3.067289478254
30
0
41
1
10
267.650480947162
20
-3.32361823496822
30
0
0
SPLINE
5
1AC
100
AcDbEntity
8
1
62
256
6
ByLayer
370
18
48
1
60
0
100
AcDbSpline
70
4
71
3
72
38
73
34
40
0
40
0
40
0
40
0
40
0.0312499999999964
40
0.0312499999999964
40
0.0468749999999946
40
0.0468749999999946
40
0.0624999999999928
40
0.0624999999999928
40
0.0781249999999909
40
0.0781249999999909
40
0.0937499999999891
40
0.0937499999999891
40
0.109374999999987
40
0.109374999999987
40
0.124999999999985
40
0.124999999999985
40
0.156249999999989
40
0.156249999999989
40
0.187499999999993
40
0.187499999999993
40
0.249999999999995
40
0.249999999999995
40
0.312499999999997
40
0.312499999999997
40
0.374999999999999
40
0.374999999999999
40
0.499999999999999
40
0.499999999999999
40
0.624999999999998
40
0.624999999999998
40
0.749999999999997
40
0.749999999999997
40
1
40
1
40
1
40
1
41
1
10
267.650480947163
20
-3.32361823497155
30
0
41
1
10
267.643984522043
20
-3.33094068635302
30
0
41
1
10
267.637087099727
20
-3.3376812441231
30
0
41
1
10
267.626354747428
20
-3.34568070105763
30
0
41
1
10
267.622672786078
20
-3.3480197519207
30
0
41
1
10
267.615227174174
20
-3.3516964069822
30
0
41
1
10
267.611531397854
20
-3.35300455163286
30
0
41
1
10
267.604203715131
20
-3.35436607527083
30
0
41
1
10
267.600638398742
20
-3.35438934468047
30
0
41
1
10
267.593959541195
20
-3.35314067665325
30
0
41
1
10
267.590782123263
20
-3.35184798669397
30
0
41
1
10
267.58507026222
20
-3.34828207327092
30
0
41
1
10
267.582488099225
20
-3.34601133649503
30
0
41
1
10
267.577753050436
20
-3.34070331419866
30
0
41
1
10
267.575612489275
20
-3.33767053930822
30
0
41
1
10
267.569849274635
20
-3.32792028671355
30
0
41
1
10
267.566789889396
20
-3.32043543782285
30
0
41
1
10
267.561775920044
20
-3.30477720344979
30
0
41
1
10
267.559797491318
20
-3.29654262529218
30
0
41
1
10
267.554893629213
20
-3.27104194241088
30
0
41
1
10
267.552983754743
20
-3.25288418124572
30
0
41
1
10
267.550722421526
20
-3.21638791679732
30
0
41
1
10
267.550369579247
20
-3.19789985844957
30
0
41
1
10
267.550648562
20
-3.16061226405216
30
0
41
1
10
267.551290415845
20
-3.14180977373366
30
0
41
1
10
267.5543116466
20
-3.08504763501372
30
0
41
1
10
267.557768451239
20
-3.04673870110838
30
0
41
1
10
267.566574464434
20
-2.96947917110106
30
0
41
1
10
267.571943356467
20
-2.93052277137772
30
0
41
1
10
267.584191791777
20
-2.85208140430834
30
0
41
1
10
267.591049423945
20
-2.81277108989698
30
0
41
1
10
267.613451439318
20
-2.69485960614355
30
0
41
1
10
267.630794068013
20
-2.61615616242861
30
0
41
1
10
267.650480947162
20
-2.53736390968339
30
0
0
SPLINE
5
1AD
100
AcDbEntity
8
1
62
256
6
ByLayer
370
18
48
1
60
0
100
AcDbSpline
70
4
71
3
72
8
73
4
40
0
40
0
40
0
40
0
40
1
40
1
40
1
40
1
41
1
10
267.650480947162
20
-2.53736390968342
30
0
41
1
10
267.936650314553
20
-1.39203615339724
30
0
41
1
10
268.164101740032
20
-0.231555181888524
30
0
41
1
10
268.324759526419
20
0.946163082953575
30
0
0
SPLINE
5
1AE
100
AcDbEntity
8
1
62
256
6
ByLayer
370
18
48
1
60
0
100
AcDbSpline
70
4
71
3
72
10
73
6
40
0
40
0
40
0
40
0
40
0.5
40
0.5
40
1
40
1
40
1
40
1
41
1
10
268.324759526419
20
3.46016437565453
30
0
41
1
10
268.253343637493
20
3.08605222486114
30
0
41
1
10
268.158489259995
20
2.72177884437957
30
0
41
1
10
267.930986544702
20
2.00909684762175
30
0
41
1
10
267.79833441894
20
1.66068982142019
30
0
41
1
10
267.650480947162
20
1.31866386161806
30
0
0
SPLINE
5
1AF
100
AcDbEntity
8
1
62
256
6
ByLayer
370
18
48
1
60
0
100
AcDbSpline
70
4
71
3
72
57
73
53
40
0
40
0
40
0
40
0
40
0.124999999999997
40
0.124999999999997
40
0.249999999999994
40
0.374999999999991
40
0.374999999999991
40
0.499999999999989
40
0.499999999999989
40
0.624999999999986
40
0.624999999999986
40
0.687499999999984
40
0.687499999999984
40
0.749999999999983
40
0.749999999999983
40
0.812499999999982
40
0.812499999999982
40
0.87499999999998
40
0.87499999999998
40
0.906249999999979
40
0.906249999999979
40
0.921874999999979
40
0.921874999999979
40
0.937499999999978
40
0.937499999999978
40
0.945312499999978
40
0.945312499999978
40
0.953124999999978
40
0.953124999999978
40
0.960937499999977
40
0.960937499999977
40
0.964843749999978
40
0.964843749999978
40
0.968749999999978
40
0.968749999999978
40
0.972656249999979
40
0.972656249999979
40
0.976562499999979
40
0.976562499999979
40
0.97851562499998
40
0.97851562499998
40
0.980468749999981
40
0.980468749999981
40
0.982421874999983
40
0.982421874999983
40
0.984374999999984
40
0.984374999999984
40
0.988281249999988
40
0.988281249999988
40
0.992187499999992
40
0.992187499999992
40
1
40
1
40
1
40
1
41
1
10
267.650480947162
20
4.79447758099798
30
0
41
1
10
267.649474914009
20
4.64257282307872
30
0
41
1
10
267.647352403027
20
4.49068193356135
30
0
41
1
10
267.641079448038
20
4.18692895768632
30
0
41
1
10
267.632780577668
20
3.88320479550984
30
0
41
1
10
267.621220285853
20
3.57954243457724
30
0
41
1
10
267.608599227804
20
3.2759140378538
30
0
41
1
10
267.601754923346
20
3.12411680115861
30
0
41
1
10
267.587790157286
20
2.82056059262709
30
0
41
1
10
267.580656945611
20
2.66880154760841
30
0
41
1
10
267.570656270951
20
2.44119674680186
30
0
41
1
10
267.567443146172
20
2.36533413035235
30
0
41
1
10
267.561508805656
20
2.21362161662256
30
0
41
1
10
267.558783648494
20
2.13774767313816
30
0
41
1
10
267.554227791731
20
1.98639807764781
30
0
41
1
10
267.552384521753
20
1.91088208268428
30
0
41
1
10
267.550304819929
20
1.76030544060953
30
0
41
1
10
267.550017507499
20
1.68523525994758
30
0
41
1
10
267.552116127572
20
1.57321938097002
30
0
41
1
10
267.553241725102
20
1.53597982306465
30
0
41
1
10
267.556066196098
20
1.48036217479094
30
0
41
1
10
267.557199844787
20
1.46186376712635
30
0
41
1
10
267.560032561575
20
1.42498249382046
30
0
41
1
10
267.561724621638
20
1.40659831536263
30
0
41
1
10
267.564962866512
20
1.37916042457792
30
0
41
1
10
267.566160648091
20
1.37003783743233
30
0
41
1
10
267.568892543204
20
1.35185807401993
30
0
41
1
10
267.570429233634
20
1.3427729809865
30
0
41
1
10
267.574003223349
20
1.32482961050158
30
0
41
1
10
267.576022559128
20
1.31601943191063
30
0
41
1
10
267.579665375541
20
1.303226955366
30
0
41
1
10
267.580983473112
20
1.2990342987097
30
0
41
1
10
267.583925806698
20
1.29085903674348
30
0
41
1
10
267.585555704597
20
1.28686312506494
30
0
41
1
10
267.589214864265
20
1.27940680909831
30
0
41
1
10
267.591242911041
20
1.27591802146327
30
0
41
1
10
267.596024190781
20
1.26981277473888
30
0
41
1
10
267.598791925149
20
1.2672074496231
30
0
41
1
10
267.603585192062
20
1.26497186906423
30
0
41
1
10
267.605238544653
20
1.26453095266166
30
0
41
1
10
267.608667422955
20
1.26431709371235
30
0
41
1
10
267.61045752744
20
1.26455966997256
30
0
41
1
10
267.613936585578
20
1.26566676014639
30
0
41
1
10
267.615671884936
20
1.26653771797217
30
0
41
1
10
267.61899339339
20
1.26871155502059
30
0
41
1
10
267.620581409002
20
1.27000587963423
30
0
41
1
10
267.625186557665
20
1.27434154931876
30
0
41
1
10
267.628021131566
20
1.27780990186969
30
0
41
1
10
267.633249794904
20
1.28514751172446
30
0
41
1
10
267.635679061346
20
1.28906668056049
30
0
41
1
10
267.642616772462
20
1.30129666549823
30
0
41
1
10
267.646685962344
20
1.30988501247046
30
0
41
1
10
267.650480947162
20
1.31866386161806
30
0
0
SPLINE
5
1B0
100
AcDbEntity
8
1
62
256
6
ByLayer
370
18
48
1
60
0
100
AcDbSpline
70
4
71
3
72
8
73
4
40
0
40
0
40
0
40
0
40
1
40
1
40
1
40
1
41
1
10
267.650480947162
20
4.79447758099798
30
0
41
1
10
267.651388368233
20
4.93149252699865
30
0
41
1
10
267.651388368233
20
5.06850747299933
30
0
41
1
10
267.650480947162
20
5.20552241900003
30
0
0
SPLINE
5
1B1
100
AcDbEntity
8
1
62
256
6
ByLayer
370
18
48
1
60
0
100
AcDbSpline
70
4
71
3
72
59
73
55
40
0
40
0
40
0
40
0
40
0.125
40
0.125
40
0.249999999999999
40
0.374999999999999
40
0.374999999999999
40
0.499999999999999
40
0.499999999999999
40
0.624999999999999
40
0.624999999999999
40
0.687499999999999
40
0.687499999999999
40
0.749999999999999
40
0.749999999999999
40
0.812499999999997
40
0.812499999999997
40
0.843749999999996
40
0.843749999999996
40
0.874999999999995
40
0.874999999999995
40
0.906249999999994
40
0.906249999999994
40
0.921874999999994
40
0.921874999999994
40
0.937499999999993
40
0.937499999999993
40
0.945312499999993
40
0.945312499999993
40
0.953124999999993
40
0.953124999999993
40
0.960937499999992
40
0.960937499999992
40
0.964843749999992
40
0.964843749999992
40
0.968749999999991
40
0.968749999999991
40
0.97265624999999
40
0.97265624999999
40
0.97656249999999
40
0.97656249999999
40
0.97851562499999
40
0.97851562499999
40
0.980468749999991
40
0.980468749999991
40
0.982421874999992
40
0.982421874999992
40
0.984374999999992
40
0.984374999999992
40
0.988281249999995
40
0.988281249999995
40
0.992187499999997
40
0.992187499999997
40
1
40
1
40
1
40
1
41
1
10
267.650480947162
20
5.20552241900003
30
0
41
1
10
267.649474529164
20
5.35748528611745
30
0
41
1
10
267.647350571744
20
5.50946203431766
30
0
41
1
10
267.641070593963
20
5.8134443933796
30
0
41
1
10
267.632760419544
20
6.1174556232813
30
0
41
1
10
267.621178756172
20
6.42152886412006
30
0
41
1
10
267.608531759673
20
6.72563622957614
30
0
41
1
10
267.601672191192
20
6.87770695466017
30
0
41
1
10
267.587676377915
20
7.18188692008744
30
0
41
1
10
267.580530180473
20
7.3339457376463
30
0
41
1
10
267.570536139854
20
7.56160809848325
30
0
41
1
10
267.567328862803
20
7.6374390773324
30
0
41
1
10
267.561413484972
20
7.78896908574683
30
0
41
1
10
267.558701689912
20
7.86466839812874
30
0
41
1
10
267.554167978853
20
8.01590533592238
30
0
41
1
10
267.552334555853
20
8.09144384070041
30
0
41
1
10
267.550799054594
20
8.20458854632426
30
0
41
1
10
267.550492739193
20
8.24227603690912
30
0
41
1
10
267.550469812772
20
8.31758254278574
30
0
41
1
10
267.550750183483
20
8.3552388665517
30
0
41
1
10
267.552208755407
20
8.43023262171329
30
0
41
1
10
267.553373181025
20
8.46757297685465
30
0
41
1
10
267.556275212278
20
8.52319890720378
30
0
41
1
10
267.557437968645
20
8.54167593430694
30
0
41
1
10
267.560336644401
20
8.57844571083461
30
0
41
1
10
267.562065629678
20
8.5967405299597
30
0
41
1
10
267.565365531574
20
8.6239620454221
30
0
41
1
10
267.566584913132
20
8.63299859792525
30
0
41
1
10
267.569361551694
20
8.65096757430697
30
0
41
1
10
267.570921073671
20
8.65991916152188
30
0
41
1
10
267.574516938715
20
8.67745376451637
30
0
41
1
10
267.576547962152
20
8.68605996342842
30
0
41
1
10
267.58021552862
20
8.6985438125873
30
0
41
1
10
267.581543102687
20
8.70263313961809
30
0
41
1
10
267.584510409302
20
8.71059873923645
30
0
41
1
10
267.586161611328
20
8.71450396438112
30
0
41
1
10
267.589888240219
20
8.72177776739397
30
0
41
1
10
267.591955510826
20
8.72516274851063
30
0
41
1
10
267.59684579735
20
8.73100162030158
30
0
41
1
10
267.599637337106
20
8.73338371760605
30
0
41
1
10
267.604411839463
20
8.73527061609735
30
0
41
1
10
267.606061767277
20
8.73560195864567
30
0
41
1
10
267.609492008734
20
8.73560099260331
30
0
41
1
10
267.611227428267
20
8.73526227848524
30
0
41
1
10
267.61463552521
20
8.73400699466953
30
0
41
1
10
267.616332222931
20
8.73307964611334
30
0
41
1
10
267.61955483406
20
8.73084823538693
30
0
41
1
10
267.621102908113
20
8.72953833110853
30
0
41
1
10
267.62560527577
20
8.72517335725428
30
0
41
1
10
267.628363216431
20
8.72174764484254
30
0
41
1
10
267.633516183583
20
8.71443632136825
30
0
41
1
10
267.635914818984
20
8.71053626148276
30
0
41
1
10
267.642693644436
20
8.69852839288203
30
0
41
1
10
267.646722359183
20
8.69003079157756
30
0
41
1
10
267.650480947162
20
8.68133613838154
30
0
0
SPLINE
5
1B2
100
AcDbEntity
8
1
62
256
6
ByLayer
370
18
48
1
60
0
100
AcDbSpline
70
4
71
3
72
10
73
6
40
0
40
0
40
0
40
0
40
0.5
40
0.5
40
1
40
1
40
1
40
1
41
1
10
267.650480947161
20
8.68133613838128
30
0
41
1
10
267.798334418938
20
8.33931017858217
30
0
41
1
10
267.9309865447
20
7.99090315238374
30
0
41
1
10
268.158489259991
20
7.27822115563245
30
0
41
1
10
268.253343637489
20
6.91394777515433
30
0
41
1
10
268.324759526415
20
6.5398356243646
30
0
0
SPLINE
5
1B3
100
AcDbEntity
8
1
62
256
6
ByLayer
370
18
48
1
60
0
100
AcDbSpline
70
4
71
3
72
8
73
4
40
0
40
0
40
0
40
0
40
1
40
1
40
1
40
1
41
1
10
268.324759526419
20
9.05383691704441
30
0
41
1
10
268.164101740032
20
10.2315551818865
30
0
41
1
10
267.936650314553
20
11.3920361533952
30
0
41
1
10
267.650480947162
20
12.5373639096814
30
0
0
SPLINE
5
1B4
100
AcDbEntity
8
1
62
256
6
ByLayer
370
18
48
1
60
0
100
AcDbSpline
70
4
71
3
72
42
73
38
40
0
40
0
40
0
40
0
40
0.249999999999995
40
0.249999999999995
40
0.374999999999992
40
0.374999999999992
40
0.499999999999989
40
0.499999999999989
40
0.624999999999986
40
0.624999999999986
40
0.687499999999985
40
0.687499999999985
40
0.749999999999984
40
0.749999999999984
40
0.781249999999986
40
0.781249999999986
40
0.812499999999987
40
0.812499999999987
40
0.843749999999989
40
0.843749999999989
40
0.85937499999999
40
0.85937499999999
40
0.874999999999991
40
0.874999999999991
40
0.890624999999992
40
0.890624999999992
40
0.906249999999993
40
0.906249999999993
40
0.921874999999994
40
0.921874999999994
40
0.937499999999995
40
0.937499999999995
40
0.953124999999996
40
0.953124999999996
40
0.968749999999996
40
0.968749999999996
40
1
40
1
40
1
40
1
41
1
10
267.650480947161
20
12.5373639096814
30
0
41
1
10
267.63076897837
20
12.6162565780114
30
0
41
1
10
267.61346059995
20
12.6948483875485
30
0
41
1
10
267.591140780514
20
12.8122718609805
30
0
41
1
10
267.584320719394
20
12.8513346156633
30
0
41
1
10
267.572124668301
20
12.9292847102216
30
0
41
1
10
267.566742521326
20
12.9681725752505
30
0
41
1
10
267.557864378318
20
13.045734165456
30
0
41
1
10
267.55434285781
20
13.0844400879732
30
0
41
1
10
267.551271377319
20
13.1421780618722
30
0
41
1
10
267.550630005146
20
13.1612308644048
30
0
41
1
10
267.550377159459
20
13.1988263852376
30
0
41
1
10
267.550757044975
20
13.2173731419204
30
0
41
1
10
267.552486535079
20
13.2446298400147
30
0
41
1
10
267.553258656099
20
13.2536204028758
30
0
41
1
10
267.555324288495
20
13.2713507168479
30
0
41
1
10
267.556619146011
20
13.2801132325754
30
0
41
1
10
267.559941779673
20
13.2971873027499
30
0
41
1
10
267.56194845637
20
13.3054174754382
30
0
41
1
10
267.565733288872
20
13.317079095542
30
0
41
1
10
267.567125496084
20
13.3208510908134
30
0
41
1
10
267.570248978874
20
13.3280968735352
30
0
41
1
10
267.571992418155
20
13.3315905985696
30
0
41
1
10
267.575857623531
20
13.3380349923345
30
0
41
1
10
267.577978928924
20
13.3409948006521
30
0
41
1
10
267.582717557109
20
13.3462264145763
30
0
41
1
10
267.58536880188
20
13.3485166992707
30
0
41
1
10
267.591140283969
20
13.3520175053925
30
0
41
1
10
267.594278886941
20
13.3532465409791
30
0
41
1
10
267.601038610781
20
13.354412808647
30
0
41
1
10
267.604547324229
20
13.3543357984648
30
0
41
1
10
267.611812347963
20
13.3529157629825
30
0
41
1
10
267.615579957294
20
13.3515498926697
30
0
41
1
10
267.622949675614
20
13.3478528590445
30
0
41
1
10
267.626634528599
20
13.3454932373672
30
0
41
1
10
267.637401170667
20
13.3374023255902
30
0
41
1
10
267.644079218297
20
13.3308339493784
30
0
41
1
10
267.650480947162
20
13.3236182349662
30
0
0
SPLINE
5
1B5
100
AcDbEntity
8
1
62
256
6
ByLayer
370
18
48
1
60
0
100
AcDbSpline
70
4
71
3
72
8
73
4
40
0
40
0
40
0
40
0
40
1
40
1
40
1
40
1
41
1
10
267.650480947162
20
13.3236182349662
30
0
41
1
10
267.877893938717
20
13.0672894782553
30
0
41
1
10
268.102856207569
20
12.8081293930722
30
0
41
1
10
268.324759526411
20
12.5454352922901
30
0
0
SPLINE
5
1B6
100
AcDbEntity
8
1
62
256
6
ByLayer
370
18
48
1
60
0
100
AcDbSpline
70
4
71
3
72
8
73
4
40
0
40
0
40
0
40
0
40
1
40
1
40
1
40
1
41
1
10
268.324759526419
20
13.358893093585
30
0
41
1
10
268.120774732857
20
14.0629544043427
30
0
41
1
10
267.895186418447
20
14.7577018893104
30
0
41
1
10
267.650480947162
20
15.4442074830613
30
0
0
SPLINE
5
1B7
100
AcDbEntity
8
1
62
256
6
ByLayer
370
18
48
1
60
0
100
AcDbSpline
70
4
71
3
72
40
73
36
40
0
40
0
40
0
40
0
40
0.125000000000016
40
0.125000000000016
40
0.250000000000033
40
0.250000000000033
40
0.375000000000049
40
0.375000000000049
40
0.500000000000065
40
0.500000000000065
40
0.56250000000007
40
0.56250000000007
40
0.625000000000075
40
0.625000000000075
40
0.68750000000008
40
0.68750000000008
40
0.750000000000085
40
0.750000000000085
40
0.781250000000078
40
0.781250000000078
40
0.812500000000071
40
0.812500000000071
40
0.843750000000064
40
0.843750000000064
40
0.875000000000057
40
0.875000000000057
40
0.90625000000005
40
0.90625000000005
40
0.921875000000046
40
0.921875000000046
40
0.937500000000043
40
0.937500000000043
40
0.968750000000021
40
0.968750000000021
40
1
40
1
40
1
40
1
41
1
10
267.650480947162
20
15.4442074830613
30
0
41
1
10
267.640025010736
20
15.4735409458817
30
0
41
1
10
267.630210989746
20
15.5029673076436
30
0
41
1
10
267.611958545041
20
15.5616002322836
30
0
41
1
10
267.603523410692
20
15.590786552844
30
0
41
1
10
267.588102337404
20
15.6488854928156
30
0
41
1
10
267.581113785878
20
15.6777985452109
30
0
41
1
10
267.5688291768
20
15.7353093306313
30
0
41
1
10
267.56352332279
20
15.7639086554232
30
0
41
1
10
267.557268698593
20
15.8064991466686
30
0
41
1
10
267.555468305322
20
15.8206822963944
30
0
41
1
10
267.552619223369
20
15.8486113407315
30
0
41
1
10
267.551563972929
20
15.8623801284264
30
0
41
1
10
267.550399909879
20
15.8894214732832
30
0
41
1
10
267.550285829804
20
15.9026966836883
30
0
41
1
10
267.55138586223
20
15.9285585052088
30
0
41
1
10
267.552608640832
20
15.941233130268
30
0
41
1
10
267.555948456209
20
15.9588608230573
30
0
41
1
10
267.557314290988
20
15.9645185412792
30
0
41
1
10
267.560709973981
20
15.975262942648
30
0
41
1
10
267.562757184409
20
15.9803881681504
30
0
41
1
10
267.567691285185
20
15.989647309683
30
0
41
1
10
267.570555797839
20
15.993760395916
30
0
41
1
10
267.577358112121
20
16.0005969404041
30
0
41
1
10
267.581328265331
20
16.0032995526677
30
0
41
1
10
267.590209516905
20
16.0065701580038
30
0
41
1
10
267.595238130169
20
16.0071547338818
30
0
41
1
10
267.603144568995
20
16.0063121242087
30
0
41
1
10
267.605853809948
20
16.0057558877133
30
0
41
1
10
267.611415566325
20
16.0041091466667
30
0
41
1
10
267.614249175209
20
16.0030206655193
30
0
41
1
10
267.622685087213
20
15.9991362853469
30
0
41
1
10
267.628307688267
20
15.9957046891447
30
0
41
1
10
267.639550729521
20
15.9875472607242
30
0
41
1
10
267.645089621271
20
15.982874451409
30
0
41
1
10
267.650480947162
20
15.9778415583039
30
0
0
SPLINE
5
1B8
100
AcDbEntity
8
1
62
256
6
ByLayer
370
18
48
1
60
0
100
AcDbSpline
70
4
71
3
72
8
73
4
40
0
40
0
40
0
40
0
40
1
40
1
40
1
40
1
41
1
10
267.650480947162
20
15.9778415583022
30
0
41
1
10
267.875878259423
20
15.7674293885314
30
0
41
1
10
268.100672937923
20
15.5561625919062
30
0
41
1
10
268.324759526419
20
15.3438916153438
30
0
0
SPLINE
5
1B9
100
AcDbEntity
8
1
62
256
6
ByLayer
370
18
48
1
60
0
100
AcDbSpline
70
4
71
3
72
8
73
4
40
0
40
0
40
0
40
0
40
1
40
1
40
1
40
1
41
1
10
268.324759526419
20
15.8999354929274
30
0
41
1
10
268.111437539985
20
16.4476285217336
30
0
41
1
10
267.886241901321
20
16.9887487173412
30
0
41
1
10
267.650480947162
20
17.5240203286125
30
0
0
SPLINE
5
1BA
100
AcDbEntity
8
1
62
256
6
ByLayer
370
18
48
1
60
0
100
AcDbSpline
70
4
71
3
72
40
73
36
40
0
40
0
40
0
40
0
40
0.125000000000012
40
0.125000000000012
40
0.250000000000024
40
0.250000000000024
40
0.375000000000036
40
0.375000000000036
40
0.500000000000049
40
0.500000000000049
40
0.562500000000046
40
0.562500000000046
40
0.625000000000043
40
0.625000000000043
40
0.687500000000041
40
0.687500000000041
40
0.718750000000036
40
0.718750000000036
40
0.750000000000032
40
0.750000000000032
40
0.781250000000028
40
0.781250000000028
40
0.812500000000024
40
0.812500000000024
40
0.84375000000002
40
0.84375000000002
40
0.875000000000016
40
0.875000000000016
40
0.906250000000012
40
0.906250000000012
40
0.937500000000008
40
0.937500000000008
40
0.968750000000004
40
0.968750000000004
40
1
40
1
40
1
40
1
41
1
10
267.650480947162
20
17.5240203286125
30
0
41
1
10
267.639690471916
20
17.5485190209084
30
0
41
1
10
267.629613916005
20
17.5729486554878
30
0
41
1
10
267.610849297583
20
17.621668938141
30
0
41
1
10
267.602160592807
20
17.6459596622946
30
0
41
1
10
267.586289625029
20
17.6943887125289
30
0
41
1
10
267.579096154492
20
17.7185525224906
30
0
41
1
10
267.566584682111
20
17.7665924147556
30
0
41
1
10
267.561339273704
20
17.7901565661233
30
0
41
1
10
267.555481361028
20
17.8246060554291
30
0
41
1
10
267.553867302615
20
17.8359382479908
30
0
41
1
10
267.551487852271
20
17.8582271487085
30
0
41
1
10
267.550718615151
20
17.8692396521943
30
0
41
1
10
267.550336211257
20
17.8904892822458
30
0
41
1
10
267.550714779598
20
17.9006787514825
30
0
41
1
10
267.552465551096
20
17.915065565047
30
0
41
1
10
267.553248182532
20
17.9197101977648
30
0
41
1
10
267.555309097648
20
17.9286248501674
30
0
41
1
10
267.556593904736
20
17.9329010995036
30
0
41
1
10
267.559717301251
20
17.9407756166944
30
0
41
1
10
267.561559358519
20
17.9444002494733
30
0
41
1
10
267.565937706079
20
17.9508777423318
30
0
41
1
10
267.568504767017
20
17.9537519025173
30
0
41
1
10
267.574349248947
20
17.9583575070409
30
0
41
1
10
267.577621102576
20
17.9601034727094
30
0
41
1
10
267.584977180313
20
17.9623048822328
30
0
41
1
10
267.589008029016
20
17.9627276846827
30
0
41
1
10
267.597554413792
20
17.962188306638
30
0
41
1
10
267.602165047508
20
17.9612103113984
30
0
41
1
10
267.61156352127
20
17.9580305278126
30
0
41
1
10
267.616343834585
20
17.9558532438602
30
0
41
1
10
267.626039774226
20
17.9505209964743
30
0
41
1
10
267.630992916634
20
17.9473363627041
30
0
41
1
10
267.640809613647
20
17.9402688914584
30
0
41
1
10
267.64566607499
20
17.9363995135527
30
0
41
1
10
267.650480947162
20
17.9322615979162
30
0
0
SPLINE
5
1BB
100
AcDbEntity
8
1
62
256
6
ByLayer
370
18
48
1
60
0
100
AcDbSpline
70
4
71
3
72
8
73
4
40
0
40
0
40
0
40
0
40
1
40
1
40
1
40
1
41
1
10
267.650480947162
20
17.9322615979152
30
0
41
1
10
267.875423713527
20
17.7389451074572
30
0
41
1
10
268.100191536751
20
17.5453578173496
30
0
41
1
10
268.324759526419
20
17.3514611989827
30
0
0
SPLINE
5
1BC
100
AcDbEntity
8
1
62
256
6
ByLayer
370
18
48
1
60
0
100
AcDbSpline
70
4
71
3
72
8
73
4
40
0
40
0
40
0
40
0
40
1
40
1
40
1
40
1
41
1
10
268.324759526419
20
17.7767794748902
30
0
41
1
10
268.107382666912
20
18.2381665161961
30
0
41
1
10
267.882352997816
20
18.6945301612777
30
0
41
1
10
267.650480947162
20
19.1464023848386
30
0
0
SPLINE
5
1BD
100
AcDbEntity
8
1
62
256
6
ByLayer
370
18
48
1
60
0
100
AcDbSpline
70
4
71
3
72
40
73
36
40
0
40
0
40
0
40
0
40
0.125000000000006
40
0.125000000000006
40
0.250000000000012
40
0.250000000000012
40
0.375000000000018
40
0.375000000000018
40
0.437500000000024
40
0.437500000000024
40
0.500000000000029
40
0.500000000000029
40
0.562500000000035
40
0.562500000000035
40
0.62500000000004
40
0.62500000000004
40
0.687500000000045
40
0.687500000000045
40
0.71875000000004
40
0.71875000000004
40
0.750000000000034
40
0.750000000000034
40
0.781250000000028
40
0.781250000000028
40
0.812500000000023
40
0.812500000000023
40
0.843750000000017
40
0.843750000000017
40
0.875000000000012
40
0.875000000000012
40
0.9375
40
0.9375
40
0.96875
40
0.96875
40
1
40
1
40
1
40
1
41
1
10
267.650480947162
20
19.1464023848386
30
0
41
1
10
267.639414958228
20
19.1679677827009
30
0
41
1
10
267.629040809079
20
19.1894982781832
30
0
41
1
10
267.609683150239
20
19.2324844320546
30
0
41
1
10
267.600665700982
20
19.2540304822569
30
0
41
1
10
267.584409180772
20
19.2964716606374
30
0
41
1
10
267.577153956557
20
19.3173783954791
30
0
41
1
10
267.56784509696
20
19.34817408247
30
0
41
1
10
267.565006721944
20
19.3583444727699
30
0
41
1
10
267.55994833633
20
19.3784644888763
30
0
41
1
10
267.557723039423
20
19.3884367390233
30
0
41
1
10
267.554054354314
20
19.408013781379
30
0
41
1
10
267.552625671844
20
19.4175304795205
30
0
41
1
10
267.550759790623
20
19.4359026326863
30
0
41
1
10
267.550318779816
20
19.4447605718952
30
0
41
1
10
267.550749497916
20
19.4616056545869
30
0
41
1
10
267.551636822927
20
19.4696104377058
30
0
41
1
10
267.554281873644
20
19.4802400051818
30
0
41
1
10
267.555383473851
20
19.4835703154132
30
0
41
1
10
267.55811068237
20
19.4897250071953
30
0
41
1
10
267.559751087798
20
19.4925672484098
30
0
41
1
10
267.5635955558
20
19.4975235357771
30
0
41
1
10
267.565792502249
20
19.4996397405518
30
0
41
1
10
267.570810054821
20
19.5030524418837
30
0
41
1
10
267.573662929114
20
19.5043510856056
30
0
41
1
10
267.579852338378
20
19.505948937452
30
0
41
1
10
267.583198210382
20
19.5062662734105
30
0
41
1
10
267.59039654148
20
19.5059318013028
30
0
41
1
10
267.594295692839
20
19.5052651393155
30
0
41
1
10
267.606418497699
20
19.5018746224366
30
0
41
1
10
267.61493133613
20
19.4978669254711
30
0
41
1
10
267.628201605806
20
19.4898327177069
30
0
41
1
10
267.632697891773
20
19.4868155998186
30
0
41
1
10
267.641605111238
20
19.4803478822283
30
0
41
1
10
267.646047713552
20
19.476878426666
30
0
41
1
10
267.650480947162
20
19.4732088630909
30
0
0
SPLINE
5
1BE
100
AcDbEntity
8
1
62
256
6
ByLayer
370
18
48
1
60
0
100
AcDbSpline
70
4
71
3
72
8
73
4
40
0
40
0
40
0
40
0
40
1
40
1
40
1
40
1
41
1
10
267.650480947162
20
19.4732088630904
30
0
41
1
10
267.87528177088
20
19.2871322907601
30
0
41
1
10
268.10004293855
20
19.1009918745276
30
0
41
1
10
268.324759526419
20
18.9147796874393
30
0
0
SPLINE
5
1BF
100
AcDbEntity
8
1
62
256
6
ByLayer
370
18
48
1
60
0
100
AcDbSpline
70
4
71
3
72
8
73
4
40
0
40
0
40
0
40
0
40
1
40
1
40
1
40
1
41
1
10
268.324759526419
20
19.2542482702516
30
0
41
1
10
268.105152654041
20
19.6587123242193
30
0
41
1
10
267.880211532645
20
20.0591860512794
30
0
41
1
10
267.650480947162
20
20.4560769820817
30
0
0
SPLINE
5
1C0
100
AcDbEntity
8
1
62
256
6
ByLayer
370
18
48
1
60
0
100
AcDbSpline
70
4
71
3
72
39
73
35
40
0
40
0
40
0
40
0
40
0.124999999999992
40
0.124999999999992
40
0.249999999999984
40
0.249999999999984
40
0.374999999999976
40
0.374999999999976
40
0.437499999999979
40
0.437499999999979
40
0.499999999999983
40
0.499999999999983
40
0.562499999999986
40
0.562499999999986
40
0.593749999999987
40
0.593749999999987
40
0.624999999999989
40
0.624999999999989
40
0.687499999999992
40
0.687499999999992
40
0.718749999999994
40
0.718749999999994
40
0.749999999999996
40
0.749999999999996
40
0.781249999999997
40
0.781249999999997
40
0.812499999999999
40
0.843750000000001
40
0.843750000000001
40
0.875000000000003
40
0.875000000000003
40
0.937500000000001
40
0.937500000000001
40
1
40
1
40
1
40
1
41
1
10
267.650480947162
20
20.4560769820817
30
0
41
1
10
267.639193035731
20
20.4755783891974
30
0
41
1
10
267.628590160519
20
20.4950150972991
30
0
41
1
10
267.608789608101
20
20.5337506274611
30
0
41
1
10
267.59955440175
20
20.5531394770011
30
0
41
1
10
267.582996045851
20
20.5910738569017
30
0
41
1
10
267.575636447461
20
20.6096683647388
30
0
41
1
10
267.566297083473
20
20.6368716168542
30
0
41
1
10
267.563469944102
20
20.645823579613
30
0
41
1
10
267.558498129876
20
20.6634519327057
30
0
41
1
10
267.556355985995
20
20.6721338879727
30
0
41
1
10
267.552992495483
20
20.6887880727997
30
0
41
1
10
267.551755667217
20
20.6968054930664
30
0
41
1
10
267.550731607718
20
20.7082552465143
30
0
41
1
10
267.550529643809
20
20.7119751829301
30
0
41
1
10
267.550447718715
20
20.719192264215
30
0
41
1
10
267.550569803588
20
20.7227031448452
30
0
41
1
10
267.551489172924
20
20.7326767960523
30
0
41
1
10
267.552823866437
20
20.738626638057
30
0
41
1
10
267.556235634613
20
20.7461914297898
30
0
41
1
10
267.557622786118
20
20.7484972729619
30
0
41
1
10
267.560888621489
20
20.7524800239245
30
0
41
1
10
267.562763444322
20
20.7541622265607
30
0
41
1
10
267.567039967856
20
20.7568546457296
30
0
41
1
10
267.569461523802
20
20.7578691446217
30
0
41
1
10
267.574799687778
20
20.7591280609581
30
0
41
1
10
267.580567979247
20
20.7596147878297
30
0
41
1
10
267.587174135165
20
20.7586005535325
30
0
41
1
10
267.594197904459
20
20.7568396148934
30
0
41
1
10
267.597925489672
20
20.755576485667
30
0
41
1
10
267.609307892352
20
20.7508672481523
30
0
41
1
10
267.617324482498
20
20.7464633141769
30
0
41
1
10
267.63384879861
20
20.7357246214987
30
0
41
1
10
267.642150093394
20
20.7295341136668
30
0
41
1
10
267.650480947162
20
20.7227274845166
30
0
0
SPLINE
5
1C1
100
AcDbEntity
8
1
62
256
6
ByLayer
370
18
48
1
60
0
100
AcDbSpline
70
4
71
3
72
8
73
4
40
0
40
0
40
0
40
0
40
1
40
1
40
1
40
1
41
1
10
267.650480947162
20
20.7227274845163
30
0
41
1
10
267.875242279349
20
20.5390887989475
30
0
41
1
10
268.10000187134
20
20.3554472734947
30
0
41
1
10
268.324759526419
20
20.1718025873648
30
0
0
SPLINE
5
1C2
100
AcDbEntity
8
1
62
256
6
ByLayer
370
18
48
1
60
0
100
AcDbSpline
70
4
71
3
72
8
73
4
40
0
40
0
40
0
40
0
40
1
40
1
40
1
40
1
41
1
10
268.324759526419
20
20.4473652688725
30
0
41
1
10
268.103764009202
20
20.810559849515
30
0
41
1
10
267.878876276632
20
21.1705149416575
30
0
41
1
10
267.650480947162
20
21.5275506630082
30
0
0
SPLINE
5
1C3
100
AcDbEntity
8
1
62
256
6
ByLayer
370
18
48
1
60
0
100
AcDbSpline
70
4
71
3
72
41
73
37
40
0
40
0
40
0
40
0
40
0.124999999999993
40
0.124999999999993
40
0.187499999999991
40
0.187499999999991
40
0.249999999999989
40
0.249999999999989
40
0.37499999999999
40
0.37499999999999
40
0.437499999999994
40
0.437499999999994
40
0.499999999999997
40
0.499999999999997
40
0.5625
40
0.5625
40
0.625000000000004
40
0.625000000000004
40
0.656250000000001
40
0.656250000000001
40
0.687499999999998
40
0.687499999999998
40
0.718749999999996
40
0.718749999999996
40
0.749999999999993
40
0.749999999999993
40
0.812499999999995
40
0.812499999999995
40
0.843749999999999
40
0.843749999999999
40
0.875000000000002
40
0.906250000000005
40
0.906250000000005
40
0.937500000000008
40
0.937500000000008
40
1
40
1
40
1
40
1
41
1
10
267.650480947162
20
21.5275506630082
30
0
41
1
10
267.638981804677
20
21.5455265324862
30
0
41
1
10
267.62814548197
20
21.5634206151335
30
0
41
1
10
267.612939206481
20
21.5901281849016
30
0
41
1
10
267.608042788563
20
21.5990169496362
30
0
41
1
10
267.598721928768
20
21.6165648982937
30
0
41
1
10
267.594284643271
20
21.6252457634564
30
0
41
1
10
267.581686936374
20
21.6509896479133
30
0
41
1
10
267.574223281786
20
21.6677610781076
30
0
41
1
10
267.564837577099
20
21.6921604462431
30
0
41
1
10
267.562006278076
20
21.7001981661694
30
0
41
1
10
267.557184605238
20
21.7156477088197
30
0
41
1
10
267.555179368067
20
21.7230904973054
30
0
41
1
10
267.552137250522
20
21.7373043165403
30
0
41
1
10
267.551097322754
20
21.7440774273179
30
0
41
1
10
267.550263647968
20
21.7567617390182
30
0
41
1
10
267.550482593648
20
21.7625191878583
30
0
41
1
10
267.551971457481
20
21.7700613230126
30
0
41
1
10
267.552662227263
20
21.7723934928267
30
0
41
1
10
267.554488589318
20
21.7766425722041
30
0
41
1
10
267.555629696968
20
21.7785582671364
30
0
41
1
10
267.558347744801
20
21.7818281742801
30
0
41
1
10
267.559929168047
20
21.7831969176469
30
0
41
1
10
267.563569638857
20
21.7853637195273
30
0
41
1
10
267.565645521329
20
21.7861647789775
30
0
41
1
10
267.572537810431
20
21.7876065271326
30
0
41
1
10
267.57792665398
20
21.7872966647596
30
0
41
1
10
267.587151619285
20
21.7850110816928
30
0
41
1
10
267.590446302725
20
21.7839313072065
30
0
41
1
10
267.597241521147
20
21.7812338486892
30
0
41
1
10
267.604247829043
20
21.7780072079674
30
0
41
1
10
267.61163322165
20
21.7738322488314
30
0
41
1
10
267.619193271317
20
21.7692211157913
30
0
41
1
10
267.623071327699
20
21.7666886267628
30
0
41
1
10
267.634714931172
20
21.7586489532184
30
0
41
1
10
267.642563586242
20
21.7526628820382
30
0
41
1
10
267.650480947162
20
21.7461799915712
30
0
0
SPLINE
5
1C4
100
AcDbEntity
8
1
62
256
6
ByLayer
370
18
48
1
60
0
100
AcDbSpline
70
4
71
3
72
8
73
4
40
0
40
0
40
0
40
0
40
1
40
1
40
1
40
1
41
1
10
267.650480947162
20
21.746179991571
30
0
41
1
10
267.875247737629
20
21.562136533402
30
0
41
1
10
268.100007511727
20
21.3780816494056
30
0
41
1
10
268.324759526419
20
21.1940141333138
30
0
0
SPLINE
5
1C5
100
AcDbEntity
8
1
62
256
6
ByLayer
370
18
48
1
60
0
100
AcDbSpline
70
4
71
3
72
8
73
4
40
0
40
0
40
0
40
0
40
1
40
1
40
1
40
1
41
1
10
268.324759526419
20
21.4182396666015
30
0
41
1
10
268.10282976625
20
21.7496954266897
30
0
41
1
10
267.87797677687
20
22.0784874839763
30
0
41
1
10
267.650480947162
20
22.4048713342148
30
0
0
SPLINE
5
1C6
100
AcDbEntity
8
1
62
256
6
ByLayer
370
18
48
1
60
0
100
AcDbSpline
70
4
71
3
72
34
73
30
40
0
40
0
40
0
40
0
40
0.125000000000022
40
0.125000000000022
40
0.250000000000043
40
0.250000000000043
40
0.312500000000049
40
0.312500000000049
40
0.375000000000055
40
0.375000000000055
40
0.500000000000053
40
0.500000000000053
40
0.562500000000054
40
0.562500000000054
40
0.625000000000054
40
0.625000000000054
40
0.687500000000055
40
0.687500000000055
40
0.718750000000053
40
0.718750000000053
40
0.750000000000052
40
0.750000000000052
40
0.812500000000039
40
0.812500000000039
40
0.875000000000026
40
0.875000000000026
40
0.937500000000013
40
0.937500000000013
40
1
40
1
40
1
40
1
41
1
10
267.650480947162
20
22.4048713342148
30
0
41
1
10
267.638779782576
20
22.4216587678777
30
0
41
1
10
267.627693116502
20
22.4383758860397
30
0
41
1
10
267.607002473869
20
22.4714107933071
30
0
41
1
10
267.597504579954
20
22.4875524832548
30
0
41
1
10
267.584701626499
20
22.5111204626926
30
0
41
1
10
267.580676613219
20
22.51886815968
30
0
41
1
10
267.57317678391
20
22.534117596637
30
0
41
1
10
267.569687169971
20
22.5416532144359
30
0
41
1
10
267.560306547286
20
22.5635746306852
30
0
41
1
10
267.555515793997
20
22.5771559030119
30
0
41
1
10
267.551444442405
20
22.595334081103
30
0
41
1
10
267.550629414815
20
22.6010158296469
30
0
41
1
10
267.550369704541
20
22.6110410235747
30
0
41
1
10
267.550906911697
20
22.6154408318432
30
0
41
1
10
267.553649785601
20
22.6227119306327
30
0
41
1
10
267.555833495619
20
22.6254796389081
30
0
41
1
10
267.560418657478
20
22.6281044544232
30
0
41
1
10
267.562180578905
20
22.6287302685921
30
0
41
1
10
267.56612484049
20
22.6294299988251
30
0
41
1
10
267.568286199411
20
22.6295043011137
30
0
41
1
10
267.575316333567
20
22.6289333978017
30
0
41
1
10
267.580743615077
20
22.6274928474914
30
0
41
1
10
267.592956646791
20
22.6225760263917
30
0
41
1
10
267.599500450861
20
22.619204439913
30
0
41
1
10
267.613308831924
20
22.6109620758313
30
0
41
1
10
267.620630234375
20
22.606041751765
30
0
41
1
10
267.635395579301
20
22.5952630873188
30
0
41
1
10
267.642891402848
20
22.5893789353738
30
0
41
1
10
267.650480947162
20
22.5830864488526
30
0
0
SPLINE
5
1C7
100
AcDbEntity
8
1
62
256
6
ByLayer
370
18
48
1
60
0
100
AcDbSpline
70
4
71
3
72
8
73
4
40
0
40
0
40
0
40
0
40
1
40
1
40
1
40
1
41
1
10
267.650480947162
20
22.5830864488525
30
0
41
1
10
267.87527835498
20
22.3967070563399
30
0
41
1
10
268.100039125586
20
22.2102687278766
30
0
41
1
10
268.324759526419
20
22.0237655573015
30
0
0
SPLINE
5
1C8
100
AcDbEntity
8
1
62
256
6
ByLayer
370
18
48
1
60
0
100
AcDbSpline
70
4
71
3
72
8
73
4
40
0
40
0
40
0
40
0
40
1
40
1
40
1
40
1
41
1
10
268.324759526419
20
22.204537010625
30
0
41
1
10
268.102167049584
20
22.5105841760984
30
0
41
1
10
267.877337890168
20
22.8144257977403
30
0
41
1
10
267.650480947162
20
23.1162678662809
30
0
0
SPLINE
5
1C9
100
AcDbEntity
8
1
62
256
6
ByLayer
370
18
48
1
60
0
100
AcDbSpline
70
4
71
3
72
41
73
37
40
0
40
0
40
0
40
0
40
0.0624999999999923
40
0.0624999999999923
40
0.124999999999985
40
0.124999999999985
40
0.249999999999968
40
0.249999999999968
40
0.312499999999961
40
0.312499999999961
40
0.374999999999953
40
0.374999999999953
40
0.437499999999946
40
0.468749999999942
40
0.468749999999942
40
0.499999999999938
40
0.499999999999938
40
0.562499999999945
40
0.562499999999945
40
0.624999999999952
40
0.624999999999952
40
0.687499999999959
40
0.687499999999959
40
0.749999999999966
40
0.749999999999966
40
0.781249999999971
40
0.781249999999971
40
0.812499999999976
40
0.812499999999976
40
0.874999999999993
40
0.874999999999993
40
0.906249999999995
40
0.906249999999995
40
0.937499999999997
40
0.937499999999997
40
1
40
1
40
1
40
1
41
1
10
267.650480947162
20
23.1162678662809
30
0
41
1
10
267.644530707472
20
23.1241848937809
30
0
41
1
10
267.638734660478
20
23.1320661881953
30
0
41
1
10
267.627462614209
20
23.1477537676436
30
0
41
1
10
267.621983627572
20
23.1555655854387
30
0
41
1
10
267.606226071217
20
23.1786319055686
30
0
41
1
10
267.59655639816
20
23.1936038516683
30
0
41
1
10
267.583525644729
20
23.2153410699508
30
0
41
1
10
267.579429881242
20
23.2224656317329
30
0
41
1
10
267.571814377828
20
23.2364325284516
30
0
41
1
10
267.568318980523
20
23.2432345542663
30
0
41
1
10
267.562151731737
20
23.2562021368559
30
0
41
1
10
267.558116055743
20
23.2654991328189
30
0
41
1
10
267.555124307769
20
23.2740375850832
30
0
41
1
10
267.553390593519
20
23.2795405045759
30
0
41
1
10
267.552653442229
20
23.2822028365402
30
0
41
1
10
267.550910298472
20
23.2897406107654
30
0
41
1
10
267.550352356246
20
23.2942147484458
30
0
41
1
10
267.550659068286
20
23.3018677379392
30
0
41
1
10
267.551551382702
20
23.3050594781872
30
0
41
1
10
267.554942046485
20
23.3096266601912
30
0
41
1
10
267.55744201508
20
23.311050293669
30
0
41
1
10
267.564147905172
20
23.3119608702209
30
0
41
1
10
267.568227742826
20
23.3114399048519
30
0
41
1
10
267.575359496822
20
23.3093034854215
30
0
41
1
10
267.577906330663
20
23.3083642815707
30
0
41
1
10
267.583336023074
20
23.3060366334098
30
0
41
1
10
267.58621229645
20
23.3046487760981
30
0
41
1
10
267.595094710497
20
23.2999585110487
30
0
41
1
10
267.601422754011
20
23.2961049586603
30
0
41
1
10
267.611436330014
20
23.2893955044807
30
0
41
1
10
267.614876803774
20
23.2869917365583
30
0
41
1
10
267.62181975771
20
23.2819650556364
30
0
41
1
10
267.625327553303
20
23.2793394829965
30
0
41
1
10
267.635948792471
20
23.271161122512
30
0
41
1
10
267.643159471795
20
23.2653086512659
30
0
41
1
10
267.650480947162
20
23.259115910294
30
0
0
SPLINE
5
1CA
100
AcDbEntity
8
1
62
256
6
ByLayer
370
18
48
1
60
0
100
AcDbSpline
70
4
71
3
72
8
73
4
40
0
40
0
40
0
40
0
40
1
40
1
40
1
40
1
41
1
10
267.650480947162
20
23.2591159102939
30
0
41
1
10
267.875326782245
20
23.0689340213245
30
0
41
1
10
268.100089025132
20
22.8786205059014
30
0
41
1
10
268.324759526419
20
22.6881625317602
30
0
0
SPLINE
5
1CB
100
AcDbEntity
8
1
62
256
6
ByLayer
370
18
48
1
60
0
100
AcDbSpline
70
4
71
3
72
8
73
4
40
0
40
0
40
0
40
0
40
1
40
1
40
1
40
1
41
1
10
268.324759526419
20
22.8306924641183
30
0
41
1
10
268.101678442285
20
23.1158055554838
30
0
41
1
10
267.876866272618
20
23.3990877212188
30
0
41
1
10
267.650480947162
20
23.6807059996433
30
0
0
SPLINE
5
1CC
100
AcDbEntity
8
1
62
256
6
ByLayer
370
18
48
1
60
0
100
AcDbSpline
70
4
71
3
72
38
73
34
40
0
40
0
40
0
40
0
40
0.0624999999999957
40
0.0624999999999957
40
0.124999999999991
40
0.124999999999991
40
0.249999999999996
40
0.249999999999996
40
0.312499999999999
40
0.312499999999999
40
0.375000000000003
40
0.375000000000003
40
0.437500000000006
40
0.437500000000006
40
0.50000000000001
40
0.50000000000001
40
0.562500000000013
40
0.562500000000013
40
0.625000000000016
40
0.625000000000016
40
0.68750000000002
40
0.68750000000002
40
0.750000000000023
40
0.750000000000023
40
0.781250000000023
40
0.781250000000023
40
0.812500000000023
40
0.812500000000023
40
0.875000000000015
40
0.875000000000015
40
0.937500000000008
40
0.937500000000008
40
1
40
1
40
1
40
1
41
1
10
267.650480947162
20
23.6807059996433
30
0
41
1
10
267.644435066045
20
23.6882269404479
30
0
41
1
10
267.638541009106
20
23.6956954835835
30
0
41
1
10
267.627070710279
20
23.7105219541035
30
0
41
1
10
267.621478397149
20
23.7179019338325
30
0
41
1
10
267.605382543492
20
23.7396367381094
30
0
41
1
10
267.59552307329
20
23.7536213176671
30
0
41
1
10
267.582291758194
20
23.7736882743315
30
0
41
1
10
267.5781434099
20
23.7802241905292
30
0
41
1
10
267.570463431254
20
23.792935050526
30
0
41
1
10
267.566983467967
20
23.7990266724997
30
0
41
1
10
267.560894095359
20
23.8105111646504
30
0
41
1
10
267.558273629461
20
23.815921115395
30
0
41
1
10
267.554041861199
20
23.8259505318486
30
0
41
1
10
267.552432376485
20
23.8305864249226
30
0
41
1
10
267.550538980103
20
23.8385889334797
30
0
41
1
10
267.550233118891
20
23.8420039082253
30
0
41
1
10
267.551141496283
20
23.8474028832882
30
0
41
1
10
267.552342069686
20
23.8493113044677
30
0
41
1
10
267.556322566543
20
23.8514574493085
30
0
41
1
10
267.559156903261
20
23.8516693992406
30
0
41
1
10
267.566155193741
20
23.8503516061782
30
0
41
1
10
267.57032728413
20
23.8488516643681
30
0
41
1
10
267.57754044284
20
23.845411474337
30
0
41
1
10
267.580121827421
20
23.8440551043974
30
0
41
1
10
267.585487525657
20
23.8410134790055
30
0
41
1
10
267.588275661537
20
23.8393280740413
30
0
41
1
10
267.596927885113
20
23.8338227337166
30
0
41
1
10
267.603078037699
20
23.8295564416243
30
0
41
1
10
267.616050433374
20
23.8199786606828
30
0
41
1
10
267.622764082909
20
23.8147458022593
30
0
41
1
10
267.636420273296
20
23.8036638171362
30
0
41
1
10
267.64338911966
20
23.7977944023928
30
0
41
1
10
267.650480947162
20
23.7916390605843
30
0
0
SPLINE
5
1CD
100
AcDbEntity
8
1
62
256
6
ByLayer
370
18
48
1
60
0
100
AcDbSpline
70
4
71
3
72
8
73
4
40
0
40
0
40
0
40
0
40
1
40
1
40
1
40
1
41
1
10
267.650480947162
20
23.7916390605842
30
0
41
1
10
267.875390693943
20
23.5964289589462
30
0
41
1
10
268.100154848045
20
23.4009956122058
30
0
41
1
10
268.324759526419
20
23.2053177327385
30
0
0
SPLINE
5
1CE
100
AcDbEntity
8
1
62
256
6
ByLayer
370
18
48
1
60
0
100
AcDbSpline
70
4
71
3
72
8
73
4
40
0
40
0
40
0
40
0
40
1
40
1
40
1
40
1
41
1
10
268.324759526419
20
23.3131399205588
30
0
41
1
10
268.101307459449
20
23.5806365366879
30
0
41
1
10
267.876507770666
20
23.8466150387251
30
0
41
1
10
267.650480947162
20
24.1112111569984
30
0
0
SPLINE
5
1CF
100
AcDbEntity
8
1
62
256
6
ByLayer
370
18
48
1
60
0
100
AcDbSpline
70
4
71
3
72
37
73
33
40
0
40
0
40
0
40
0
40
0.124999999999985
40
0.124999999999985
40
0.249999999999969
40
0.249999999999969
40
0.312499999999968
40
0.312499999999968
40
0.374999999999966
40
0.374999999999966
40
0.437499999999964
40
0.437499999999964
40
0.468749999999968
40
0.468749999999968
40
0.499999999999972
40
0.531249999999975
40
0.531249999999975
40
0.562499999999979
40
0.562499999999979
40
0.624999999999986
40
0.624999999999986
40
0.656249999999987
40
0.656249999999987
40
0.687499999999987
40
0.687499999999987
40
0.749999999999988
40
0.749999999999988
40
0.812499999999988
40
0.812499999999988
40
0.874999999999989
40
0.874999999999989
40
1
40
1
40
1
40
1
41
1
10
267.650480947162
20
24.1112111569984
30
0
41
1
10
267.638202144537
20
24.1255852187192
30
0
41
1
10
267.626485867576
20
24.1397144945012
30
0
41
1
10
267.604552320067
20
24.1671510631419
30
0
41
1
10
267.594502099815
20
24.1802445976569
30
0
41
1
10
267.581082092083
20
24.1987490698123
30
0
41
1
10
267.57688735265
20
24.204726067889
30
0
41
1
10
267.569160111633
20
24.2162246159382
30
0
41
1
10
267.565703840037
20
24.2216334116332
30
0
41
1
10
267.559712993625
20
24.2316731893732
30
0
41
1
10
267.557175330865
20
24.2363077732501
30
0
41
1
10
267.554189582967
20
24.2425686008363
30
0
41
1
10
267.55333114082
20
24.2445439196832
30
0
41
1
10
267.551945089713
20
24.2481706791224
30
0
41
1
10
267.55088030604
20
24.2514915212526
30
0
41
1
10
267.550493173189
20
24.2541672783623
30
0
41
1
10
267.550469840073
20
24.2564968771605
30
0
41
1
10
267.55064329357
20
24.2574911476058
30
0
41
1
10
267.551729677775
20
24.2598627622581
30
0
41
1
10
267.553197894126
20
24.2606567256908
30
0
41
1
10
267.556546564706
20
24.2606368151023
30
0
41
1
10
267.557864176504
20
24.2604245190896
30
0
41
1
10
267.560849626481
20
24.2595937482388
30
0
41
1
10
267.562509311232
20
24.2589798099637
30
0
41
1
10
267.567961306001
20
24.256576233021
30
0
41
1
10
267.572230449554
20
24.254223815365
30
0
41
1
10
267.581924074944
20
24.2481356233884
30
0
41
1
10
267.587203153222
20
24.2444931606362
30
0
41
1
10
267.598484907468
20
24.2362099822935
30
0
41
1
10
267.604518790299
20
24.231543271622
30
0
41
1
10
267.623400016941
20
24.2163577993813
30
0
41
1
10
267.636681697517
20
24.2049543935815
30
0
41
1
10
267.650480947162
20
24.1926049128565
30
0
0
SPLINE
5
1D0
100
AcDbEntity
8
1
62
256
6
ByLayer
370
18
48
1
60
0
100
AcDbSpline
70
4
71
3
72
8
73
4
40
0
40
0
40
0
40
0
40
1
40
1
40
1
40
1
41
1
10
267.650480947162
20
24.1926049128565
30
0
41
1
10
267.875470342809
20
23.9912532251719
30
0
41
1
10
268.100236859786
20
23.7895703804282
30
0
41
1
10
268.324759526419
20
23.5875252185428
30
0
0
SPLINE
5
1D1
100
AcDbEntity
8
1
62
256
6
ByLayer
370
18
48
1
60
0
100
AcDbSpline
70
4
71
3
72
8
73
4
40
0
40
0
40
0
40
0
40
1
40
1
40
1
40
1
41
1
10
268.324759526419
20
23.6630274540323
30
0
41
1
10
268.101019214676
20
23.9154654531755
30
0
41
1
10
267.876228917632
20
24.1666509399738
30
0
41
1
10
267.650480947162
20
24.4166940319317
30
0
0
SPLINE
5
1D2
100
AcDbEntity
8
1
62
256
6
ByLayer
370
18
48
1
60
0
100
AcDbSpline
70
4
71
3
72
37
73
33
40
0
40
0
40
0
40
0
40
0.0625000000000138
40
0.0625000000000138
40
0.125000000000027
40
0.125000000000027
40
0.250000000000041
40
0.250000000000041
40
0.312500000000046
40
0.312500000000046
40
0.375000000000052
40
0.406250000000053
40
0.406250000000053
40
0.437500000000055
40
0.437500000000055
40
0.500000000000054
40
0.500000000000054
40
0.531250000000052
40
0.531250000000052
40
0.56250000000005
40
0.56250000000005
40
0.625000000000042
40
0.625000000000042
40
0.687500000000035
40
0.687500000000035
40
0.750000000000028
40
0.750000000000028
40
0.81250000000002
40
0.81250000000002
40
0.875000000000013
40
0.875000000000013
40
1
40
1
40
1
40
1
41
1
10
267.650480947162
20
24.4166940319317
30
0
41
1
10
267.644233516261
20
24.4236138148026
30
0
41
1
10
267.638128791671
20
24.430447242131
30
0
41
1
10
267.626224587923
20
24.4439282469405
30
0
41
1
10
267.620408632679
20
24.4505953398446
30
0
41
1
10
267.603696944729
20
24.4700187730239
30
0
41
1
10
267.593459438986
20
24.4822776869181
30
0
41
1
10
267.579801977808
20
24.499359790976
30
0
41
1
10
267.575513158026
20
24.5048653228659
30
0
41
1
10
267.56782727776
20
24.515076174794
30
0
41
1
10
267.562698992221
20
24.5221718288949
30
0
41
1
10
267.55866279162
20
24.5283005792946
30
0
41
1
10
267.556240243351
20
24.5321488241222
30
0
41
1
10
267.555161120897
20
24.5339584350349
30
0
41
1
10
267.552417952635
20
24.5389021635925
30
0
41
1
10
267.551221826354
20
24.5415884195274
30
0
41
1
10
267.550485616375
20
24.5445985953598
30
0
41
1
10
267.55041909126
20
24.5454340249248
30
0
41
1
10
267.550661814729
20
24.5467128369875
30
0
41
1
10
267.550968230583
20
24.5471605417453
30
0
41
1
10
267.55243913149
20
24.5479324593425
30
0
41
1
10
267.554154903999
20
24.5476875862852
30
0
41
1
10
267.559095757758
20
24.545630029288
30
0
41
1
10
267.562230525272
20
24.5438567909979
30
0
41
1
10
267.569682176899
20
24.5389883407304
30
0
41
1
10
267.574051131848
20
24.535851615374
30
0
41
1
10
267.583612877603
20
24.528557039508
30
0
41
1
10
267.58879748384
20
24.5244110022466
30
0
41
1
10
267.599860114334
20
24.5152650369464
30
0
41
1
10
267.605784818522
20
24.510223577668
30
0
41
1
10
267.624098620595
20
24.4942917137724
30
0
41
1
10
267.637015243457
20
24.482621137557
30
0
41
1
10
267.650480947162
20
24.4701429912246
30
0
0
SPLINE
5
1D3
100
AcDbEntity
8
1
62
256
6
ByLayer
370
18
48
1
60
0
100
AcDbSpline
70
4
71
3
72
8
73
4
40
0
40
0
40
0
40
0
40
1
40
1
40
1
40
1
41
1
10
267.650480947162
20
24.4701429912246
30
0
41
1
10
267.875567648883
20
24.2615638584126
30
0
41
1
10
268.10033706691
20
24.0525298860206
30
0
41
1
10
268.324759526419
20
23.8429985339373
30
0
0
SPLINE
5
1D4
100
AcDbEntity
8
1
62
256
6
ByLayer
370
18
48
1
60
0
100
AcDbSpline
70
4
71
3
72
8
73
4
40
0
40
0
40
0
40
0
40
1
40
1
40
1
40
1
41
1
10
268.324759526419
20
23.8877233606902
30
0
41
1
10
268.100791090601
20
24.1271433496641
30
0
41
1
10
267.876008003165
20
24.3655393957375
30
0
41
1
10
267.650480947162
20
24.6030003410682
30
0
0
SPLINE
5
1D5
100
AcDbEntity
8
1
62
256
6
ByLayer
370
18
48
1
60
0
100
AcDbSpline
70
4
71
3
72
37
73
33
40
0
40
0
40
0
40
0
40
0.125000000000023
40
0.125000000000023
40
0.187500000000027
40
0.187500000000027
40
0.250000000000031
40
0.250000000000031
40
0.312500000000035
40
0.343750000000038
40
0.343750000000038
40
0.37500000000004
40
0.37500000000004
40
0.437500000000037
40
0.437500000000037
40
0.468750000000035
40
0.468750000000035
40
0.500000000000033
40
0.500000000000033
40
0.562500000000027
40
0.562500000000027
40
0.625000000000022
40
0.625000000000022
40
0.687500000000016
40
0.687500000000016
40
0.75000000000001
40
0.75000000000001
40
0.812500000000005
40
0.812500000000005
40
0.874999999999999
40
0.874999999999999
40
1
40
1
40
1
40
1
41
1
10
267.650480947162
20
24.6030003410682
30
0
41
1
10
267.637713524711
20
24.6164433587635
30
0
41
1
10
267.625555134204
20
24.6293990848527
30
0
41
1
10
267.608569850311
20
24.6477688699763
30
0
41
1
10
267.603108564082
20
24.6537238617298
30
0
41
1
10
267.592645038061
20
24.6652469120375
30
0
41
1
10
267.587628553198
20
24.6708318448442
30
0
41
1
10
267.578394061833
20
24.6812540907372
30
0
41
1
10
267.572016535815
20
24.6885648297583
30
0
41
1
10
267.566579562048
20
24.6950058114138
30
0
41
1
10
267.563185659207
20
24.6990862291307
30
0
41
1
10
267.561600856608
20
24.7010238889245
30
0
41
1
10
267.557303071354
20
24.7063893319171
30
0
41
1
10
267.555014755975
20
24.7094065301884
30
0
41
1
10
267.552553203198
20
24.712989484204
30
0
41
1
10
267.551893247071
20
24.7140301161116
30
0
41
1
10
267.550941407315
20
24.7157401602276
30
0
41
1
10
267.550646743412
20
24.7164124694581
30
0
41
1
10
267.550307456757
20
24.7178803359899
30
0
41
1
10
267.550804218982
20
24.7181301453516
30
0
41
1
10
267.553323180194
20
24.7170929258178
30
0
41
1
10
267.555303382755
20
24.7158212919819
30
0
41
1
10
267.560517793468
20
24.7119566589432
30
0
41
1
10
267.563756830219
20
24.7093608741
30
0
41
1
10
267.571431586465
20
24.7029148992639
30
0
41
1
10
267.575773222109
20
24.699143259071
30
0
41
1
10
267.585223568068
20
24.6907486294527
30
0
41
1
10
267.59034747327
20
24.6861125346094
30
0
41
1
10
267.601310018783
20
24.6760560925478
30
0
41
1
10
267.607046357809
20
24.670729424596
30
0
41
1
10
267.624771194315
20
24.6541190568002
30
0
41
1
10
267.637325338165
20
24.6421616074531
30
0
41
1
10
267.650480947162
20
24.6294893682047
30
0
0
SPLINE
5
1D6
100
AcDbEntity
8
1
62
256
6
ByLayer
370
18
48
1
60
0
100
AcDbSpline
70
4
71
3
72
8
73
4
40
0
40
0
40
0
40
0
40
1
40
1
40
1
40
1
41
1
10
267.650480947162
20
24.6294893682047
30
0
41
1
10
267.875685997487
20
24.4125589107658
30
0
41
1
10
268.100458994954
20
24.1950332762271
30
0
41
1
10
268.324759526419
20
23.976856793209
30
0
0
SPLINE
5
1D7
100
AcDbEntity
8
1
62
256
6
ByLayer
370
18
48
1
60
0
100
AcDbSpline
70
4
71
3
72
8
73
4
40
0
40
0
40
0
40
0
40
1
40
1
40
1
40
1
41
1
10
268.324759526419
20
23.991671694455
30
0
41
1
10
268.100607863251
20
24.2197546698699
30
0
41
1
10
267.875830405166
20
24.4470125106987
30
0
41
1
10
267.650480947162
20
24.6735161477096
30
0
0
SPLINE
5
1D8
100
AcDbEntity
8
1
62
256
6
ByLayer
370
18
48
1
60
0
100
AcDbSpline
70
2053
71
3
72
40
73
36
40
0
40
0
40
0
40
0
40
0.0625000000000011
40
0.0625000000000011
40
0.125000000000002
40
0.125000000000002
40
0.250000000000003
40
0.250000000000003
40
0.312500000000003
40
0.312500000000003
40
0.343750000000003
40
0.343750000000003
40
0.375000000000002
40
0.375000000000002
40
0.437500000000002
40
0.437500000000002
40
0.468750000000004
40
0.468750000000004
40
0.500000000000005
40
0.500000000000005
40
0.562500000000008
40
0.562500000000008
40
0.593750000000008
40
0.593750000000008
40
0.625000000000007
40
0.625000000000007
40
0.687500000000006
40
0.687500000000006
40
0.750000000000004
40
0.750000000000004
40
0.812500000000003
40
0.812500000000003
40
0.875000000000001
40
0.875000000000001
40
1
40
1
40
1
40
1
41
1
10
267.650480947162
20
24.6735161477096
30
0
41
1
10
267.643995528497
20
24.6800347829355
30
0
41
1
10
267.637641930968
20
24.6864240983015
30
0
41
1
10
267.625223781212
20
24.6989177330073
30
0
41
1
10
267.619159362558
20
24.7050219490496
30
0
41
1
10
267.601760540395
20
24.7225422830348
30
0
41
1
10
267.591092877904
20
24.7332946246375
30
0
41
1
10
267.576962978984
20
24.7475455477888
30
0
41
1
10
267.572665768936
20
24.7518812199185
30
0
41
1
10
267.566937041454
20
24.7576626687878
30
0
41
1
10
267.565146159727
20
24.7594703034823
30
0
41
1
10
267.561821741835
20
24.7628262012975
30
0
41
1
10
267.560285385348
20
24.7643773132453
30
0
41
1
10
267.556170769704
20
24.7685318245766
30
0
41
1
10
267.554054662599
20
24.7706689842454
30
0
41
1
10
267.551904777519
20
24.7728403855645
30
0
41
1
10
267.551358069514
20
24.7733926014467
30
0
41
1
10
267.550642684802
20
24.7741152032559
30
0
41
1
10
267.550471174801
20
24.7742884504558
30
0
41
1
10
267.550501778366
20
24.7742575373627
30
0
41
1
10
267.551246131199
20
24.7735056170708
30
0
41
1
10
267.553449587004
20
24.771280119119
30
0
41
1
10
267.554366440456
20
24.7703541331453
30
0
41
1
10
267.556507437831
20
24.7681920072883
30
0
41
1
10
267.557735591993
20
24.7669518171093
30
0
41
1
10
267.561863192775
20
24.7627842351976
30
0
41
1
10
267.565218581561
20
24.7593968992307
30
0
41
1
10
267.572951716672
20
24.7515926878464
30
0
41
1
10
267.577252302461
20
24.7472536906836
30
0
41
1
10
267.586584704884
20
24.7378414692261
30
0
41
1
10
267.591617667416
20
24.7327670857872
30
0
41
1
10
267.602342916789
20
24.7219581556344
30
0
41
1
10
267.607954623723
20
24.716304835687
30
0
41
1
10
267.625296915117
20
24.6988417531472
30
0
41
1
10
267.637586054382
20
24.6864770846445
30
0
41
1
10
267.650480947162
20
24.6735161477096
30
0
0
SPLINE
5
1D9
100
AcDbEntity
8
1
62
256
6
ByLayer
370
18
48
1
60
0
100
AcDbSpline
70
4
71
3
72
73
73
69
40
0
40
0
40
0
40
0
40
0.0173685652626429
40
0.0346693658320719
40
0.0519023857450232
40
0.0690676086282236
40
0.0861650177047592
40
0.103194595800468
40
0.120156325350305
40
0.137050188404719
40
0.153876166636001
40
0.170634241344653
40
0.187324393465714
40
0.203946603575094
40
0.220500851895897
40
0.236987118304732
40
0.25340538233801
40
0.269755623198208
40
0.286037819760155
40
0.302251950577264
40
0.31839799388778
40
0.334475927620996
40
0.350485729403433
40
0.366427376565046
40
0.382300846145363
40
0.398106114899632
40
0.413843159304948
40
0.429511955566335
40
0.445112479622837
40
0.460644707153556
40
0.476108613583687
40
0.491504174090518
40
0.506831363609425
40
0.522090156839799
40
0.537280528250995
40
0.552402452088228
40
0.567455902378441
40
0.582440852936164
40
0.597357277369313
40
0.612205149084998
40
0.626984441295279
40
0.641695127022883
40
0.656337179106936
40
0.670910570208592
40
0.685415272816712
40
0.699851259253442
40
0.714218501679808
40
0.728516972101257
40
0.742746642373157
40
0.756907484206298
40
0.77099946917232
40
0.785022568709134
40
0.798976754126302
40
0.812861996610377
40
0.826678267230228
40
0.840425536942296
40
0.854103776595858
40
0.867712956938224
40
0.88125304861991
40
0.894724022199777
40
0.908125848150138
40
0.921458496861826
40
0.934721938649219
40
0.947916143755237
40
0.961041082356316
40
0.974096724567317
40
0.987083040446425
40
1
40
1
40
1
40
1
41
1
10
266.067675282232
20
22.7547511370658
30
0
41
1
10
266.066970994684
20
22.7437790593183
30
0
41
1
10
266.065565167416
20
22.7218777121654
30
0
41
1
10
266.063493924058
20
22.6888038938661
30
0
41
1
10
266.061455391542
20
22.6556525193587
30
0
41
1
10
266.059451921734
20
22.6224061037302
30
0
41
1
10
266.057482862836
20
22.589073121416
30
0
41
1
10
266.055548358859
20
22.5556551131825
30
0
41
1
10
266.053648337597
20
22.5221554478722
30
0
41
1
10
266.05178278024
20
22.4885769886021
30
0
41
1
10
266.049951649607
20
22.4549227144019
30
0
41
1
10
266.048154909302
20
22.421195554653
30
0
41
1
10
266.046392518658
20
22.3873984331967
30
0
41
1
10
266.044664434127
20
22.3535342565998
30
0
41
1
10
266.042970608955
20
22.3196059172926
30
0
41
1
10
266.041310993316
20
22.2856162927457
30
0
41
1
10
266.039685534317
20
22.2515682457026
30
0
41
1
10
266.038094176042
20
22.2174646241307
30
0
41
1
10
266.036536859588
20
22.1833082612475
30
0
41
1
10
266.035013523098
20
22.1491019755265
30
0
41
1
10
266.033524101796
20
22.1148485707099
30
0
41
1
10
266.032068528028
20
22.0805508358176
30
0
41
1
10
266.030646731289
20
22.0462115451591
30
0
41
1
10
266.029258638265
20
22.0118334583436
30
0
41
1
10
266.027904172866
20
21.9774193202914
30
0
41
1
10
266.026583256264
20
21.9429718612444
30
0
41
1
10
266.025295806922
20
21.908493796778
30
0
41
1
10
266.02404174064
20
21.8739878278113
30
0
41
1
10
266.022820970579
20
21.8394566406193
30
0
41
1
10
266.021633407305
20
21.8049029068438
30
0
41
1
10
266.020478958822
20
21.7703292835054
30
0
41
1
10
266.019357530603
20
21.7357384130148
30
0
41
1
10
266.018269025634
20
21.701132923185
30
0
41
1
10
266.01721334444
20
21.666515427243
30
0
41
1
10
266.016190385128
20
21.6318885238421
30
0
41
1
10
266.015200043416
20
21.5972547970739
30
0
41
1
10
266.014242212674
20
21.562616816481
30
0
41
1
10
266.013316783953
20
21.5279771370696
30
0
41
1
10
266.012423646026
20
21.4933382993219
30
0
41
1
10
266.011562685417
20
21.4587028292092
30
0
41
1
10
266.01073378644
20
21.4240732382052
30
0
41
1
10
266.009936831233
20
21.3894520232988
30
0
41
1
10
266.009171699792
20
21.3548416670077
30
0
41
1
10
266.008438270005
20
21.3202446373924
30
0
41
1
10
266.007736417687
20
21.2856633880695
30
0
41
1
10
266.007066016616
20
21.2511003582259
30
0
41
1
10
266.006426938565
20
21.2165579726331
30
0
41
1
10
266.005819053336
20
21.1820386416616
30
0
41
1
10
266.005242228796
20
21.1475447612955
30
0
41
1
10
266.004696330911
20
21.1130787131472
30
0
41
1
10
266.004181223776
20
21.078642864473
30
0
41
1
10
266.003696769654
20
21.0442395681876
30
0
41
1
10
266.003242829006
20
21.0098711628806
30
0
41
1
10
266.002819260525
20
20.9755399728311
30
0
41
1
10
266.002425921168
20
20.9412483080262
30
0
41
1
10
266.002062666197
20
20.9069984641684
30
0
41
1
10
266.001729349193
20
20.8727927227258
30
0
41
1
10
266.001425822132
20
20.8386333508233
30
0
41
1
10
266.001151935291
20
20.8045226017248
30
0
41
1
10
266.000907537724
20
20.7704627131271
30
0
41
1
10
266.000692475666
20
20.7364559135615
30
0
41
1
10
266.000506598586
20
20.7025043987675
30
0
41
1
10
266.000349736934
20
20.6686104192697
30
0
41
1
10
266.000221784686
20
20.6347759561659
30
0
41
1
10
266.000122393851
20
20.6010039217177
30
0
41
1
10
266.00005210575
20
20.5672937140436
30
0
41
1
10
266.000008162608
20
20.5336576759843
30
0
41
1
10
266.000002716008
20
20.5111991810324
30
0
41
1
10
266
20
20.499999999999
30
0
0
SPLINE
5
1DA
100
AcDbEntity
8
1
62
256
6
ByLayer
370
18
48
1
60
0
100
AcDbSpline
70
4
71
3
72
51
73
47
40
0
40
0
40
0
40
0
40
0.0163698658227556
40
0.0328016119007479
40
0.0492952623575901
40
0.0658508410462714
40
0.0824683715531076
40
0.0991478772015861
40
0.115889381056156
40
0.132692905925976
40
0.149558474368561
40
0.166486108693374
40
0.183475830965383
40
0.200527663008522
40
0.217641626409105
40
0.234817742519192
40
0.252056032459867
40
0.26935651712451
40
0.286719217181959
40
0.304144153079655
40
0.321631345046717
40
0.339180813096971
40
0.356792577031925
40
0.374466656443695
40
0.392203070717891
40
0.410001839036428
40
0.427862980380329
40
0.445786513532442
40
0.463772457080143
40
0.481820829417984
40
0.499931648750275
40
0.531729742561769
40
0.563747425027471
40
0.595984789744238
40
0.628441928408118
40
0.661118930864687
40
0.694015885157785
40
0.727132877576663
40
0.76046999270163
40
0.794027313448234
40
0.827804921110051
40
0.86180289540015
40
0.896021314491218
40
0.930460255054464
40
0.96511979229733
40
1
40
1
40
1
40
1
41
1
10
265.5
20
20.9183673469378
30
0
41
1
10
265.500010032665
20
20.9315221621949
30
0
41
1
10
265.50003013592
20
20.9578815196487
30
0
41
1
10
265.500172268434
20
20.9972726393059
30
0
41
1
10
265.500396275852
20
21.0366474215526
30
0
41
1
10
265.500710285225
20
21.0759875467444
30
0
41
1
10
265.501112106629
20
21.1152949764781
30
0
41
1
10
265.501602330167
20
21.1545661901958
30
0
41
1
10
265.502180796847
20
21.1937991273883
30
0
41
1
10
265.50284754952
20
21.23299131697
30
0
41
1
10
265.503602576652
20
21.2721403813098
30
0
41
1
10
265.504445881363
20
21.3112439004135
30
0
41
1
10
265.505377462823
20
21.3502994485107
30
0
41
1
10
265.506397321267
20
21.3893045841906
30
0
41
1
10
265.507505456644
20
21.4282568530544
30
0
41
1
10
265.508701868979
20
21.4671537869966
30
0
41
1
10
265.509986558276
20
21.5059929043955
30
0
41
1
10
265.511359524545
20
21.5447717100601
30
0
41
1
10
265.512820767793
20
21.5834876952442
30
0
41
1
10
265.51437028803
20
21.622138337643
30
0
41
1
10
265.516008085265
20
21.6607211013961
30
0
41
1
10
265.517734159505
20
21.69923343709
30
0
41
1
10
265.519548510757
20
21.7376727817614
30
0
41
1
10
265.521451139038
20
21.7760365589045
30
0
41
1
10
265.523442044323
20
21.8143221784682
30
0
41
1
10
265.525521226744
20
21.8525270368936
30
0
41
1
10
265.527688685842
20
21.8906485170097
30
0
41
1
10
265.529944423382
20
21.9286839884615
30
0
41
1
10
265.532288432771
20
21.9666308061493
30
0
41
1
10
265.53472073879
20
22.0044863161328
30
0
41
1
10
265.537873309971
20
22.051717188103
30
0
41
1
10
265.541838989512
20
22.1081879219391
30
0
41
1
10
265.546731421531
20
22.1736906151841
30
0
41
1
10
265.551898535711
20
22.2389257212342
30
0
41
1
10
265.55734037521
20
22.3038766023259
30
0
41
1
10
265.563056928704
20
22.3685264772534
30
0
41
1
10
265.569048199042
20
22.4328584026164
30
0
41
1
10
265.575314187376
20
22.4968552674563
30
0
41
1
10
265.58185488724
20
22.5604998357507
30
0
41
1
10
265.588670324646
20
22.6237745821819
30
0
41
1
10
265.595760402152
20
22.6866623144907
30
0
41
1
10
265.60312548785
20
22.7491438295752
30
0
41
1
10
265.610764195354
20
22.8112067491154
30
0
41
1
10
265.618681749719
20
22.872812226141
30
0
41
1
10
265.626858463382
20
22.934020402534
30
0
41
1
10
265.632513881991
20
22.9742243249025
30
0
41
1
10
265.635350564464
20
22.9943900756365
30
0
0
SPLINE
5
1DB
100
AcDbEntity
8
1
62
256
6
ByLayer
370
18
48
1
60
0
100
AcDbSpline
70
4
71
3
72
55
73
51
40
0
40
0
40
0
40
0
40
0.0079245655345783
40
0.0159114253084012
40
0.0239605829212847
40
0.0320720418900571
40
0.0402458056510963
40
0.0484818775627481
40
0.0567802609076743
40
0.0651409588951036
40
0.073563974662993
40
0.0820493112801276
40
0.0905969717481253
40
0.099206959003389
40
0.107879275918966
40
0.116613925306361
40
0.125410909917276
40
0.154479422763259
40
0.184954478282284
40
0.216836148163241
40
0.250124494582527
40
0.30630053375266
40
0.366464850257788
40
0.430617606472867
40
0.498758926831092
40
0.554560544510239
40
0.614775322165124
40
0.67940325612816
40
0.74844433078931
40
0.756529661225179
40
0.765004342929402
40
0.773868375905948
40
0.783121760149294
40
0.79276449564557
40
0.802796582373484
40
0.81321802030507
40
0.824028809406309
40
0.835228949637628
40
0.846818440954335
40
0.858797283306961
40
0.871165476641574
40
0.883923020900011
40
0.897069916020117
40
0.910606161935911
40
0.924531758577755
40
0.938846705872486
40
0.953551003743539
40
0.968644652111046
40
0.984127650891938
40
1
40
1
40
1
40
1
41
1
10
265.635350564464
20
22.9943900756365
30
0
41
1
10
265.636827231209
20
23.0048101163503
30
0
41
1
10
265.639792172631
20
23.025732108705
30
0
41
1
10
265.644187677625
20
23.0569385932359
30
0
41
1
10
265.648567480635
20
23.0881650731174
30
0
41
1
10
265.652926486448
20
23.1193839852768
30
0
41
1
10
265.657266076186
20
23.1505951298854
30
0
41
1
10
265.661585875399
20
23.1817908172797
30
0
41
1
10
265.665885985496
20
23.2129653154657
30
0
41
1
10
265.670166378896
20
23.244112289314
30
0
41
1
10
265.674427063057
20
23.2752254944764
30
0
41
1
10
265.678668035641
20
23.3062985893318
30
0
41
1
10
265.682889298113
20
23.3373251855371
30
0
41
1
10
265.687090846582
20
23.3682988354851
30
0
41
1
10
265.691272694941
20
23.3992130309973
30
0
41
1
10
265.695434790658
20
23.4300612211196
30
0
41
1
10
265.702749531823
20
23.4844034635147
30
0
41
1
10
265.713202997964
20
23.5624587972589
30
0
41
1
10
265.726687452156
20
23.6634130587565
30
0
41
1
10
265.740315176372
20
23.7652105530392
30
0
41
1
10
265.757060675379
20
23.8892768552793
30
0
41
1
10
265.776818712095
20
24.0336161723125
30
0
41
1
10
265.799459956364
20
24.1940645144833
30
0
41
1
10
265.82250506025
20
24.3494711028511
30
0
41
1
10
265.844080926517
20
24.4849394003191
30
0
41
1
10
265.864458435076
20
24.6024163086357
30
0
41
1
10
265.88388942393
20
24.7036775557659
30
0
41
1
10
265.904230575193
20
24.7961499467149
30
0
41
1
10
265.918777827684
20
24.8510224692613
30
0
41
1
10
265.927463692301
20
24.8797034882565
30
0
41
1
10
265.930035638374
20
24.8879379258374
30
0
41
1
10
265.93271897357
20
24.8962394995725
30
0
41
1
10
265.935513501391
20
24.9045661803916
30
0
41
1
10
265.938419276188
20
24.9128740548778
30
0
41
1
10
265.94143628084
20
24.9211173469684
30
0
41
1
10
265.944564518855
20
24.9292484106838
30
0
41
1
10
265.947803988062
20
24.9372177315421
30
0
41
1
10
265.951154688067
20
24.9449739258942
30
0
41
1
10
265.954616618106
20
24.9524637415512
30
0
41
1
10
265.958189777629
20
24.9596320578186
30
0
41
1
10
265.961874166129
20
24.9664218893887
30
0
41
1
10
265.965669783141
20
24.9727743777799
30
0
41
1
10
265.969576628361
20
24.9786288341041
30
0
41
1
10
265.973594701092
20
24.9839225843718
30
0
41
1
10
265.977724002382
20
24.9885915879312
30
0
41
1
10
265.981964526669
20
24.9925680484325
30
0
41
1
10
265.986316294249
20
24.9957897271055
30
0
41
1
10
265.990779225129
20
24.9981637903864
30
0
41
1
10
265.995353628535
20
24.9997071335421
30
0
41
1
10
265.998438441113
20
24.999901573039
30
0
41
1
10
266
20
24.999999999999
30
0
0
SPLINE
5
1DC
100
AcDbEntity
8
1
62
256
6
ByLayer
370
18
48
1
60
0
100
AcDbSpline
70
4
71
1
72
4
73
2
40
0
40
0
40
1
40
1
41
1
10
265.5
20
20.9183673469378
30
0
41
1
10
266
20
20.499999999999
30
0
0
SPLINE
5
1DD
100
AcDbEntity
8
SK1
62
256
6
ByLayer
370
18
48
1
60
0
100
AcDbSpline
70
4
71
3
72
11
73
7
40
0
40
0
40
0
40
0
40
0.242589954178611
40
0.502544718947534
40
0.761087572808619
40
1
40
1
40
1
40
1
41
1
10
-0.199999999999932
20
17.5545583467655
30
0
41
1
10
-0.200957889270285
20
17.5289140231062
30
0
41
1
10
-0.211248315226158
20
17.4799022728818
30
0
41
1
10
-0.255179720944071
20
17.4139496110851
30
0
41
1
10
-0.321113897423714
20
17.3707504109673
30
0
41
1
10
-0.369683795840118
20
17.3607068368228
30
0
41
1
10
-0.394913799811221
20
17.359780267379
30
0
0
SPLINE
5
1DE
100
AcDbEntity
8
SK1
62
256
6
ByLayer
370
18
48
1
60
0
100
AcDbSpline
70
4
71
3
72
11
73
7
40
0
40
0
40
0
40
0
40
0.238912427113142
40
0.497455280942537
40
0.757410045745086
40
1
40
1
40
1
40
1
41
1
10
-0.394913799811363
20
-17.3597801301672
30
0
41
1
10
-0.369683795838455
20
-17.3607066995757
30
0
41
1
10
-0.321113897416495
20
-17.3707502735068
30
0
41
1
10
-0.255179720936411
20
-17.4139494728386
30
0
41
1
10
-0.211248315224637
20
-17.4799021334559
30
0
41
1
10
-0.200957889268793
20
-17.5289138828004
30
0
41
1
10
-0.20000000000006
20
-17.5545582060014
30
0
0
SPLINE
5
1DF
100
AcDbEntity
8
SK1
62
256
6
ByLayer
370
18
48
1
60
0
100
AcDbSpline
70
4
71
2
72
6
73
3
40
0
40
0
40
0
40
1
40
1
40
1
41
1
10
-28.4999999999999
20
16.8588088260864
30
0
41
1
10
-29.2499999297871
20
16.4259984461423
30
0
41
1
10
-29.9999999999999
20
15.993187350886
30
0
0
SPLINE
5
1E0
100
AcDbEntity
8
SK1
62
256
6
ByLayer
370
18
48
1
60
0
100
AcDbSpline
70
4
71
2
72
6
73
3
40
0
40
0
40
0
40
1
40
1
40
1
41
1
10
-30.0000000000001
20
-15.9931874249211
30
0
41
1
10
-29.2499999297895
20
-16.4259985176869
30
0
41
1
10
-28.5000000000001
20
-16.8588088951666
30
0
0
SPLINE
5
1E1
100
AcDbEntity
8
SK1
62
256
6
ByLayer
370
18
48
1
60
0
100
AcDbSpline
70
4
71
2
72
6
73
3
40
0
40
0
40
0
40
1
40
1
40
1
41
1
10
-0.394913799811221
20
17.3602209523781
30
0
41
1
10
-1.19497688886892
20
17.3401342706943
30
0
41
1
10
-1.99503997793923
20
17.3200475850767
30
0
0
SPLINE
5
1E2
100
AcDbEntity
8
SK1
62
256
6
ByLayer
370
18
48
1
60
0
100
AcDbSpline
70
4
71
2
72
6
73
3
40
0
40
0
40
0
40
1
40
1
40
1
41
1
10
-1.99503997793936
20
-17.3200478774323
30
0
41
1
10
-1.19497688886905
20
-17.340134563042
30
0
41
1
10
-0.394913799811363
20
-17.3602212447177
30
0
0
SPLINE
5
1E3
100
AcDbEntity
8
SK1
62
256
6
ByLayer
370
18
48
1
60
0
100
AcDbSpline
70
4
71
3
72
13
73
9
40
0
40
0
40
0
40
0
40
0.239505987673083
40
0.368426538155688
40
0.500072261058321
40
0.631705987654816
40
0.760593443052916
40
1
40
1
40
1
40
1
41
1
10
-1.99503997793923
20
17.3252686883829
30
0
41
1
10
-2.02110925982333
20
17.3248665791032
30
0
41
1
10
-2.0588386380993
20
17.3310361992814
30
0
41
1
10
-2.10627567686477
20
17.3540696096462
30
0
41
1
10
-2.13886243911919
20
17.3792256041407
30
0
41
1
10
-2.16563490776909
20
17.4104933211739
30
0
41
1
10
-2.19103207710589
20
17.4566915621889
30
0
41
1
10
-2.1990912192168
20
17.4940488942773
30
0
41
1
10
-2.19999999999993
20
17.5200961072231
30
0
0
SPLINE
5
1E4
100
AcDbEntity
8
SK1
62
256
6
ByLayer
370
18
48
1
60
0
100
AcDbSpline
70
4
71
3
72
13
73
9
40
0
40
0
40
0
40
0
40
0.239406556342956
40
0.368294011542631
40
0.499927738071791
40
0.631573461053609
40
0.76049401174041
40
1
40
1
40
1
40
1
41
1
10
-2.20000000000006
20
-17.5200962264206
30
0
41
1
10
-2.1990912192077
20
-17.494049013599
30
0
41
1
10
-2.19103207709693
20
-17.4566916816953
30
0
41
1
10
-2.16563490775667
20
-17.4104934409328
30
0
41
1
10
-2.13886243910261
20
-17.379225724067
30
0
41
1
10
-2.10627567684708
20
-17.3540697297104
30
0
41
1
10
-2.0588386380763
20
-17.3310363194718
30
0
41
1
10
-2.02110925981125
20
-17.3248666993254
30
0
41
1
10
-1.99503997793936
20
-17.3252688086104
30
0
0
SPLINE
5
1E5
100
AcDbEntity
8
SK1
62
256
6
ByLayer
370
18
48
1
60
0
100
AcDbSpline
70
4
71
2
72
6
73
3
40
0
40
0
40
0
40
1
40
1
40
1
41
1
10
-2.19999999999993
20
17.5148287077807
30
0
41
1
10
-15.3499999982431
20
17.1846805562454
30
0
41
1
10
-28.4999999999999
20
16.8545313165691
30
0
0
SPLINE
5
1E6
100
AcDbEntity
8
SK1
62
256
6
ByLayer
370
18
48
1
60
0
100
AcDbSpline
70
4
71
2
72
6
73
3
40
0
40
0
40
0
40
1
40
1
40
1
41
1
10
-28.5000000000001
20
-16.854531609135
30
0
41
1
10
-15.3499999982429
20
-17.1846808487113
30
0
41
1
10
-2.20000000000006
20
-17.5148290000611
30
0
0
LINE
5
A4
100
AcDbEntity
8
SK4
62
256
6
ByLayer
370
18
48
0.05
60
0
100
AcDbLine
10
4
20
0
30
0
11
264
21
0
31
0
39
0
210
0
220
0
230
1
0
LINE
5
A6
100
AcDbEntity
8
81
62
256
6
ByLayer
370
18
48
1
60
0
100
AcDbLine
10
268
20
5
30
0
11
273
21
5
31
0
39
0
210
0
220
0
230
1
0
LINE
5
A7
100
AcDbEntity
8
4
62
256
6
ByLayer
370
18
48
0.05
60
0
100
AcDbLine
10
264
20
5
30
0
11
268
21
5
31
0
39
0
210
0
220
0
230
1
0
LINE
5
A9
100
AcDbEntity
8
80
62
256
6
ByLayer
370
18
48
1
60
0
100
AcDbLine
10
0
20
0
30
0
11
-5
21
0
31
0
39
0
210
0
220
0
230
1
0
LINE
5
AA
100
AcDbEntity
8
1
62
256
6
ByLayer
370
18
48
1
60
0
100
AcDbLine
10
272.8
20
17.899495
30
0
11
272.8
21
11.899495
31
0
39
0
210
0
220
0
230
1
0
LINE
5
AB
100
AcDbEntity
8
1
62
256
6
ByLayer
370
13
48
1
60
0
100
AcDbLine
10
268.324503
20
12.453995
30
0
11
272.8
21
12.453995
31
0
39
0
210
0
220
0
230
1
0
LINE
5
AC
100
AcDbEntity
8
1
62
256
6
ByLayer
370
13
48
1
60
0
100
AcDbLine
10
268.324503
20
17.344995
30
0
11
272.8
21
17.344995
31
0
39
0
210
0
220
0
230
1
0
LINE
5
AD
100
AcDbEntity
8
1
62
256
6
ByLayer
370
18
48
1
60
0
100
AcDbLine
10
272.8
20
-1.899495
30
0
11
272.8
21
-7.899495
31
0
39
0
210
0
220
0
230
1
0
LINE
5
AE
100
AcDbEntity
8
1
62
256
6
ByLayer
370
13
48
1
60
0
100
AcDbLine
10
268.324503
20
-7.344995
30
0
11
272.8
21
-7.344995
31
0
39
0
210
0
220
0
230
1
0
LINE
5
AF
100
AcDbEntity
8
1
62
256
6
ByLayer
370
13
48
1
60
0
100
AcDbLine
10
268.324503
20
-2.453995
30
0
11
272.8
21
-2.453995
31
0
39
0
210
0
220
0
230
1
0
LINE
5
B0
100
AcDbEntity
8
1
62
256
6
ByLayer
370
13
48
1
60
0
100
AcDbLine
10
11.461325
20
-7.529667
30
0
11
11.461325
21
-23.83913
31
0
39
0
210
0
220
0
230
1
0
LINE
5
B1
100
AcDbEntity
8
1
62
256
6
ByLayer
370
13
48
1
60
0
100
AcDbLine
10
11.894338
20
-8.055848
30
0
11
11.894338
21
-23.666502
31
0
39
0
210
0
220
0
230
1
0
LINE
5
B2
100
AcDbEntity
8
1
62
256
6
ByLayer
370
13
48
1
60
0
100
AcDbLine
10
8.105662
20
23.666502
30
0
11
8.105662
21
8.055848
31
0
39
0
210
0
220
0
230
1
0
LINE
5
B3
100
AcDbEntity
8
1
62
256
6
ByLayer
370
13
48
1
60
0
100
AcDbLine
10
8.538675
20
23.83913
30
0
11
8.538675
21
7.529667
31
0
39
0
210
0
220
0
230
1
0
LINE
5
B4
100
AcDbEntity
8
1
62
256
6
ByLayer
370
13
48
1
60
0
100
AcDbLine
10
11.461325
20
23.83913
30
0
11
11.461325
21
7.529667
31
0
39
0
210
0
220
0
230
1
0
LINE
5
B5
100
AcDbEntity
8
1
62
256
6
ByLayer
370
13
48
1
60
0
100
AcDbLine
10
11.894338
20
23.666502
30
0
11
11.894338
21
8.055848
31
0
39
0
210
0
220
0
230
1
0
LINE
5
B6
100
AcDbEntity
8
1
62
256
6
ByLayer
370
13
48
1
60
0
100
AcDbLine
10
8.105662
20
-8.055848
30
0
11
8.105662
21
-23.666502
31
0
39
0
210
0
220
0
230
1
0
LINE
5
B7
100
AcDbEntity
8
1
62
256
6
ByLayer
370
13
48
1
60
0
100
AcDbLine
10
8.538675
20
-7.529667
30
0
11
8.538675
21
-23.83913
31
0
39
0
210
0
220
0
230
1
0
LINE
5
B8
100
AcDbEntity
8
1
62
256
6
ByLayer
370
18
48
1
60
0
100
AcDbLine
10
264
20
24.8
30
0
11
264
21
-24.8
31
0
39
0
210
0
220
0
230
1
0
LINE
5
B9
100
AcDbEntity
8
1
62
256
6
ByLayer
370
18
48
1
60
0
100
AcDbLine
10
0
20
-24.7
30
0
11
0
21
24.7
31
0
39
0
210
0
220
0
230
1
0
LINE
5
BA
100
AcDbEntity
8
1
62
256
6
ByLayer
370
13
48
1
60
0
100
AcDbLine
10
263.8
20
25
30
0
11
263.8
21
-25
31
0
39
0
210
0
220
0
230
1
0
LINE
5
BB
100
AcDbEntity
8
1
62
256
6
ByLayer
370
18
48
1
60
0
100
AcDbLine
10
0.3
20
-25
30
0
11
0.3
21
25
31
0
39
0
210
0
220
0
230
1
0
LINE
5
BC
100
AcDbEntity
8
1
62
256
6
ByLayer
370
18
48
1
60
0
100
AcDbLine
10
11.461325
20
7.529667
30
0
11
8.538675
21
7.529667
31
0
39
0
210
0
220
0
230
1
0
LINE
5
BD
100
AcDbEntity
8
1
62
256
6
ByLayer
370
18
48
1
60
0
100
AcDbLine
10
8.538675
20
23.83913
30
0
11
11.461325
21
23.83913
31
0
39
0
210
0
220
0
230
1
0
LINE
5
BE
100
AcDbEntity
8
1
62
256
6
ByLayer
370
18
48
1
60
0
100
AcDbLine
10
8.538675
20
-7.529667
30
0
11
11.461325
21
-7.529667
31
0
39
0
210
0
220
0
230
1
0
LINE
5
BF
100
AcDbEntity
8
1
62
256
6
ByLayer
370
18
48
1
60
0
100
AcDbLine
10
11.461325
20
-23.83913
30
0
11
8.538675
21
-23.83913
31
0
39
0
210
0
220
0
230
1
0
LINE
5
C0
100
AcDbEntity
8
SK1
62
256
6
ByLayer
370
18
48
1
60
0
100
AcDbLine
10
-0.2
20
-6.078431
30
0
11
-0.2
21
-17.833485
31
0
39
0
210
0
220
0
230
1
0
LINE
5
C2
100
AcDbEntity
8
SK1
62
256
6
ByLayer
370
18
48
1
60
0
100
AcDbLine
10
-0.2
20
17.833485
30
0
11
-0.2
21
6.078432
31
0
39
0
210
0
220
0
230
1
0
LINE
5
C3
100
AcDbEntity
8
SK1
62
256
6
ByLayer
370
13
48
1
60
0
100
AcDbLine
10
-1.307107
20
3.918083
30
0
11
-1.307107
21
-3.918083
31
0
39
0
210
0
220
0
230
1
0
LINE
5
C4
100
AcDbEntity
8
SK1
62
256
6
ByLayer
370
18
48
1
60
0
100
AcDbLine
10
-1.99504
20
17.325269
30
0
11
-1.99504
21
17.320045
31
0
39
0
210
0
220
0
230
1
0
LINE
5
C5
100
AcDbEntity
8
SK1
62
256
6
ByLayer
370
18
48
1
60
0
100
AcDbLine
10
-1.99504
20
-17.320045
30
0
11
-1.99504
21
-17.325269
31
0
39
0
210
0
220
0
230
1
0
LINE
5
C6
100
AcDbEntity
8
1
62
256
6
ByLayer
370
18
48
1
60
0
100
AcDbLine
10
268.32476
20
-13.976857
30
0
11
268.32476
21
-13.887542
31
0
39
0
210
0
220
0
230
1
0
LINE
5
C7
100
AcDbEntity
8
1
62
256
6
ByLayer
370
18
48
1
60
0
100
AcDbLine
10
268.32476
20
23.887542
30
0
11
268.32476
21
23.976857
31
0
39
0
210
0
220
0
230
1
0
LINE
5
C8
100
AcDbEntity
8
1
62
256
6
ByLayer
370
13
48
1
60
0
100
AcDbLine
10
267.650481
20
-14.629489
30
0
11
267.650481
21
-14.602807
31
0
39
0
210
0
220
0
230
1
0
LINE
5
C9
100
AcDbEntity
8
1
62
256
6
ByLayer
370
13
48
1
60
0
100
AcDbLine
10
267.650481
20
24.602807
30
0
11
267.650481
21
24.629489
31
0
39
0
210
0
220
0
230
1
0
LINE
5
CA
100
AcDbEntity
8
1
62
256
6
ByLayer
370
18
48
1
60
0
100
AcDbLine
10
268.32476
20
23.662842
30
0
11
268.32476
21
23.842999
31
0
39
0
210
0
220
0
230
1
0
LINE
5
CB
100
AcDbEntity
8
1
62
256
6
ByLayer
370
18
48
1
60
0
100
AcDbLine
10
268.32476
20
-13.842999
30
0
11
268.32476
21
-13.662842
31
0
39
0
210
0
220
0
230
1
0
LINE
5
CC
100
AcDbEntity
8
1
62
256
6
ByLayer
370
13
48
1
60
0
100
AcDbLine
10
267.650481
20
-14.470143
30
0
11
267.650481
21
-14.416627
31
0
39
0
210
0
220
0
230
1
0
LINE
5
CD
100
AcDbEntity
8
1
62
256
6
ByLayer
370
13
48
1
60
0
100
AcDbLine
10
267.650481
20
24.416627
30
0
11
267.650481
21
24.470143
31
0
39
0
210
0
220
0
230
1
0
LINE
5
CE
100
AcDbEntity
8
1
62
256
6
ByLayer
370
18
48
1
60
0
100
AcDbLine
10
268.32476
20
23.31313
30
0
11
268.32476
21
23.587525
31
0
39
0
210
0
220
0
230
1
0
LINE
5
CF
100
AcDbEntity
8
1
62
256
6
ByLayer
370
18
48
1
60
0
100
AcDbLine
10
268.32476
20
-13.587525
30
0
11
268.32476
21
-13.31313
31
0
39
0
210
0
220
0
230
1
0
LINE
5
D0
100
AcDbEntity
8
1
62
256
6
ByLayer
370
13
48
1
60
0
100
AcDbLine
10
267.650481
20
-14.192605
30
0
11
267.650481
21
-14.111162
31
0
39
0
210
0
220
0
230
1
0
LINE
5
D1
100
AcDbEntity
8
1
62
256
6
ByLayer
370
13
48
1
60
0
100
AcDbLine
10
267.650481
20
24.111162
30
0
11
267.650481
21
24.192605
31
0
39
0
210
0
220
0
230
1
0
LINE
5
D2
100
AcDbEntity
8
1
62
256
6
ByLayer
370
18
48
1
60
0
100
AcDbLine
10
268.32476
20
-13.205318
30
0
11
268.32476
21
-12.830489
31
0
39
0
210
0
220
0
230
1
0
LINE
5
D3
100
AcDbEntity
8
1
62
256
6
ByLayer
370
18
48
1
60
0
100
AcDbLine
10
268.32476
20
22.830489
30
0
11
268.32476
21
23.205318
31
0
39
0
210
0
220
0
230
1
0
LINE
5
D4
100
AcDbEntity
8
1
62
256
6
ByLayer
370
13
48
1
60
0
100
AcDbLine
10
267.650481
20
-13.791639
30
0
11
267.650481
21
-13.680651
31
0
39
0
210
0
220
0
230
1
0
LINE
5
D5
100
AcDbEntity
8
1
62
256
6
ByLayer
370
13
48
1
60
0
100
AcDbLine
10
267.650481
20
23.680651
30
0
11
267.650481
21
23.791639
31
0
39
0
210
0
220
0
230
1
0
LINE
5
D6
100
AcDbEntity
8
1
62
256
6
ByLayer
370
18
48
1
60
0
100
AcDbLine
10
268.32476
20
-12.688163
30
0
11
268.32476
21
-12.204449
31
0
39
0
210
0
220
0
230
1
0
LINE
5
D7
100
AcDbEntity
8
1
62
256
6
ByLayer
370
18
48
1
60
0
100
AcDbLine
10
268.32476
20
22.204449
30
0
11
268.32476
21
22.688163
31
0
39
0
210
0
220
0
230
1
0
LINE
5
D8
100
AcDbEntity
8
1
62
256
6
ByLayer
370
13
48
1
60
0
100
AcDbLine
10
267.650481
20
-13.259116
30
0
11
267.650481
21
-13.116188
31
0
39
0
210
0
220
0
230
1
0
LINE
5
D9
100
AcDbEntity
8
1
62
256
6
ByLayer
370
13
48
1
60
0
100
AcDbLine
10
267.650481
20
23.116188
30
0
11
267.650481
21
23.259116
31
0
39
0
210
0
220
0
230
1
0
LINE
5
DA
100
AcDbEntity
8
1
62
256
6
ByLayer
370
18
48
1
60
0
100
AcDbLine
10
268.32476
20
21.418191
30
0
11
268.32476
21
22.023766
31
0
39
0
210
0
220
0
230
1
0
LINE
5
DB
100
AcDbEntity
8
1
62
256
6
ByLayer
370
18
48
1
60
0
100
AcDbLine
10
268.32476
20
-12.023766
30
0
11
268.32476
21
-11.418191
31
0
39
0
210
0
220
0
230
1
0
LINE
5
DC
100
AcDbEntity
8
1
62
256
6
ByLayer
370
13
48
1
60
0
100
AcDbLine
10
267.650481
20
22.404844
30
0
11
267.650481
21
22.583086
31
0
39
0
210
0
220
0
230
1
0
LINE
5
DD
100
AcDbEntity
8
1
62
256
6
ByLayer
370
13
48
1
60
0
100
AcDbLine
10
267.650481
20
-12.583086
30
0
11
267.650481
21
-12.404844
31
0
39
0
210
0
220
0
230
1
0
LINE
5
DE
100
AcDbEntity
8
1
62
256
6
ByLayer
370
18
48
1
60
0
100
AcDbLine
10
268.32476
20
-11.194014
30
0
11
268.32476
21
-10.447336
31
0
39
0
210
0
220
0
230
1
0
LINE
5
DF
100
AcDbEntity
8
1
62
256
6
ByLayer
370
18
48
1
60
0
100
AcDbLine
10
268.32476
20
20.447336
30
0
11
268.32476
21
21.194014
31
0
39
0
210
0
220
0
230
1
0
LINE
5
E0
100
AcDbEntity
8
1
62
256
6
ByLayer
370
13
48
1
60
0
100
AcDbLine
10
267.650481
20
21.527523
30
0
11
267.650481
21
21.74618
31
0
39
0
210
0
220
0
230
1
0
LINE
5
E1
100
AcDbEntity
8
1
62
256
6
ByLayer
370
13
48
1
60
0
100
AcDbLine
10
267.650481
20
-11.74618
30
0
11
267.650481
21
-11.527523
31
0
39
0
210
0
220
0
230
1
0
LINE
5
E2
100
AcDbEntity
8
1
62
256
6
ByLayer
370
18
48
1
60
0
100
AcDbLine
10
268.32476
20
-10.171803
30
0
11
268.32476
21
-9.254246
31
0
39
0
210
0
220
0
230
1
0
LINE
5
E3
100
AcDbEntity
8
1
62
256
6
ByLayer
370
18
48
1
60
0
100
AcDbLine
10
268.32476
20
19.254246
30
0
11
268.32476
21
20.171803
31
0
39
0
210
0
220
0
230
1
0
LINE
5
E4
100
AcDbEntity
8
1
62
256
6
ByLayer
370
13
48
1
60
0
100
AcDbLine
10
267.650481
20
-10.722727
30
0
11
267.650481
21
-10.456027
31
0
39
0
210
0
220
0
230
1
0
LINE
5
E5
100
AcDbEntity
8
1
62
256
6
ByLayer
370
13
48
1
60
0
100
AcDbLine
10
267.650481
20
20.456027
30
0
11
267.650481
21
20.722727
31
0
39
0
210
0
220
0
230
1
0
LINE
5
E6
100
AcDbEntity
8
1
62
256
6
ByLayer
370
18
48
1
60
0
100
AcDbLine
10
268.32476
20
17.776776
30
0
11
268.32476
21
18.91478
31
0
39
0
210
0
220
0
230
1
0
LINE
5
E7
100
AcDbEntity
8
1
62
256
6
ByLayer
370
18
48
1
60
0
100
AcDbLine
10
268.32476
20
-8.91478
30
0
11
268.32476
21
-7.776776
31
0
39
0
210
0
220
0
230
1
0
LINE
5
E8
100
AcDbEntity
8
1
62
256
6
ByLayer
370
13
48
1
60
0
100
AcDbLine
10
267.650481
20
-9.473209
30
0
11
267.650481
21
-9.146205
31
0
39
0
210
0
220
0
230
1
0
LINE
5
E9
100
AcDbEntity
8
1
62
256
6
ByLayer
370
13
48
1
60
0
100
AcDbLine
10
267.650481
20
19.146205
30
0
11
267.650481
21
19.473209
31
0
39
0
210
0
220
0
230
1
0
LINE
5
EA
100
AcDbEntity
8
1
62
256
6
ByLayer
370
18
48
1
60
0
100
AcDbLine
10
268.32476
20
-7.351461
30
0
11
268.32476
21
-5.899779
31
0
39
0
210
0
220
0
230
1
0
LINE
5
EB
100
AcDbEntity
8
1
62
256
6
ByLayer
370
18
48
1
60
0
100
AcDbLine
10
268.32476
20
15.899779
30
0
11
268.32476
21
17.351461
31
0
39
0
210
0
220
0
230
1
0
LINE
5
EC
100
AcDbEntity
8
1
62
256
6
ByLayer
370
13
48
1
60
0
100
AcDbLine
10
267.650481
20
-7.932262
30
0
11
267.650481
21
-7.523683
31
0
39
0
210
0
220
0
230
1
0
LINE
5
ED
100
AcDbEntity
8
1
62
256
6
ByLayer
370
13
48
1
60
0
100
AcDbLine
10
267.650481
20
17.523683
30
0
11
267.650481
21
17.932262
31
0
39
0
210
0
220
0
230
1
0
LINE
5
EE
100
AcDbEntity
8
1
62
256
6
ByLayer
370
18
48
1
60
0
100
AcDbLine
10
268.32476
20
-5.343892
30
0
11
268.32476
21
-3.358834
31
0
39
0
210
0
220
0
230
1
0
LINE
5
EF
100
AcDbEntity
8
1
62
256
6
ByLayer
370
18
48
1
60
0
100
AcDbLine
10
268.32476
20
13.358834
30
0
11
268.32476
21
15.343892
31
0
39
0
210
0
220
0
230
1
0
LINE
5
F0
100
AcDbEntity
8
1
62
256
6
ByLayer
370
13
48
1
60
0
100
AcDbLine
10
267.650481
20
-5.977842
30
0
11
267.650481
21
-5.444044
31
0
39
0
210
0
220
0
230
1
0
LINE
5
F1
100
AcDbEntity
8
1
62
256
6
ByLayer
370
13
48
1
60
0
100
AcDbLine
10
267.650481
20
15.444044
30
0
11
267.650481
21
15.977842
31
0
39
0
210
0
220
0
230
1
0
LINE
5
F2
100
AcDbEntity
8
1
62
256
6
ByLayer
370
18
48
1
60
0
100
AcDbLine
10
268.32476
20
-2.545435
30
0
11
268.32476
21
0.946215
31
0
39
0
210
0
220
0
230
1
0
LINE
5
F3
100
AcDbEntity
8
1
62
256
6
ByLayer
370
18
48
1
60
0
100
AcDbLine
10
268.32476
20
9.053785
30
0
11
268.32476
21
12.545435
31
0
39
0
210
0
220
0
230
1
0
LINE
5
F4
100
AcDbEntity
8
1
62
256
6
ByLayer
370
13
48
1
60
0
100
AcDbLine
10
267.650481
20
-3.323618
30
0
11
267.650481
21
-2.537296
31
0
39
0
210
0
220
0
230
1
0
LINE
5
F5
100
AcDbEntity
8
1
62
256
6
ByLayer
370
13
48
1
60
0
100
AcDbLine
10
267.650481
20
12.537296
30
0
11
267.650481
21
13.323618
31
0
39
0
210
0
220
0
230
1
0
LINE
5
F6
100
AcDbEntity
8
1
62
256
6
ByLayer
370
18
48
1
60
0
100
AcDbLine
10
268.32476
20
3.460164
30
0
11
268.32476
21
6.539836
31
0
39
0
210
0
220
0
230
1
0
LINE
5
F7
100
AcDbEntity
8
1
62
256
6
ByLayer
370
13
48
1
60
0
100
AcDbLine
10
267.650481
20
1.318664
30
0
11
267.650481
21
4.790509
31
0
39
0
210
0
220
0
230
1
0
LINE
5
F8
100
AcDbEntity
8
1
62
256
6
ByLayer
370
13
48
1
60
0
100
AcDbLine
10
267.650481
20
5.209491
30
0
11
267.650481
21
8.681336
31
0
39
0
210
0
220
0
230
1
0
LINE
5
F9
100
AcDbEntity
8
1
62
256
6
ByLayer
370
18
48
1
60
0
100
AcDbLine
10
267.32476
20
-15
30
0
11
267.32476
21
25
31
0
39
0
210
0
220
0
230
1
0
LINE
5
FA
100
AcDbEntity
8
1
62
256
6
ByLayer
370
18
48
1
60
0
100
AcDbLine
10
268.32476
20
-13.976857
30
0
11
268.32476
21
-13.991672
31
0
39
0
210
0
220
0
230
1
0
LINE
5
FB
100
AcDbEntity
8
1
62
256
6
ByLayer
370
18
48
1
60
0
100
AcDbLine
10
268.32476
20
-13.842999
30
0
11
268.32476
21
-13.887723
31
0
39
0
210
0
220
0
230
1
0
LINE
5
FC
100
AcDbEntity
8
1
62
256
6
ByLayer
370
18
48
1
60
0
100
AcDbLine
10
268.32476
20
-13.587525
30
0
11
268.32476
21
-13.663027
31
0
39
0
210
0
220
0
230
1
0
LINE
5
FD
100
AcDbEntity
8
1
62
256
6
ByLayer
370
18
48
1
60
0
100
AcDbLine
10
268.32476
20
-13.205318
30
0
11
268.32476
21
-13.31314
31
0
39
0
210
0
220
0
230
1
0
LINE
5
FE
100
AcDbEntity
8
1
62
256
6
ByLayer
370
18
48
1
60
0
100
AcDbLine
10
268.32476
20
-12.688163
30
0
11
268.32476
21
-12.830692
31
0
39
0
210
0
220
0
230
1
0
LINE
5
FF
100
AcDbEntity
8
1
62
256
6
ByLayer
370
18
48
1
60
0
100
AcDbLine
10
268.32476
20
-12.023766
30
0
11
268.32476
21
-12.204537
31
0
39
0
210
0
220
0
230
1
0
LINE
5
100
100
AcDbEntity
8
1
62
256
6
ByLayer
370
18
48
1
60
0
100
AcDbLine
10
268.32476
20
-11.194014
30
0
11
268.32476
21
-11.41824
31
0
39
0
210
0
220
0
230
1
0
LINE
5
101
100
AcDbEntity
8
1
62
256
6
ByLayer
370
18
48
1
60
0
100
AcDbLine
10
268.32476
20
-10.171803
30
0
11
268.32476
21
-10.447365
31
0
39
0
210
0
220
0
230
1
0
LINE
5
102
100
AcDbEntity
8
1
62
256
6
ByLayer
370
18
48
1
60
0
100
AcDbLine
10
268.32476
20
-8.91478
30
0
11
268.32476
21
-9.254248
31
0
39
0
210
0
220
0
230
1
0
LINE
5
103
100
AcDbEntity
8
1
62
256
6
ByLayer
370
18
48
1
60
0
100
AcDbLine
10
268.32476
20
-7.351461
30
0
11
268.32476
21
-7.776779
31
0
39
0
210
0
220
0
230
1
0
LINE
5
104
100
AcDbEntity
8
1
62
256
6
ByLayer
370
18
48
1
60
0
100
AcDbLine
10
268.32476
20
-5.343892
30
0
11
268.32476
21
-5.899935
31
0
39
0
210
0
220
0
230
1
0
LINE
5
105
100
AcDbEntity
8
1
62
256
6
ByLayer
370
18
48
1
60
0
100
AcDbLine
10
268.32476
20
-2.545435
30
0
11
268.32476
21
-3.358893
31
0
39
0
210
0
220
0
230
1
0
LINE
5
106
100
AcDbEntity
8
1
62
256
6
ByLayer
370
18
48
1
60
0
100
AcDbLine
10
268.32476
20
3.460164
30
0
11
268.32476
21
0.946163
31
0
39
0
210
0
220
0
230
1
0
LINE
5
107
100
AcDbEntity
8
1
62
256
6
ByLayer
370
18
48
1
60
0
100
AcDbLine
10
268.32476
20
9.053837
30
0
11
268.32476
21
6.539836
31
0
39
0
210
0
220
0
230
1
0
LINE
5
108
100
AcDbEntity
8
1
62
256
6
ByLayer
370
18
48
1
60
0
100
AcDbLine
10
268.32476
20
13.358893
30
0
11
268.32476
21
12.545435
31
0
39
0
210
0
220
0
230
1
0
LINE
5
109
100
AcDbEntity
8
1
62
256
6
ByLayer
370
18
48
1
60
0
100
AcDbLine
10
268.32476
20
15.899935
30
0
11
268.32476
21
15.343892
31
0
39
0
210
0
220
0
230
1
0
LINE
5
10A
100
AcDbEntity
8
1
62
256
6
ByLayer
370
18
48
1
60
0
100
AcDbLine
10
268.32476
20
17.776779
30
0
11
268.32476
21
17.351461
31
0
39
0
210
0
220
0
230
1
0
LINE
5
10B
100
AcDbEntity
8
1
62
256
6
ByLayer
370
18
48
1
60
0
100
AcDbLine
10
268.32476
20
19.254248
30
0
11
268.32476
21
18.91478
31
0
39
0
210
0
220
0
230
1
0
LINE
5
10C
100
AcDbEntity
8
1
62
256
6
ByLayer
370
18
48
1
60
0
100
AcDbLine
10
268.32476
20
20.447365
30
0
11
268.32476
21
20.171803
31
0
39
0
210
0
220
0
230
1
0
LINE
5
10D
100
AcDbEntity
8
1
62
256
6
ByLayer
370
18
48
1
60
0
100
AcDbLine
10
268.32476
20
21.41824
30
0
11
268.32476
21
21.194014
31
0
39
0
210
0
220
0
230
1
0
LINE
5
10E
100
AcDbEntity
8
1
62
256
6
ByLayer
370
18
48
1
60
0
100
AcDbLine
10
268.32476
20
22.204537
30
0
11
268.32476
21
22.023766
31
0
39
0
210
0
220
0
230
1
0
LINE
5
10F
100
AcDbEntity
8
1
62
256
6
ByLayer
370
18
48
1
60
0
100
AcDbLine
10
268.32476
20
22.830692
30
0
11
268.32476
21
22.688163
31
0
39
0
210
0
220
0
230
1
0
LINE
5
110
100
AcDbEntity
8
1
62
256
6
ByLayer
370
18
48
1
60
0
100
AcDbLine
10
268.32476
20
23.31314
30
0
11
268.32476
21
23.205318
31
0
39
0
210
0
220
0
230
1
0
LINE
5
111
100
AcDbEntity
8
1
62
256
6
ByLayer
370
18
48
1
60
0
100
AcDbLine
10
268.32476
20
23.663027
30
0
11
268.32476
21
23.587525
31
0
39
0
210
0
220
0
230
1
0
LINE
5
112
100
AcDbEntity
8
1
62
256
6
ByLayer
370
18
48
1
60
0
100
AcDbLine
10
268.32476
20
23.887723
30
0
11
268.32476
21
23.842999
31
0
39
0
210
0
220
0
230
1
0
LINE
5
113
100
AcDbEntity
8
1
62
256
6
ByLayer
370
18
48
1
60
0
100
AcDbLine
10
268.32476
20
23.991672
30
0
11
268.32476
21
23.976857
31
0
39
0
210
0
220
0
230
1
0
LINE
5
114
100
AcDbEntity
8
1
62
256
6
ByLayer
370
13
48
1
60
0
100
AcDbLine
10
266.5
20
-15
30
0
11
266.5
21
22.536585
31
0
39
0
210
0
220
0
230
1
0
LINE
5
115
100
AcDbEntity
8
1
62
256
6
ByLayer
370
18
48
1
60
0
100
AcDbLine
10
264
20
24.8
30
0
11
264
21
-24.8
31
0
39
0
210
0
220
0
230
1
0
LINE
5
116
100
AcDbEntity
8
1
62
256
6
ByLayer
370
13
48
1
60
0
100
AcDbLine
10
264.2
20
25
30
0
11
264.2
21
-25
31
0
39
0
210
0
220
0
230
1
0
LINE
5
117
100
AcDbEntity
8
1
62
256
6
ByLayer
370
18
48
1
60
0
100
AcDbLine
10
266
20
-24.5
30
0
11
266
21
20.5
31
0
39
0
210
0
220
0
230
1
0
LINE
5
118
100
AcDbEntity
8
1
62
256
6
ByLayer
370
18
48
1
60
0
100
AcDbLine
10
265.5
20
-25
30
0
11
265.5
21
20.918367
31
0
39
0
210
0
220
0
230
1
0
LINE
5
119
100
AcDbEntity
8
1
62
256
6
ByLayer
370
13
48
1
60
0
100
AcDbLine
10
272.8
20
17.899495
30
0
11
272.8
21
11.899495
31
0
39
0
210
0
220
0
230
1
0
LINE
5
11A
100
AcDbEntity
8
1
62
256
6
ByLayer
370
18
48
1
60
0
100
AcDbLine
10
273
20
19.899495
30
0
11
273
21
9.899495
31
0
39
0
210
0
220
0
230
1
0
LINE
5
11B
100
AcDbEntity
8
1
62
256
6
ByLayer
370
13
48
1
60
0
100
AcDbLine
10
278.4
20
19.899495
30
0
11
278.4
21
9.899495
31
0
39
0
210
0
220
0
230
1
0
LINE
5
11C
100
AcDbEntity
8
1
62
256
6
ByLayer
370
18
48
1
60
0
100
AcDbLine
10
279
20
19.299495
30
0
11
279
21
10.499495
31
0
39
0
210
0
220
0
230
1
0
LINE
5
11D
100
AcDbEntity
8
1
62
256
6
ByLayer
370
13
48
1
60
0
100
AcDbLine
10
272.8
20
-1.899495
30
0
11
272.8
21
-4.899495
31
0
39
0
210
0
220
0
230
1
0
LINE
5
11E
100
AcDbEntity
8
1
62
256
6
ByLayer
370
13
48
1
60
0
100
AcDbLine
10
272.8
20
-4.899495
30
0
11
272.8
21
-7.899495
31
0
39
0
210
0
220
0
230
1
0
LINE
5
11F
100
AcDbEntity
8
1
62
256
6
ByLayer
370
18
48
1
60
0
100
AcDbLine
10
279
20
-9.299495
30
0
11
279
21
-4.899495
31
0
39
0
210
0
220
0
230
1
0
LINE
5
120
100
AcDbEntity
8
1
62
256
6
ByLayer
370
18
48
1
60
0
100
AcDbLine
10
279
20
-4.899495
30
0
11
279
21
-0.499495
31
0
39
0
210
0
220
0
230
1
0
LINE
5
121
100
AcDbEntity
8
1
62
256
6
ByLayer
370
13
48
1
60
0
100
AcDbLine
10
278.4
20
0.100505
30
0
11
278.4
21
-4.899495
31
0
39
0
210
0
220
0
230
1
0
LINE
5
122
100
AcDbEntity
8
1
62
256
6
ByLayer
370
13
48
1
60
0
100
AcDbLine
10
278.4
20
-4.899495
30
0
11
278.4
21
-9.899495
31
0
39
0
210
0
220
0
230
1
0
LINE
5
123
100
AcDbEntity
8
1
62
256
6
ByLayer
370
18
48
1
60
0
100
AcDbLine
10
273
20
-9.899495
30
0
11
273
21
-4.899495
31
0
39
0
210
0
220
0
230
1
0
LINE
5
124
100
AcDbEntity
8
1
62
256
6
ByLayer
370
18
48
1
60
0
100
AcDbLine
10
273
20
-4.899495
30
0
11
273
21
0.100505
31
0
39
0
210
0
220
0
230
1
0
LINE
5
125
100
AcDbEntity
8
1
62
256
6
ByLayer
370
18
48
1
60
0
100
AcDbLine
10
0
20
-24.7
30
0
11
0.3
21
-25
31
0
39
0
210
0
220
0
230
1
0
LINE
5
126
100
AcDbEntity
8
1
62
256
6
ByLayer
370
18
48
1
60
0
100
AcDbLine
10
0.3
20
25
30
0
11
0
21
24.7
31
0
39
0
210
0
220
0
230
1
0
LINE
5
127
100
AcDbEntity
8
1
62
256
6
ByLayer
370
18
48
1
60
0
100
AcDbLine
10
263.8
20
25
30
0
11
0.3
21
25
31
0
39
0
210
0
220
0
230
1
0
LINE
5
128
100
AcDbEntity
8
1
62
256
6
ByLayer
370
18
48
1
60
0
100
AcDbLine
10
0.3
20
-25
30
0
11
263.8
21
-25
31
0
39
0
210
0
220
0
230
1
0
LINE
5
129
100
AcDbEntity
8
1
62
256
6
ByLayer
370
18
48
1
60
0
100
AcDbLine
10
266.5
20
-15
30
0
11
267.32476
21
-15
31
0
39
0
210
0
220
0
230
1
0
LINE
5
12A
100
AcDbEntity
8
1
62
256
6
ByLayer
370
18
48
1
60
0
100
AcDbLine
10
267.32476
20
25
30
0
11
266
21
25
31
0
39
0
210
0
220
0
230
1
0
LINE
5
12B
100
AcDbEntity
8
1
62
256
6
ByLayer
370
18
48
1
60
0
100
AcDbLine
10
267.552123
20
24.772637
30
0
11
267.32476
21
25
31
0
39
0
210
0
220
0
230
1
0
LINE
5
12C
100
AcDbEntity
8
1
62
256
6
ByLayer
370
18
48
1
60
0
100
AcDbLine
10
267.32476
20
-15
30
0
11
267.552123
21
-14.772637
31
0
39
0
210
0
220
0
230
1
0
LINE
5
12D
100
AcDbEntity
8
1
62
256
6
ByLayer
370
18
48
1
60
0
100
AcDbLine
10
266.02
20
25
30
0
11
264.2
21
25
31
0
39
0
210
0
220
0
230
1
0
LINE
5
12E
100
AcDbEntity
8
1
62
256
6
ByLayer
370
18
48
1
60
0
100
AcDbLine
10
264.2
20
-25
30
0
11
265.5
21
-25
31
0
39
0
210
0
220
0
230
1
0
LINE
5
12F
100
AcDbEntity
8
1
62
256
6
ByLayer
370
18
48
1
60
0
100
AcDbLine
10
265.5
20
-25
30
0
11
266
21
-24.5
31
0
39
0
210
0
220
0
230
1
0
LINE
5
130
100
AcDbEntity
8
1
62
256
6
ByLayer
370
18
48
1
60
0
100
AcDbLine
10
268.324609
20
11.899495
30
0
11
272.8
21
11.899495
31
0
39
0
210
0
220
0
230
1
0
LINE
5
131
100
AcDbEntity
8
1
62
256
6
ByLayer
370
18
48
1
60
0
100
AcDbLine
10
272.8
20
17.899495
30
0
11
268.324609
21
17.899495
31
0
39
0
210
0
220
0
230
1
0
LINE
5
132
100
AcDbEntity
8
1
62
256
6
ByLayer
370
18
48
1
60
0
100
AcDbLine
10
273
20
9.899495
30
0
11
278.4
21
9.899495
31
0
39
0
210
0
220
0
230
1
0
LINE
5
133
100
AcDbEntity
8
1
62
256
6
ByLayer
370
18
48
1
60
0
100
AcDbLine
10
278.4
20
19.899495
30
0
11
273
21
19.899495
31
0
39
0
210
0
220
0
230
1
0
LINE
5
134
100
AcDbEntity
8
1
62
256
6
ByLayer
370
18
48
1
60
0
100
AcDbLine
10
268.324609
20
-7.899495
30
0
11
272.8
21
-7.899495
31
0
39
0
210
0
220
0
230
1
0
LINE
5
135
100
AcDbEntity
8
1
62
256
6
ByLayer
370
18
48
1
60
0
100
AcDbLine
10
272.8
20
-1.899495
30
0
11
268.324609
21
-1.899495
31
0
39
0
210
0
220
0
230
1
0
LINE
5
136
100
AcDbEntity
8
1
62
256
6
ByLayer
370
18
48
1
60
0
100
AcDbLine
10
273
20
-9.899495
30
0
11
278.4
21
-9.899495
31
0
39
0
210
0
220
0
230
1
0
LINE
5
137
100
AcDbEntity
8
1
62
256
6
ByLayer
370
18
48
1
60
0
100
AcDbLine
10
278.4
20
0.100505
30
0
11
273
21
0.100505
31
0
39
0
210
0
220
0
230
1
0
LINE
5
138
100
AcDbEntity
8
1
62
256
6
ByLayer
370
13
48
0.05
60
0
100
AcDbLine
10
270.3
20
0
30
0
11
-6.5
21
0
31
0
39
0
210
0
220
0
230
1
0
LINE
5
139
100
AcDbEntity
8
SK2
62
256
6
ByLayer
370
18
48
1
60
0
100
AcDbLine
10
-36.6
20
-25
30
0
11
-36.6
21
25
31
0
39
0
210
0
220
0
230
1
0
LINE
5
13B
100
AcDbEntity
8
SK2
62
256
6
ByLayer
370
18
48
1
60
0
100
AcDbLine
10
-1.2875
20
25
30
0
11
-38.6
21
25
31
0
39
0
210
0
220
0
230
1
0
LINE
5
13C
100
AcDbEntity
8
SK2
62
256
6
ByLayer
370
18
48
1
60
0
100
AcDbLine
10
-1.2875
20
-25
30
0
11
-38.6
21
-25
31
0
39
0
210
0
220
0
230
1
0
LINE
5
13D
100
AcDbEntity
8
1
62
256
6
ByLayer
370
18
48
1
60
1
100
AcDbLine
10
-36.6
20
25
30
0
11
-36.139216
21
21.500002
31
0
39
0
210
0
220
0
230
1
0
LINE
5
13E
100
AcDbEntity
8
1
62
256
6
ByLayer
370
18
48
1
60
1
100
AcDbLine
10
-36.139216
20
21.500002
30
0
11
-37.060784
21
21.499998
31
0
39
0
210
0
220
0
230
1
0
LINE
5
13F
100
AcDbEntity
8
1
62
256
6
ByLayer
370
18
48
1
60
1
100
AcDbLine
10
-37.060784
20
21.499998
30
0
11
-36.6
21
25
31
0
39
0
210
0
220
0
230
1
0
LINE
5
140
100
AcDbEntity
8
1
62
256
6
ByLayer
370
18
48
1
60
1
100
AcDbLine
10
-36.6
20
-25
30
0
11
-37.060784
21
-21.500002
31
0
39
0
210
0
220
0
230
1
0
LINE
5
141
100
AcDbEntity
8
1
62
256
6
ByLayer
370
18
48
1
60
1
100
AcDbLine
10
-37.060784
20
-21.500002
30
0
11
-36.139216
21
-21.499998
31
0
39
0
210
0
220
0
230
1
0
LINE
5
142
100
AcDbEntity
8
1
62
256
6
ByLayer
370
18
48
1
60
1
100
AcDbLine
10
-36.139216
20
-21.499998
30
0
11
-36.6
21
-25
31
0
39
0
210
0
220
0
230
1
0
LINE
5
143
100
AcDbEntity
8
SK2
62
256
6
ByLayer
370
18
48
1
60
0
100
AcDbLine
10
299.748181
20
-25
30
0
11
299.748181
21
25
31
0
39
0
210
0
220
0
230
1
0
LINE
5
144
100
AcDbEntity
8
SK2
62
256
6
ByLayer
370
18
48
1
60
0
100
AcDbLine
10
265.3875
20
25
30
0
11
301.748181
21
25
31
0
39
0
210
0
220
0
230
1
0
LINE
5
145
100
AcDbEntity
8
SK2
62
256
6
ByLayer
370
18
48
1
60
0
100
AcDbLine
10
265.3875
20
-25
30
0
11
301.748181
21
-25
31
0
39
0
210
0
220
0
230
1
0
LINE
5
146
100
AcDbEntity
8
1
62
256
6
ByLayer
370
18
48
1
60
1
100
AcDbLine
10
299.748181
20
25
30
0
11
300.208964
21
21.500002
31
0
39
0
210
0
220
0
230
1
0
LINE
5
147
100
AcDbEntity
8
1
62
256
6
ByLayer
370
18
48
1
60
1
100
AcDbLine
10
300.208964
20
21.500002
30
0
11
299.287397
21
21.499998
31
0
39
0
210
0
220
0
230
1
0
LINE
5
148
100
AcDbEntity
8
1
62
256
6
ByLayer
370
18
48
1
60
1
100
AcDbLine
10
299.287397
20
21.499998
30
0
11
299.748181
21
25
31
0
39
0
210
0
220
0
230
1
0
LINE
5
149
100
AcDbEntity
8
1
62
256
6
ByLayer
370
18
48
1
60
1
100
AcDbLine
10
299.748181
20
-25
30
0
11
299.287397
21
-21.500002
31
0
39
0
210
0
220
0
230
1
0
LINE
5
14A
100
AcDbEntity
8
1
62
256
6
ByLayer
370
18
48
1
60
1
100
AcDbLine
10
299.287397
20
-21.500002
30
0
11
300.208964
21
-21.499998
31
0
39
0
210
0
220
0
230
1
0
LINE
5
14B
100
AcDbEntity
8
1
62
256
6
ByLayer
370
18
48
1
60
1
100
AcDbLine
10
300.208964
20
-21.499998
30
0
11
299.748181
21
-25
31
0
39
0
210
0
220
0
230
1
0
LINE
5
14C
100
AcDbEntity
8
SK2
62
256
6
ByLayer
370
13
48
1
60
0
100
AcDbLine
10
288.123181
20
25
30
0
11
288.123181
21
-15
31
0
39
0
210
0
220
0
230
1
0
LINE
5
14D
100
AcDbEntity
8
SK2
62
256
6
ByLayer
370
13
48
1
60
0
100
AcDbLine
10
268.91226
20
-15
30
0
11
290.123181
21
-15
31
0
39
0
210
0
220
0
230
1
0
LINE
5
14E
100
AcDbEntity
8
SK2
62
256
6
ByLayer
370
13
48
1
60
0
100
AcDbLine
10
268.91226
20
25
30
0
11
290.123181
21
25
31
0
39
0
210
0
220
0
230
1
0
LINE
5
14F
100
AcDbEntity
8
1
62
256
6
ByLayer
370
18
48
1
60
1
100
AcDbLine
10
288.123181
20
-15
30
0
11
287.662397
21
-11.500002
31
0
39
0
210
0
220
0
230
1
0
LINE
5
150
100
AcDbEntity
8
1
62
256
6
ByLayer
370
18
48
1
60
1
100
AcDbLine
10
287.662397
20
-11.500002
30
0
11
288.583964
21
-11.499998
31
0
39
0
210
0
220
0
230
1
0
LINE
5
151
100
AcDbEntity
8
1
62
256
6
ByLayer
370
18
48
1
60
1
100
AcDbLine
10
288.583964
20
-11.499998
30
0
11
288.123181
21
-15
31
0
39
0
210
0
220
0
230
1
0
LINE
5
152
100
AcDbEntity
8
1
62
256
6
ByLayer
370
18
48
1
60
1
100
AcDbLine
10
288.123181
20
25
30
0
11
288.583964
21
21.500002
31
0
39
0
210
0
220
0
230
1
0
LINE
5
153
100
AcDbEntity
8
1
62
256
6
ByLayer
370
18
48
1
60
1
100
AcDbLine
10
288.583964
20
21.500002
30
0
11
287.662397
21
21.499998
31
0
39
0
210
0
220
0
230
1
0
LINE
5
154
100
AcDbEntity
8
1
62
256
6
ByLayer
370
18
48
1
60
1
100
AcDbLine
10
287.662397
20
21.499998
30
0
11
288.123181
21
25
31
0
39
0
210
0
220
0
230
1
0
LINE
5
155
100
AcDbEntity
8
SK2
62
256
6
ByLayer
370
18
48
1
60
0
100
AcDbLine
10
0
20
30.795327
30
0
11
268
21
30.795327
31
0
39
0
210
0
220
0
230
1
0
LINE
5
156
100
AcDbEntity
8
SK2
62
256
6
ByLayer
370
18
48
1
60
0
100
AcDbLine
10
268
20
26.5875
30
0
11
268
21
32.795327
31
0
39
0
210
0
220
0
230
1
0
LINE
5
157
100
AcDbEntity
8
SK2
62
256
6
ByLayer
370
18
48
1
60
0
100
AcDbLine
10
0
20
26.2875
30
0
11
0
21
32.795327
31
0
39
0
210
0
220
0
230
1
0
LINE
5
158
100
AcDbEntity
8
1
62
256
6
ByLayer
370
18
48
1
60
1
100
AcDbLine
10
268
20
30.795327
30
0
11
264.500002
21
30.334543
31
0
39
0
210
0
220
0
230
1
0
LINE
5
159
100
AcDbEntity
8
1
62
256
6
ByLayer
370
18
48
1
60
1
100
AcDbLine
10
264.500002
20
30.334543
30
0
11
264.499998
21
31.25611
31
0
39
0
210
0
220
0
230
1
0
LINE
5
15A
100
AcDbEntity
8
1
62
256
6
ByLayer
370
18
48
1
60
1
100
AcDbLine
10
264.499998
20
31.25611
30
0
11
268
21
30.795327
31
0
39
0
210
0
220
0
230
1
0
LINE
5
15B
100
AcDbEntity
8
1
62
256
6
ByLayer
370
18
48
1
60
1
100
AcDbLine
10
0
20
30.795327
30
0
11
3.499998
21
31.25611
31
0
39
0
210
0
220
0
230
1
0
LINE
5
15C
100
AcDbEntity
8
1
62
256
6
ByLayer
370
18
48
1
60
1
100
AcDbLine
10
3.499998
20
31.25611
30
0
11
3.500002
21
30.334543
31
0
39
0
210
0
220
0
230
1
0
LINE
5
15D
100
AcDbEntity
8
1
62
256
6
ByLayer
370
18
48
1
60
1
100
AcDbLine
10
3.500002
20
30.334543
30
0
11
0
21
30.795327
31
0
39
0
210
0
220
0
230
1
0
LINE
5
1E7
100
AcDbEntity
8
1
62
256
6
ByLayer
370
13
48
0.05
60
0
100
AcDbLine
10
255.05
20
-4.899495
30
0
11
284.9
21
-4.899495
31
0
39
0
210
0
220
0
230
1
0
LINE
5
1E8
100
AcDbEntity
8
1
62
256
6
ByLayer
370
13
48
0.05
60
0
100
AcDbLine
10
272.52
20
0
30
0
11
257.7
21
0
31
0
39
0
210
0
220
0
230
1
0
LINE
5
1E9
100
AcDbEntity
8
1
62
256
6
ByLayer
370
13
48
0.05
60
0
100
AcDbLine
10
259.330172
20
5
30
0
11
274.82476
21
5
31
0
39
0
210
0
220
0
230
1
0
LINE
5
1EA
100
AcDbEntity
8
1
62
256
6
ByLayer
370
13
48
0.05
60
0
100
AcDbLine
10
255.05
20
14.899495
30
0
11
284.9
21
14.899495
31
0
39
0
210
0
220
0
230
1
0
LINE
5
1EF
100
AcDbEntity
8
1
62
256
6
ByLayer
370
18
48
1
60
1
100
AcDbLine
10
-36.6
20
25
30
0
11
-36.139216
21
21.500002
31
0
39
0
210
0
220
0
230
1
0
LINE
5
1F0
100
AcDbEntity
8
1
62
256
6
ByLayer
370
18
48
1
60
1
100
AcDbLine
10
-36.139216
20
21.500002
30
0
11
-37.060784
21
21.499998
31
0
39
0
210
0
220
0
230
1
0
LINE
5
1F1
100
AcDbEntity
8
1
62
256
6
ByLayer
370
18
48
1
60
1
100
AcDbLine
10
-37.060784
20
21.499998
30
0
11
-36.6
21
25
31
0
39
0
210
0
220
0
230
1
0
LINE
5
1F3
100
AcDbEntity
8
1
62
256
6
ByLayer
370
18
48
1
60
1
100
AcDbLine
10
-36.6
20
-25
30
0
11
-37.060784
21
-21.500002
31
0
39
0
210
0
220
0
230
1
0
LINE
5
1F4
100
AcDbEntity
8
1
62
256
6
ByLayer
370
18
48
1
60
1
100
AcDbLine
10
-37.060784
20
-21.500002
30
0
11
-36.139216
21
-21.499998
31
0
39
0
210
0
220
0
230
1
0
LINE
5
1F5
100
AcDbEntity
8
1
62
256
6
ByLayer
370
18
48
1
60
1
100
AcDbLine
10
-36.139216
20
-21.499998
30
0
11
-36.6
21
-25
31
0
39
0
210
0
220
0
230
1
0
LINE
5
1F9
100
AcDbEntity
8
1
62
256
6
ByLayer
370
18
48
1
60
1
100
AcDbLine
10
299.748181
20
25
30
0
11
300.208964
21
21.500002
31
0
39
0
210
0
220
0
230
1
0
LINE
5
1FA
100
AcDbEntity
8
1
62
256
6
ByLayer
370
18
48
1
60
1
100
AcDbLine
10
300.208964
20
21.500002
30
0
11
299.287397
21
21.499998
31
0
39
0
210
0
220
0
230
1
0
LINE
5
1FB
100
AcDbEntity
8
1
62
256
6
ByLayer
370
18
48
1
60
1
100
AcDbLine
10
299.287397
20
21.499998
30
0
11
299.748181
21
25
31
0
39
0
210
0
220
0
230
1
0
LINE
5
1FD
100
AcDbEntity
8
1
62
256
6
ByLayer
370
18
48
1
60
1
100
AcDbLine
10
299.748181
20
-25
30
0
11
299.287397
21
-21.500002
31
0
39
0
210
0
220
0
230
1
0
LINE
5
1FE
100
AcDbEntity
8
1
62
256
6
ByLayer
370
18
48
1
60
1
100
AcDbLine
10
299.287397
20
-21.500002
30
0
11
300.208964
21
-21.499998
31
0
39
0
210
0
220
0
230
1
0
LINE
5
1FF
100
AcDbEntity
8
1
62
256
6
ByLayer
370
18
48
1
60
1
100
AcDbLine
10
300.208964
20
-21.499998
30
0
11
299.748181
21
-25
31
0
39
0
210
0
220
0
230
1
0
LINE
5
205
100
AcDbEntity
8
1
62
256
6
ByLayer
370
18
48
1
60
1
100
AcDbLine
10
288.123181
20
-15
30
0
11
287.662397
21
-11.500002
31
0
39
0
210
0
220
0
230
1
0
LINE
5
206
100
AcDbEntity
8
1
62
256
6
ByLayer
370
18
48
1
60
1
100
AcDbLine
10
287.662397
20
-11.500002
30
0
11
288.583964
21
-11.499998
31
0
39
0
210
0
220
0
230
1
0
LINE
5
207
100
AcDbEntity
8
1
62
256
6
ByLayer
370
18
48
1
60
1
100
AcDbLine
10
288.583964
20
-11.499998
30
0
11
288.123181
21
-15
31
0
39
0
210
0
220
0
230
1
0
LINE
5
209
100
AcDbEntity
8
1
62
256
6
ByLayer
370
18
48
1
60
1
100
AcDbLine
10
288.123181
20
25
30
0
11
288.583964
21
21.500002
31
0
39
0
210
0
220
0
230
1
0
LINE
5
20A
100
AcDbEntity
8
1
62
256
6
ByLayer
370
18
48
1
60
1
100
AcDbLine
10
288.583964
20
21.500002
30
0
11
287.662397
21
21.499998
31
0
39
0
210
0
220
0
230
1
0
LINE
5
20B
100
AcDbEntity
8
1
62
256
6
ByLayer
370
18
48
1
60
1
100
AcDbLine
10
287.662397
20
21.499998
30
0
11
288.123181
21
25
31
0
39
0
210
0
220
0
230
1
0
LINE
5
20E
100
AcDbEntity
8
1
62
256
6
ByLayer
370
18
48
1
60
1
100
AcDbLine
10
268
20
30.795327
30
0
11
264.500002
21
30.334543
31
0
39
0
210
0
220
0
230
1
0
LINE
5
20F
100
AcDbEntity
8
1
62
256
6
ByLayer
370
18
48
1
60
1
100
AcDbLine
10
264.500002
20
30.334543
30
0
11
264.499998
21
31.25611
31
0
39
0
210
0
220
0
230
1
0
LINE
5
210
100
AcDbEntity
8
1
62
256
6
ByLayer
370
18
48
1
60
1
100
AcDbLine
10
264.499998
20
31.25611
30
0
11
268
21
30.795327
31
0
39
0
210
0
220
0
230
1
0
LINE
5
212
100
AcDbEntity
8
1
62
256
6
ByLayer
370
18
48
1
60
1
100
AcDbLine
10
0
20
30.795327
30
0
11
3.499998
21
31.25611
31
0
39
0
210
0
220
0
230
1
0
LINE
5
213
100
AcDbEntity
8
1
62
256
6
ByLayer
370
18
48
1
60
1
100
AcDbLine
10
3.499998
20
31.25611
30
0
11
3.500002
21
30.334543
31
0
39
0
210
0
220
0
230
1
0
LINE
5
214
100
AcDbEntity
8
1
62
256
6
ByLayer
370
18
48
1
60
1
100
AcDbLine
10
3.500002
20
30.334543
30
0
11
0
21
30.795327
31
0
39
0
210
0
220
0
230
1
0
MTEXT
5
1EB
100
AcDbEntity
8
SK2
62
256
6
ByLayer
370
18
48
1
60
0
100
AcDbMText
10
-38.164634
20
-4.530622
30
0
210
0
220
0
230
1
1
%%c
40
3.5
41
0
44
1.084337
50
90
71
7
72
5
7
iso_b_vert
0
MTEXT
5
1EE
100
AcDbEntity
8
SK2
62
256
6
ByLayer
370
18
48
1
60
0
100
AcDbMText
10
-38.164634
20
2.442034
30
0
210
0
220
0
230
1
1
\W0.6740;50
40
3.5
41
0
44
1.084337
50
90
71
7
72
5
7
iso_b_vert
0
MTEXT
5
1F7
100
AcDbEntity
8
SK2
62
256
6
ByLayer
370
18
48
1
60
0
100
AcDbMText
10
298.183547
20
-4.530622
30
0
210
0
220
0
230
1
1
%%c
40
3.5
41
0
44
1.084337
50
90
71
7
72
5
7
iso_b_vert
0
MTEXT
5
1F8
100
AcDbEntity
8
SK2
62
256
6
ByLayer
370
18
48
1
60
0
100
AcDbMText
10
298.183547
20
2.442034
30
0
210
0
220
0
230
1
1
\W0.6740;50
40
3.5
41
0
44
1.084337
50
90
71
7
72
5
7
iso_b_vert
0
MTEXT
5
201
100
AcDbEntity
8
SK2
62
256
6
ByLayer
370
18
48
1
60
0
100
AcDbMText
10
285.902297
20
11.807233
30
0
210
0
220
0
230
1
1
\W1.1313;{\H1.88x;)}
40
3.5
41
0
44
1.084337
50
90
71
7
72
5
7
iso_b_vert
0
MTEXT
5
202
100
AcDbEntity
8
SK2
62
256
6
ByLayer
370
18
48
1
60
0
100
AcDbMText
10
285.902297
20
-3.942233
30
0
210
0
220
0
230
1
1
\W1.1313;{\H1.88x;(}
40
3.5
41
0
44
1.084337
50
90
71
7
72
5
7
iso_b_vert
0
MTEXT
5
203
100
AcDbEntity
8
SK2
62
256
6
ByLayer
370
18
48
1
60
0
100
AcDbMText
10
285.902297
20
0.285111
30
0
210
0
220
0
230
1
1
%%c
40
3.5
41
0
44
1.084337
50
90
71
7
72
5
7
iso_b_vert
0
MTEXT
5
204
100
AcDbEntity
8
SK2
62
256
6
ByLayer
370
18
48
1
60
0
100
AcDbMText
10
285.902297
20
7.257767
30
0
210
0
220
0
230
1
1
\W0.7361;40
40
3.5
41
0
44
1.084337
50
90
71
7
72
5
7
iso_b_vert
0
MTEXT
5
20D
100
AcDbEntity
8
SK2
62
256
6
ByLayer
370
18
48
1
60
0
100
AcDbMText
10
130.787301
20
31.82796
30
0
210
0
220
0
230
1
1
\W0.7138;268
40
3.5
41
0
44
1.084337
50
0
71
7
72
5
7
iso_b_vert
0
MTEXT
5
216
100
AcDbEntity
8
SK6
62
256
6
ByLayer
370
18
48
1
60
0
100
AcDbMText
10
101.267894
20
-50.567391
30
0
210
0
220
0
230
1
1
\W0.7674;HT30D-C5 50 268R40
40
3.5
41
0
44
1.084337
50
0
71
7
72
5
7
iso_b_vert
0
HATCH
5
1F2
100
AcDbEntity
8
SK2
62
256
6
ByLayer
370
13
48
1
60
0
100
AcDbHatch
10
0
20
0
30
0
210
0
220
0
230
1
2
ANSI31
70
0
71
0
91
1
92
5
93
3
72
1
10
-36.6000000000001
20
24.999999999999
11
-36.1392162584473
21
21.5000016925522
72
1
10
-36.1392162584473
20
21.5000016925522
11
-37.0607837415529
21
21.4999983074458
72
1
10
-37.0607837415529
20
21.4999983074458
11
-36.6000000000001
21
24.999999999999
97
0
75
0
76
1
52
0
41
0.0062
77
0
78
1
53
45
43
0
44
0
45
-0.0139193969876572
46
0.0139193969876572
79
0
47
0
98
1
10
0
20
0
0
HATCH
5
1F6
100
AcDbEntity
8
SK2
62
256
6
ByLayer
370
13
48
1
60
0
100
AcDbHatch
10
0
20
0
30
0
210
0
220
0
230
1
2
ANSI31
70
0
71
0
91
1
92
5
93
3
72
1
10
-36.6000000000001
20
-25.000000000001
11
-37.0607837415529
21
-21.5000016925542
72
1
10
-37.0607837415529
20
-21.5000016925542
11
-36.1392162584473
21
-21.4999983074478
72
1
10
-36.1392162584473
20
-21.4999983074478
11
-36.6000000000001
21
-25.000000000001
97
0
75
0
76
1
52
0
41
0.0062
77
0
78
1
53
45
43
0
44
0
45
-0.0139193969876572
46
0.0139193969876572
79
0
47
0
98
1
10
0
20
0
0
HATCH
5
1FC
100
AcDbEntity
8
SK2
62
256
6
ByLayer
370
13
48
1
60
0
100
AcDbHatch
10
0
20
0
30
0
210
0
220
0
230
1
2
ANSI31
70
0
71
0
91
1
92
5
93
3
72
1
10
299.748180566759
20
24.999999999999
11
300.208964308312
21
21.5000016925522
72
1
10
300.208964308312
20
21.5000016925522
11
299.287396825206
21
21.4999983074458
72
1
10
299.287396825206
20
21.4999983074458
11
299.748180566759
21
24.999999999999
97
0
75
0
76
1
52
0
41
0.0062
77
0
78
1
53
45
43
0
44
0
45
-0.0139193969876572
46
0.0139193969876572
79
0
47
0
98
1
10
0
20
0
0
HATCH
5
200
100
AcDbEntity
8
SK2
62
256
6
ByLayer
370
13
48
1
60
0
100
AcDbHatch
10
0
20
0
30
0
210
0
220
0
230
1
2
ANSI31
70
0
71
0
91
1
92
5
93
3
72
1
10
299.748180566759
20
-25.000000000001
11
299.287396825206
21
-21.5000016925542
72
1
10
299.287396825206
20
-21.5000016925542
11
300.208964308312
21
-21.4999983074478
72
1
10
300.208964308312
20
-21.4999983074478
11
299.748180566759
21
-25.000000000001
97
0
75
0
76
1
52
0
41
0.0062
77
0
78
1
53
45
43
0
44
0
45
-0.0139193969876572
46
0.0139193969876572
79
0
47
0
98
1
10
0
20
0
0
HATCH
5
208
100
AcDbEntity
8
SK2
62
256
6
ByLayer
370
13
48
1
60
0
100
AcDbHatch
10
0
20
0
30
0
210
0
220
0
230
1
2
ANSI31
70
0
71
0
91
1
92
5
93
3
72
1
10
288.123180566759
20
-15.000000000001
11
287.662396825206
21
-11.5000016925542
72
1
10
287.662396825206
20
-11.5000016925542
11
288.583964308312
21
-11.4999983074478
72
1
10
288.583964308312
20
-11.4999983074478
11
288.123180566759
21
-15.000000000001
97
0
75
0
76
1
52
0
41
0.0062
77
0
78
1
53
45
43
0
44
0
45
-0.0139193969876572
46
0.0139193969876572
79
0
47
0
98
1
10
0
20
0
0
HATCH
5
20C
100
AcDbEntity
8
SK2
62
256
6
ByLayer
370
13
48
1
60
0
100
AcDbHatch
10
0
20
0
30
0
210
0
220
0
230
1
2
ANSI31
70
0
71
0
91
1
92
5
93
3
72
1
10
288.123180566759
20
24.999999999999
11
288.583964308312
21
21.5000016925522
72
1
10
288.583964308312
20
21.5000016925522
11
287.662396825206
21
21.4999983074458
72
1
10
287.662396825206
20
21.4999983074458
11
288.123180566759
21
24.999999999999
97
0
75
0
76
1
52
0
41
0.0062
77
0
78
1
53
45
43
0
44
0
45
-0.0139193969876572
46
0.0139193969876572
79
0
47
0
98
1
10
0
20
0
0
HATCH
5
211
100
AcDbEntity
8
SK2
62
256
6
ByLayer
370
13
48
1
60
0
100
AcDbHatch
10
0
20
0
30
0
210
0
220
0
230
1
2
ANSI31
70
0
71
0
91
1
92
5
93
3
72
1
10
268
20
30.7953266343508
11
264.500001692553
21
30.334542892798
72
1
10
264.500001692553
20
30.334542892798
11
264.499998307447
21
31.2561103759036
72
1
10
264.499998307447
20
31.2561103759036
11
268
21
30.7953266343508
97
0
75
0
76
1
52
0
41
0.0062
77
0
78
1
53
45
43
0
44
0
45
-0.0139193969876572
46
0.0139193969876572
79
0
47
0
98
1
10
0
20
0
0
HATCH
5
215
100
AcDbEntity
8
SK2
62
256
6
ByLayer
370
13
48
1
60
0
100
AcDbHatch
10
0
20
0
30
0
210
0
220
0
230
1
2
ANSI31
70
0
71
0
91
1
92
5
93
3
72
1
10
0
20
30.7953266343508
11
3.4999983074468
21
31.2561103759036
72
1
10
3.4999983074468
20
31.2561103759036
11
3.5000016925532
21
30.334542892798
72
1
10
3.5000016925532
20
30.334542892798
11
0
21
30.7953266343508
97
0
75
0
76
1
52
0
41
0.0062
77
0
78
1
53
45
43
0
44
0
45
-0.0139193969876572
46
0.0139193969876572
79
0
47
0
98
1
10
0
20
0
0
ENDSEC
0
SECTION
2
OBJECTS
0
DICTIONARY
5
285
330
0
100
AcDbDictionary
280
0
281
1
3
ACAD_GROUP
350
286
3
ACAD_MLINESTYLE
350
287
0
DICTIONARY
5
286
330
0
100
AcDbDictionary
280
0
281
1
0
DICTIONARY
5
287
330
0
100
AcDbDictionary
280
0
281
1
3
Standard
350
18
0
MLINESTYLE
5
18
330
287
100
AcDbMlineStyle
2
Standard
70
0
3

62
256
51
90
52
90
71
2
49
-0.5
62
256
6
ByLayer
49
0.5
62
256
6
ByLayer
0
RASTERVARIABLES
5
273
330

100
AcDbRasterVariables
90
0
70
1
71
1
72
1
0
ENDSEC
0
EOF
