0
SECTION
2
HEADER
9
$ACADVER
1
AC1015
9
$DWGCODEPAGE
3
ANSI_1252
9
$HANDSEED
5
273
9
$ANGBASE
50
0
9
$ANGDIR
70
0
9
$ATTMODE
70
1
9
$AUNITS
70
0
9
$AUPREC
70
0
9
$CECOLOR
62
256
9
$CELTSCALE
40
1
9
$CELTYPE
6
ByLayer
9
$CELWEIGHT
370
18
9
$CLAYER
8
0
9
$CMLJUST
70
0
9
$CMLSCALE
40
1
9
$CMLSTYLE
2
Standard
9
$DIMSTYLE
2
Standard
9
$TEXTSIZE
40
0.2
9
$TEXTSTYLE
7
Standard
9
$LUNITS
70
2
9
$LUPREC
70
4
9
$EXTNAMES
290
1
9
$INSUNITS
70
4
9
$LTSCALE
40
1
9
$LWDISPLAY
290
1
9
$PDMODE
70
0
9
$PDSIZE
40
0
9
$PLINEGEN
70
0
0
ENDSEC
0
SECTION
2
CLASSES
0
CLASS
1
RASTERVARIABLES
2
AcDbRasterVariables
3
ISM
90
0
280
0
281
0
0
ENDSEC
0
SECTION
2
TABLES
0
TABLE
2
VPORT
5
269
100
AcDbSymbolTable
0
VPORT
5
1
100
AcDbSymbolTableRecord
100
AcDbViewportTableRecord
2
*Active
70
0
10
0
20
0
11
1
21
1
12
-1
22
1
13
0
23
0
14
0.5
24
0.5
15
10
25
10
16
0
26
0
36
1
17
0
27
0
37
0
0
ENDTAB
0
TABLE
2
LTYPE
5
26a
100
AcDbSymbolTable
0
LTYPE
5
14
100
AcDbSymbolTableRecord
100
AcDbLinetypeTableRecord
70
0
2
ByBlock
3

72
65
73
0
40
0
0
LTYPE
5
15
100
AcDbSymbolTableRecord
100
AcDbLinetypeTableRecord
70
0
2
ByLayer
3

72
65
73
0
40
0
0
LTYPE
5
16
100
AcDbSymbolTableRecord
100
AcDbLinetypeTableRecord
70
0
2
Continuous
3
Solid line
72
65
73
0
40
0
0
LTYPE
5
6E
100
AcDbSymbolTableRecord
100
AcDbLinetypeTableRecord
70
0
2
CENTER
3
____ _ ____ _ ____ _ ____
72
65
73
4
40
47.5
49
22
74
0
49
-8.5
74
0
49
8.5
74
0
49
-8.5
74
0
0
LTYPE
5
6F
100
AcDbSymbolTableRecord
100
AcDbLinetypeTableRecord
70
0
2
DASHED
3
__ __ __ __ __ __ __ __ __
72
65
73
2
40
25.72
49
12.86
74
0
49
-12.86
74
0
0
ENDTAB
0
TABLE
2
LAYER
5
26b
100
AcDbSymbolTable
0
LAYER
5
10
100
AcDbSymbolTableRecord
100
AcDbLayerTableRecord
2
0
70
0
62
7
6
Continuous
290
1
370
-3
390
0
0
LAYER
5
71
100
AcDbSymbolTableRecord
100
AcDbLayerTableRecord
2
2
70
0
62
7
6
Continuous
290
1
370
-3
390
0
0
LAYER
5
98
100
AcDbSymbolTableRecord
100
AcDbLayerTableRecord
2
81
70
0
62
-3
6
Continuous
290
1
370
-3
390
0
0
LAYER
5
9A
100
AcDbSymbolTableRecord
100
AcDbLayerTableRecord
2
80
70
0
62
-6
6
Continuous
290
1
370
-3
390
0
0
LAYER
5
9C
100
AcDbSymbolTableRecord
100
AcDbLayerTableRecord
2
1
70
0
62
4
6
Continuous
290
1
370
-3
390
0
0
LAYER
5
A7
100
AcDbSymbolTableRecord
100
AcDbLayerTableRecord
2
4
70
0
62
-2
6
CENTER
290
1
370
-3
390
0
0
LAYER
5
255
100
AcDbSymbolTableRecord
100
AcDbLayerTableRecord
2
SK4
70
0
62
2
6
CENTER
290
1
370
-3
390
0
0
LAYER
5
256
100
AcDbSymbolTableRecord
100
AcDbLayerTableRecord
2
SK1
70
0
62
4
6
Continuous
290
1
370
-3
390
0
0
LAYER
5
257
100
AcDbSymbolTableRecord
100
AcDbLayerTableRecord
2
SK2
70
0
62
7
6
Continuous
290
1
370
-3
390
0
0
LAYER
5
258
100
AcDbSymbolTableRecord
100
AcDbLayerTableRecord
2
SK6
70
0
62
5
6
Continuous
290
1
370
-3
390
0
0
ENDTAB
0
TABLE
2
STYLE
5
26c
100
AcDbSymbolTable
0
STYLE
5
11
100
AcDbSymbolTableRecord
100
AcDbTextStyleTableRecord
2
Standard
3
txt
70
0
71
0
40
0
41
1
42
0
50
0
0
STYLE
5
1D9
100
AcDbSymbolTableRecord
100
AcDbTextStyleTableRecord
2
iso_b_vert
3
simplex.shx
70
0
71
0
40
0
41
1
42
0
50
0
0
STYLE
5
1DA
100
AcDbSymbolTableRecord
100
AcDbTextStyleTableRecord
2
DWGDirectTextStyle
3
simplex
70
0
71
0
40
0
41
1
42
0
50
0
0
ENDTAB
0
TABLE
2
DIMSTYLE
5
26d
100
AcDbSymbolTable
100
AcDbDimStyleTable
0
DIMSTYLE
105
27
100
AcDbSymbolTableRecord
100
AcDbDimStyleTableRecord
2
Standard
70
0
3
<>
41
0.18
42
0.0625
44
0.18
140
0.18
147
0.09
73
0
74
0
77
1
271
2
275
0
278
52
280
0
340
11
0
ENDTAB
0
TABLE
2
VIEW
5
26e
100
AcDbSymbolTable
0
ENDTAB
0
TABLE
2
UCS
5
26f
100
AcDbSymbolTable
0
ENDTAB
0
TABLE
2
APPID
5
270
100
AcDbSymbolTable
0
APPID
5
12
100
AcDbSymbolTableRecord
100
AcDbRegAppTableRecord
2
ACAD
70
0
0
APPID
5
251
100
AcDbSymbolTableRecord
100
AcDbRegAppTableRecord
2
ACAD_MLEADERVER
70
0
0
ENDTAB
0
TABLE
2
BLOCK_RECORD
5
271
100
AcDbSymbolTable
0
BLOCK_RECORD
5
1F
100
AcDbSymbolTableRecord
100
AcDbBlockTableRecord
2
*Model_Space
340
0
70
0
0
BLOCK_RECORD
5
1B
100
AcDbSymbolTableRecord
100
AcDbBlockTableRecord
2
*Paper_Space
340
0
70
0
0
BLOCK_RECORD
5
23
100
AcDbSymbolTableRecord
100
AcDbBlockTableRecord
2
*Paper_Space0
340
0
70
0
0
ENDTAB
0
ENDSEC
0
SECTION
2
BLOCKS
0
BLOCK
5
20
100
AcDbEntity
8
0
100
AcDbBlockBegin
2
*Model_Space
70
0
10
0
20
0
30
0
3
*Model_Space
0
ENDBLK
5
21
100
AcDbEntity
8
0
100
AcDbBlockEnd
0
BLOCK
5
1C
100
AcDbEntity
8
0
100
AcDbBlockBegin
2
*Paper_Space
70
0
10
0
20
0
30
0
3
*Paper_Space
0
ENDBLK
5
1D
100
AcDbEntity
8
0
100
AcDbBlockEnd
0
BLOCK
5
24
100
AcDbEntity
8
0
100
AcDbBlockBegin
2
*Paper_Space0
70
0
10
0
20
0
30
0
3
*Paper_Space0
0
ENDBLK
5
25
100
AcDbEntity
8
0
100
AcDbBlockEnd
0
ENDSEC
0
SECTION
2
ENTITIES
0
ARC
5
14B
100
AcDbEntity
8
1
62
256
6
ByLayer
370
18
48
1
60
0
100
AcDbCircle
39
0
10
285.8
20
-19.8
30
0
40
0.2
210
0
220
0
230
1
100
AcDbArc
50
270
51
360
0
ARC
5
14C
100
AcDbEntity
8
1
62
256
6
ByLayer
370
18
48
1
60
0
100
AcDbCircle
39
0
10
285.8
20
19.8
30
0
40
0.2
210
0
220
0
230
1
100
AcDbArc
50
360
51
90
0
ARC
5
14D
100
AcDbEntity
8
SK1
62
256
6
ByLayer
370
18
48
1
60
0
100
AcDbCircle
39
0
10
-0.6
20
15
30
0
40
0.999999999999994
210
0
220
0
230
1
100
AcDbArc
50
293.578178
51
306.869898
0
ARC
5
14E
100
AcDbEntity
8
SK1
62
256
6
ByLayer
370
18
48
1
60
0
100
AcDbCircle
39
0
10
-0.6
20
-15
30
0
40
0.999999999999994
210
0
220
0
230
1
100
AcDbArc
50
53.130102
51
66.421822
0
ARC
5
14F
100
AcDbEntity
8
1
62
256
6
ByLayer
370
18
48
1
60
0
100
AcDbCircle
39
0
10
286.2
20
-19.8
30
0
40
0.2
210
0
220
0
230
1
100
AcDbArc
50
180
51
270
0
ARC
5
150
100
AcDbEntity
8
1
62
256
6
ByLayer
370
18
48
1
60
0
100
AcDbCircle
39
0
10
286.2
20
19.8
30
0
40
0.2
210
0
220
0
230
1
100
AcDbArc
50
90
51
180
0
ARC
5
151
100
AcDbEntity
8
1
62
256
6
ByLayer
370
18
48
1
60
0
100
AcDbCircle
39
0
10
292.8
20
6.699495
30
0
40
0.2
210
0
220
0
230
1
100
AcDbArc
50
0
51
90
0
ARC
5
152
100
AcDbEntity
8
1
62
256
6
ByLayer
370
18
48
1
60
0
100
AcDbCircle
39
0
10
292.8
20
13.099495
30
0
40
0.2
210
0
220
0
230
1
100
AcDbArc
50
270
51
0
0
ARC
5
153
100
AcDbEntity
8
1
62
256
6
ByLayer
370
18
48
1
60
0
100
AcDbCircle
39
0
10
298.4
20
5.499495
30
0
40
0.6
210
0
220
0
230
1
100
AcDbArc
50
270
51
360
0
ARC
5
154
100
AcDbEntity
8
1
62
256
6
ByLayer
370
18
48
1
60
0
100
AcDbCircle
39
0
10
298.4
20
14.299495
30
0
40
0.6
210
0
220
0
230
1
100
AcDbArc
50
360
51
90
0
ARC
5
155
100
AcDbEntity
8
1
62
256
6
ByLayer
370
18
48
1
60
0
100
AcDbCircle
39
0
10
292.8
20
-13.099495
30
0
40
0.2
210
0
220
0
230
1
100
AcDbArc
50
0
51
90
0
ARC
5
156
100
AcDbEntity
8
1
62
256
6
ByLayer
370
18
48
1
60
0
100
AcDbCircle
39
0
10
292.8
20
-6.699495
30
0
40
0.2
210
0
220
0
230
1
100
AcDbArc
50
270
51
0
0
ARC
5
157
100
AcDbEntity
8
1
62
256
6
ByLayer
370
18
48
1
60
0
100
AcDbCircle
39
0
10
298.4
20
-14.299495
30
0
40
0.6
210
0
220
0
230
1
100
AcDbArc
50
270
51
360
0
ARC
5
158
100
AcDbEntity
8
1
62
256
6
ByLayer
370
18
48
1
60
0
100
AcDbCircle
39
0
10
298.4
20
-5.499495
30
0
40
0.6
210
0
220
0
230
1
100
AcDbArc
50
360
51
90
0
ELLIPSE
5
159
100
AcDbEntity
8
1
62
256
6
ByLayer
370
18
48
1
60
0
100
AcDbEllipse
10
-0.948929
20
0
30
0
11
9.3674178797821
21
19.7417491527499
31
0
210
0
220
0
230
1
40
0.341999
41
-1.0963195274999
42
-0.152726244898346
0
ELLIPSE
5
15A
100
AcDbEntity
8
1
62
256
6
ByLayer
370
18
48
1
60
0
100
AcDbEllipse
10
16.948929
20
0
30
0
11
9.36741787978119
21
-19.7417491527495
31
0
210
0
220
0
230
1
40
0.341999
41
-2.98886640869143
42
-2.04527312608987
0
ELLIPSE
5
15B
100
AcDbEntity
8
1
62
256
6
ByLayer
370
18
48
1
60
0
100
AcDbEllipse
10
16.948929
20
0
30
0
11
9.36741787978142
21
19.7417491527498
31
0
210
0
220
0
230
1
40
0.341999
41
2.04527312608987
42
2.98886640869144
0
ELLIPSE
5
15C
100
AcDbEntity
8
1
62
256
6
ByLayer
370
18
48
1
60
0
100
AcDbEllipse
10
-0.948929
20
0
30
0
11
9.36741787978197
21
-19.7417491527498
31
0
210
0
220
0
230
1
40
0.341999
41
0.15272624489835
42
1.0963195274999
0
POINT
5
70
100
AcDbEntity
8
2
62
256
6
ByLayer
370
18
48
1
60
0
100
AcDbPoint
10
293
20
9.899495
30
0
39
0
210
0
220
0
230
1
50
360
0
POINT
5
72
100
AcDbEntity
8
2
62
256
6
ByLayer
370
18
48
1
60
0
100
AcDbPoint
10
289
20
9.899495
30
0
39
0
210
0
220
0
230
1
50
360
0
POINT
5
73
100
AcDbEntity
8
2
62
256
6
ByLayer
370
18
48
1
60
0
100
AcDbPoint
10
217
20
13
30
0
39
0
210
0
220
0
230
1
50
360
0
POINT
5
74
100
AcDbEntity
8
2
62
256
6
ByLayer
370
18
48
1
60
0
100
AcDbPoint
10
285.37476
20
0
30
0
39
0
210
0
220
0
230
1
50
360
0
POINT
5
75
100
AcDbEntity
8
2
62
256
6
ByLayer
370
18
48
1
60
0
100
AcDbPoint
10
205.25
20
0
30
0
39
0
210
0
220
0
230
1
50
360
0
POINT
5
76
100
AcDbEntity
8
2
62
256
6
ByLayer
370
18
48
1
60
0
100
AcDbPoint
10
267.75
20
0
30
0
39
0
210
0
220
0
230
1
50
360
0
POINT
5
77
100
AcDbEntity
8
2
62
256
6
ByLayer
370
18
48
1
60
0
100
AcDbPoint
10
256
20
13
30
0
39
0
210
0
220
0
230
1
50
360
0
POINT
5
78
100
AcDbEntity
8
2
62
256
6
ByLayer
370
18
48
1
60
0
100
AcDbPoint
10
289
20
-9.899495
30
0
39
0
210
0
220
0
230
1
50
360
0
POINT
5
79
100
AcDbEntity
8
2
62
256
6
ByLayer
370
18
48
1
60
0
100
AcDbPoint
10
201.5
20
0
30
0
39
0
210
0
220
0
230
1
50
360
0
POINT
5
7A
100
AcDbEntity
8
2
62
256
6
ByLayer
370
18
48
1
60
0
100
AcDbPoint
10
271.5
20
0
30
0
39
0
210
0
220
0
230
1
50
360
0
POINT
5
7B
100
AcDbEntity
8
2
62
256
6
ByLayer
370
18
48
1
60
0
100
AcDbPoint
10
271.5
20
0
30
0
39
0
210
0
220
0
230
1
50
360
0
POINT
5
7C
100
AcDbEntity
8
2
62
256
6
ByLayer
370
18
48
1
60
0
100
AcDbPoint
10
201.5
20
0
30
0
39
0
210
0
220
0
230
1
50
360
0
POINT
5
7D
100
AcDbEntity
8
2
62
256
6
ByLayer
370
18
48
1
60
0
100
AcDbPoint
10
236.5
20
0
30
0
39
0
210
0
220
0
230
1
50
360
0
POINT
5
7E
100
AcDbEntity
8
2
62
256
6
ByLayer
370
18
48
1
60
0
100
AcDbPoint
10
267.75
20
0
30
0
39
0
210
0
220
0
230
1
50
360
0
POINT
5
7F
100
AcDbEntity
8
2
62
256
6
ByLayer
370
18
48
1
60
0
100
AcDbPoint
10
205.25
20
0
30
0
39
0
210
0
220
0
230
1
50
360
0
POINT
5
80
100
AcDbEntity
8
2
62
256
6
ByLayer
370
18
48
1
60
0
100
AcDbPoint
10
256
20
13
30
0
39
0
210
0
220
0
230
1
50
360
0
POINT
5
81
100
AcDbEntity
8
2
62
256
6
ByLayer
370
18
48
1
60
0
100
AcDbPoint
10
217
20
13
30
0
39
0
210
0
220
0
230
1
50
360
0
POINT
5
82
100
AcDbEntity
8
2
62
256
6
ByLayer
370
18
48
1
60
0
100
AcDbPoint
10
276
20
0
30
0
39
0
210
0
220
0
230
1
50
360
0
POINT
5
83
100
AcDbEntity
8
2
62
256
6
ByLayer
370
18
48
1
60
0
100
AcDbPoint
10
271.5
20
0
30
0
39
0
210
0
220
0
230
1
50
360
0
POINT
5
84
100
AcDbEntity
8
2
62
256
6
ByLayer
370
18
48
1
60
0
100
AcDbPoint
10
293
20
9.899495
30
0
39
0
210
0
220
0
230
1
50
360
0
POINT
5
85
100
AcDbEntity
8
2
62
256
6
ByLayer
370
18
48
1
60
0
100
AcDbPoint
10
262
20
0
30
0
39
0
210
0
220
0
230
1
50
360
0
POINT
5
86
100
AcDbEntity
8
2
62
256
6
ByLayer
370
18
48
1
60
0
100
AcDbPoint
10
286
20
0
30
0
39
0
210
0
220
0
230
1
50
360
0
POINT
5
87
100
AcDbEntity
8
2
62
256
6
ByLayer
370
18
48
1
60
0
100
AcDbPoint
10
271.5
20
0
30
0
39
0
210
0
220
0
230
1
50
360
0
POINT
5
88
100
AcDbEntity
8
2
62
256
6
ByLayer
370
18
48
1
60
0
100
AcDbPoint
10
286
20
0
30
0
39
0
210
0
220
0
230
1
50
360
0
POINT
5
89
100
AcDbEntity
8
2
62
256
6
ByLayer
370
18
48
1
60
0
100
AcDbPoint
10
276
20
0
30
0
39
0
210
0
220
0
230
1
50
360
0
POINT
5
8A
100
AcDbEntity
8
2
62
256
6
ByLayer
370
50
48
1
60
0
100
AcDbPoint
10
272
20
0
30
0
39
0
210
0
220
0
230
1
50
360
0
POINT
5
8B
100
AcDbEntity
8
2
62
256
6
ByLayer
370
18
48
1
60
0
100
AcDbPoint
10
285.37476
20
0
30
0
39
0
210
0
220
0
230
1
50
360
0
POINT
5
8C
100
AcDbEntity
8
2
62
256
6
ByLayer
370
50
48
1
60
0
100
AcDbPoint
10
295
20
0
30
0
39
0
210
0
220
0
230
1
50
360
0
POINT
5
8D
100
AcDbEntity
8
2
62
256
6
ByLayer
370
18
48
1
60
0
100
AcDbPoint
10
235.5
20
0
30
0
39
0
210
0
220
0
230
1
50
360
0
POINT
5
8E
100
AcDbEntity
8
2
62
256
6
ByLayer
370
18
48
1
60
0
100
AcDbPoint
10
276
20
0
30
0
39
0
210
0
220
0
230
1
50
360
0
POINT
5
8F
100
AcDbEntity
8
2
62
256
6
ByLayer
370
18
48
1
60
0
100
AcDbPoint
10
195
20
0
30
0
39
0
210
0
220
0
230
1
50
360
0
POINT
5
90
100
AcDbEntity
8
2
62
256
6
ByLayer
370
18
48
1
60
0
100
AcDbPoint
10
192.6
20
0
30
0
39
0
210
0
220
0
230
1
50
360
0
POINT
5
91
100
AcDbEntity
8
2
62
256
6
ByLayer
370
18
48
1
60
0
100
AcDbPoint
10
201
20
0
30
0
39
0
210
0
220
0
230
1
50
360
0
POINT
5
92
100
AcDbEntity
8
2
62
256
6
ByLayer
370
18
48
1
60
0
100
AcDbPoint
10
201.5
20
0
30
0
39
0
210
0
220
0
230
1
50
360
0
POINT
5
93
100
AcDbEntity
8
2
62
256
6
ByLayer
370
18
48
1
60
0
100
AcDbPoint
10
197.05
20
0
30
0
39
0
210
0
220
0
230
1
50
360
0
POINT
5
94
100
AcDbEntity
8
2
62
256
6
ByLayer
370
18
48
1
60
0
100
AcDbPoint
10
196.8
20
0
30
0
39
0
210
0
220
0
230
1
50
360
0
POINT
5
95
100
AcDbEntity
8
2
62
256
6
ByLayer
370
18
48
1
60
0
100
AcDbPoint
10
192.6
20
0
30
0
39
0
210
0
220
0
230
1
50
360
0
POINT
5
96
100
AcDbEntity
8
2
62
256
6
ByLayer
370
18
48
1
60
0
100
AcDbPoint
10
289
20
-9.899495
30
0
39
0
210
0
220
0
230
1
50
360
0
POINT
5
97
100
AcDbEntity
8
81
62
256
6
ByLayer
370
18
48
1
60
0
100
AcDbPoint
10
288
20
0
30
0
39
0
210
0
220
0
230
1
50
360
0
POINT
5
99
100
AcDbEntity
8
80
62
256
6
ByLayer
370
18
48
1
60
0
100
AcDbPoint
10
0
20
0
30
0
39
0
210
0
220
0
230
1
50
360
0
POINT
5
9B
100
AcDbEntity
8
1
62
256
6
ByLayer
370
13
48
1
60
1
100
AcDbPoint
10
280.05
20
-9.899495
30
0
39
0
210
0
220
0
230
1
50
360
0
POINT
5
9D
100
AcDbEntity
8
1
62
256
6
ByLayer
370
13
48
1
60
1
100
AcDbPoint
10
294.3
20
-9.899495
30
0
39
0
210
0
220
0
230
1
50
360
0
POINT
5
9E
100
AcDbEntity
8
1
62
256
6
ByLayer
370
13
48
1
60
1
100
AcDbPoint
10
288.82476
20
0
30
0
39
0
210
0
220
0
230
1
50
360
0
POINT
5
9F
100
AcDbEntity
8
1
62
256
6
ByLayer
370
13
48
1
60
1
100
AcDbPoint
10
284.7
20
0
30
0
39
0
210
0
220
0
230
1
50
360
0
POINT
5
A0
100
AcDbEntity
8
1
62
256
6
ByLayer
370
13
48
1
60
1
100
AcDbPoint
10
280.05
20
9.899495
30
0
39
0
210
0
220
0
230
1
50
360
0
POINT
5
A1
100
AcDbEntity
8
1
62
256
6
ByLayer
370
13
48
1
60
1
100
AcDbPoint
10
294.3
20
9.899495
30
0
39
0
210
0
220
0
230
1
50
360
0
SPLINE
5
15D
100
AcDbEntity
8
1
62
256
6
ByLayer
370
18
48
1
60
0
100
AcDbSpline
70
4
71
3
72
25
73
21
40
0
40
0
40
0
40
0
40
0.0625000000000043
40
0.0625000000000043
40
0.125000000000009
40
0.125000000000009
40
0.250000000000007
40
0.250000000000007
40
0.31250000000001
40
0.31250000000001
40
0.375000000000014
40
0.437500000000017
40
0.437500000000017
40
0.500000000000021
40
0.500000000000021
40
0.625000000000017
40
0.625000000000017
40
0.750000000000014
40
0.750000000000014
40
1
40
1
40
1
40
1
41
1
10
9.07679491924333
20
19.1222825906925
30
0
41
1
10
9.08618793610032
20
19.1222825906925
30
0
41
1
10
9.0954127371481
20
19.1220079254874
30
0
41
1
10
9.11355518087376
20
19.1209563802606
30
0
41
1
10
9.1225366774063
20
19.1201714845572
30
0
41
1
10
9.14859952398751
20
19.1171586755843
30
0
41
1
10
9.16442417341902
20
19.1143521510704
30
0
41
1
10
9.18652951961018
20
19.1092882103459
30
0
41
1
10
9.19352784170763
20
19.1074753109817
30
0
41
1
10
9.20680755936003
20
19.1036766400565
30
0
41
1
10
9.21941536169074
20
19.0996940974827
30
0
41
1
10
9.23090181997074
20
19.0953996597769
30
0
41
1
10
9.24190585527104
20
19.0909686533589
30
0
41
1
10
9.24718147390914
20
19.0886774015103
30
0
41
1
10
9.26222766550291
20
19.0816874304591
30
0
41
1
10
9.2712450617003
20
19.0768715139989
30
0
41
1
10
9.28776218432903
20
19.0669920754349
30
0
41
1
10
9.2952564726525
20
19.0619278372253
30
0
41
1
10
9.3158845394758
20
19.0464153092312
30
0
41
1
10
9.32720842156837
20
19.0356185274184
30
0
41
1
10
9.33660254037866
20
19.0245744101322
30
0
0
SPLINE
5
15E
100
AcDbEntity
8
1
62
256
6
ByLayer
370
18
48
1
60
0
100
AcDbSpline
70
4
71
3
72
26
73
22
40
0
40
0
40
0
40
0
40
0.250000000000001
40
0.250000000000001
40
0.375000000000001
40
0.375000000000001
40
0.500000000000002
40
0.500000000000002
40
0.625000000000002
40
0.625000000000002
40
0.687500000000002
40
0.687500000000002
40
0.750000000000001
40
0.750000000000001
40
0.812500000000001
40
0.812500000000001
40
0.875000000000001
40
0.875000000000001
40
0.9375
40
0.9375
40
1
40
1
40
1
40
1
41
1
10
9.33660254037859
20
6.16973001948571
30
0
41
1
10
9.32721186043496
20
6.13568757087464
30
0
41
1
10
9.31597445228979
20
6.10231901184946
30
0
41
1
10
9.29538640224744
20
6.05364979751809
30
0
41
1
10
9.28789550729914
20
6.03765971826817
30
0
41
1
10
9.27134184136727
20
6.00626721095975
30
0
41
1
10
9.26223393369838
20
5.99079069805941
30
0
41
1
10
9.2421773079827
20
5.96102885758609
30
0
41
1
10
9.23126332140686
20
5.9467625930485
30
0
41
1
10
9.2130630746375
20
5.92663822853581
30
0
41
1
10
9.20667890314763
20
5.92014175764379
30
0
41
1
10
9.19339083915177
20
5.90787848896431
30
0
41
1
10
9.18646533697239
20
5.9020849157825
30
0
41
1
10
9.17194694863741
20
5.8913003134268
30
0
41
1
10
9.16435507239595
20
5.88630806692441
30
0
41
1
10
9.14834794030482
20
5.87731470491119
30
0
41
1
10
9.13991769670082
20
5.87332463683578
30
0
41
1
10
9.12269397006514
20
5.8668296585777
30
0
41
1
10
9.11383421352812
20
5.86428190495295
30
0
41
1
10
9.09554387437271
20
5.86079831910376
30
0
41
1
10
9.08617552753351
20
5.85988980456938
30
0
41
1
10
9.07679491924328
20
5.85988980456938
30
0
0
SPLINE
5
15F
100
AcDbEntity
8
1
62
256
6
ByLayer
370
18
48
1
60
0
100
AcDbSpline
70
4
71
3
72
25
73
21
40
0
40
0
40
0
40
0
40
0.0625000000000024
40
0.0625000000000024
40
0.125000000000005
40
0.125000000000005
40
0.250000000000015
40
0.250000000000015
40
0.312500000000016
40
0.312500000000016
40
0.375000000000017
40
0.437500000000018
40
0.437500000000018
40
0.500000000000019
40
0.500000000000019
40
0.625000000000011
40
0.625000000000011
40
0.750000000000003
40
0.750000000000003
40
1
40
1
40
1
40
1
41
1
10
6.9232050807569
20
5.85988980456935
30
0
41
1
10
6.91381206389991
20
5.85988980456935
30
0
41
1
10
6.90458726285213
20
5.86078630517147
30
0
41
1
10
6.88644481912647
20
5.86421608754827
30
0
41
1
10
6.87746332259392
20
5.86677544388638
30
0
41
1
10
6.85140047601271
20
5.87658838136369
30
0
41
1
10
6.83557582658119
20
5.88571770958592
30
0
41
1
10
6.81347048039004
20
5.90212985895326
30
0
41
1
10
6.80647215829258
20
5.9079969952312
30
0
41
1
10
6.79319244064018
20
5.92026858238677
30
0
41
1
10
6.78058463830948
20
5.9331131563525
30
0
41
1
10
6.76909818002946
20
5.94691241043867
30
0
41
1
10
6.75809414472916
20
5.96112164449838
30
0
41
1
10
6.75281852609106
20
5.9684550655306
30
0
41
1
10
6.73777233449731
20
5.99078025293946
30
0
41
1
10
6.7287549382999
20
6.00610043240178
30
0
41
1
10
6.71223781567119
20
6.03739036016586
30
0
41
1
10
6.70474352734772
20
6.05336249030205
30
0
41
1
10
6.6841154605244
20
6.10206728171738
30
0
41
1
10
6.67279157843186
20
6.13567510453115
30
0
41
1
10
6.66339745962155
20
6.16973001948568
30
0
0
SPLINE
5
160
100
AcDbEntity
8
1
62
256
6
ByLayer
370
18
48
1
60
0
100
AcDbSpline
70
4
71
3
72
26
73
22
40
0
40
0
40
0
40
0
40
0.249999999999996
40
0.249999999999996
40
0.374999999999998
40
0.374999999999998
40
0.499999999999999
40
0.499999999999999
40
0.625
40
0.625
40
0.6875
40
0.6875
40
0.75
40
0.75
40
0.8125
40
0.8125
40
0.875
40
0.875
40
0.9375
40
0.9375
40
1
40
1
40
1
40
1
41
1
10
6.66339745962162
20
19.0245744101322
30
0
41
1
10
6.67278813956524
20
19.0356144845435
30
0
41
1
10
6.68402554771041
20
19.0463346141653
30
0
41
1
10
6.70461359775277
20
19.0618365856569
30
0
41
1
10
6.71210449270106
20
19.0669068299453
30
0
41
1
10
6.72865815863294
20
19.07681905156
30
0
41
1
10
6.73776606630183
20
19.0816841489935
30
0
41
1
10
6.7578226920175
20
19.0910025433169
30
0
41
1
10
6.76873667859336
20
19.0954500347066
30
0
41
1
10
6.78693692536271
20
19.1017017213014
30
0
41
1
10
6.79332109685258
20
19.1037159413756
30
0
41
1
10
6.80660916084844
20
19.1075119510364
30
0
41
1
10
6.81353466302782
20
19.1093020671091
30
0
41
1
10
6.8280530513628
20
19.1126296584783
30
0
41
1
10
6.83564492760426
20
19.1141675067423
30
0
41
1
10
6.8516520596954
20
19.1169347436762
30
0
41
1
10
6.86008230329939
20
19.1181607182976
30
0
41
1
10
6.87730602993509
20
19.1201548450203
30
0
41
1
10
6.88616578647209
20
19.1209361972228
30
0
41
1
10
6.90445612562752
20
19.1220042459417
30
0
41
1
10
6.91382447246671
20
19.1222825906925
30
0
41
1
10
6.92320508075694
20
19.1222825906925
30
0
0
SPLINE
5
161
100
AcDbEntity
8
1
62
256
6
ByLayer
370
18
48
1
60
0
100
AcDbSpline
70
4
71
3
72
25
73
21
40
0
40
0
40
0
40
0
40
0.0625000000000003
40
0.0625000000000003
40
0.125000000000001
40
0.125000000000001
40
0.249999999999999
40
0.249999999999999
40
0.3125
40
0.3125
40
0.375000000000001
40
0.437500000000002
40
0.437500000000002
40
0.500000000000003
40
0.500000000000003
40
0.624999999999998
40
0.624999999999998
40
0.749999999999994
40
0.749999999999994
40
1
40
1
40
1
40
1
41
1
10
6.9232050807568
20
-19.1222825906926
30
0
41
1
10
6.91381206389983
20
-19.1222825906926
30
0
41
1
10
6.90458726285203
20
-19.1220079254874
30
0
41
1
10
6.88644481912637
20
-19.1209563802606
30
0
41
1
10
6.87746332259383
20
-19.1201714845572
30
0
41
1
10
6.85140047601261
20
-19.1171586755844
30
0
41
1
10
6.83557582658111
20
-19.1143521510704
30
0
41
1
10
6.81347048038995
20
-19.109288210346
30
0
41
1
10
6.80647215829249
20
-19.1074753109818
30
0
41
1
10
6.79319244064008
20
-19.1036766400566
30
0
41
1
10
6.78058463830938
20
-19.0996940974827
30
0
41
1
10
6.76909818002937
20
-19.095399659777
30
0
41
1
10
6.75809414472909
20
-19.090968653359
30
0
41
1
10
6.75281852609098
20
-19.0886774015103
30
0
41
1
10
6.73777233449722
20
-19.0816874304591
30
0
41
1
10
6.72875493829982
20
-19.076871513999
30
0
41
1
10
6.71223781567109
20
-19.0669920754349
30
0
41
1
10
6.70474352734762
20
-19.0619278372253
30
0
41
1
10
6.6841154605243
20
-19.0464153092313
30
0
41
1
10
6.67279157843176
20
-19.0356185274185
30
0
41
1
10
6.66339745962145
20
-19.0245744101322
30
0
0
SPLINE
5
162
100
AcDbEntity
8
1
62
256
6
ByLayer
370
18
48
1
60
0
100
AcDbSpline
70
4
71
3
72
26
73
22
40
0
40
0
40
0
40
0
40
0.250000000000006
40
0.250000000000006
40
0.375000000000006
40
0.375000000000006
40
0.500000000000005
40
0.500000000000005
40
0.625000000000005
40
0.625000000000005
40
0.687500000000004
40
0.687500000000004
40
0.750000000000003
40
0.750000000000003
40
0.812500000000002
40
0.812500000000002
40
0.875000000000002
40
0.875000000000002
40
0.937500000000001
40
0.937500000000001
40
1
40
1
40
1
40
1
41
1
10
6.66339745962152
20
-6.16973001948574
30
0
41
1
10
6.67278813956516
20
-6.13568757087469
30
0
41
1
10
6.68402554771032
20
-6.10231901184952
30
0
41
1
10
6.70461359775268
20
-6.05364979751815
30
0
41
1
10
6.71210449270097
20
-6.0376597182682
30
0
41
1
10
6.72865815863284
20
-6.00626721095978
30
0
41
1
10
6.73776606630173
20
-5.99079069805944
30
0
41
1
10
6.75782269201741
20
-5.96102885758611
30
0
41
1
10
6.76873667859327
20
-5.94676259304853
30
0
41
1
10
6.78693692536261
20
-5.92663822853584
30
0
41
1
10
6.79332109685249
20
-5.92014175764382
30
0
41
1
10
6.80660916084835
20
-5.90787848896434
30
0
41
1
10
6.81353466302772
20
-5.9020849157825
30
0
41
1
10
6.82805305136272
20
-5.89130031342683
30
0
41
1
10
6.83564492760418
20
-5.88630806692444
30
0
41
1
10
6.85165205969531
20
-5.87731470491121
30
0
41
1
10
6.86008230329931
20
-5.87332463683578
30
0
41
1
10
6.877306029935
20
-5.8668296585777
30
0
41
1
10
6.88616578647201
20
-5.86428190495295
30
0
41
1
10
6.90445612562742
20
-5.86079831910376
30
0
41
1
10
6.91382447246663
20
-5.85988980456938
30
0
41
1
10
6.92320508075684
20
-5.85988980456938
30
0
0
SPLINE
5
163
100
AcDbEntity
8
1
62
256
6
ByLayer
370
18
48
1
60
0
100
AcDbSpline
70
4
71
3
72
25
73
21
40
0
40
0
40
0
40
0
40
0.0625000000000116
40
0.0625000000000116
40
0.125000000000023
40
0.125000000000023
40
0.250000000000038
40
0.250000000000038
40
0.312500000000039
40
0.312500000000039
40
0.37500000000004
40
0.437500000000041
40
0.437500000000041
40
0.500000000000042
40
0.500000000000042
40
0.625000000000033
40
0.625000000000033
40
0.750000000000024
40
0.750000000000024
40
1
40
1
40
1
40
1
41
1
10
9.07679491924324
20
-5.85988980456946
30
0
41
1
10
9.08618793610022
20
-5.85988980456946
30
0
41
1
10
9.095412737148
20
-5.86078630517156
30
0
41
1
10
9.11355518087368
20
-5.86421608754836
30
0
41
1
10
9.12253667740622
20
-5.86677544388647
30
0
41
1
10
9.14859952398743
20
-5.87658838136377
30
0
41
1
10
9.16442417341894
20
-5.88571770958603
30
0
41
1
10
9.1865295196101
20
-5.90212985895337
30
0
41
1
10
9.19352784170756
20
-5.90799699523129
30
0
41
1
10
9.20680755935996
20
-5.92026858238685
30
0
41
1
10
9.21941479944627
20
-5.93311363814726
30
0
41
1
10
9.23090181997068
20
-5.94691241043878
30
0
41
1
10
9.24190585527097
20
-5.96112164449846
30
0
41
1
10
9.24718147390908
20
-5.96845506553069
30
0
41
1
10
9.26222766550283
20
-5.99078025293957
30
0
41
1
10
9.27124506170024
20
-6.00610043240189
30
0
41
1
10
9.28776218432895
20
-6.03739036016594
30
0
41
1
10
9.29525647265243
20
-6.05336249030213
30
0
41
1
10
9.31588453947575
20
-6.10206728171749
30
0
41
1
10
9.32720842156839
20
-6.1356751045316
30
0
41
1
10
9.33660254037868
20
-6.16973001948617
30
0
0
SPLINE
5
164
100
AcDbEntity
8
1
62
256
6
ByLayer
370
18
48
1
60
0
100
AcDbSpline
70
4
71
3
72
26
73
22
40
0
40
0
40
0
40
0
40
0.250000000000012
40
0.250000000000012
40
0.375000000000013
40
0.375000000000013
40
0.500000000000013
40
0.500000000000013
40
0.625000000000014
40
0.625000000000014
40
0.687500000000011
40
0.687500000000011
40
0.750000000000009
40
0.750000000000009
40
0.812500000000007
40
0.812500000000007
40
0.875000000000005
40
0.875000000000005
40
0.937500000000002
40
0.937500000000002
40
1
40
1
40
1
40
1
41
1
10
9.33660254037861
20
-19.0245744101321
30
0
41
1
10
9.327211860435
20
-19.0356144845435
30
0
41
1
10
9.31597445228974
20
-19.0463346141653
30
0
41
1
10
9.29538640224739
20
-19.061836585657
30
0
41
1
10
9.28789550729908
20
-19.0669068299453
30
0
41
1
10
9.27134184136722
20
-19.07681905156
30
0
41
1
10
9.26223393369831
20
-19.0816841489935
30
0
41
1
10
9.24217730798264
20
-19.0910025433169
30
0
41
1
10
9.23126332140679
20
-19.0954500347067
30
0
41
1
10
9.21306307463745
20
-19.1017017213015
30
0
41
1
10
9.20667890314756
20
-19.1037159413756
30
0
41
1
10
9.1933908391517
20
-19.1075119510364
30
0
41
1
10
9.18646533697233
20
-19.1093020671092
30
0
41
1
10
9.17194694863734
20
-19.1126296584783
30
0
41
1
10
9.16435507239588
20
-19.1141675067423
30
0
41
1
10
9.14834794030475
20
-19.1169347436763
30
0
41
1
10
9.13991769670075
20
-19.1181607182977
30
0
41
1
10
9.12269397006506
20
-19.1201548450204
30
0
41
1
10
9.11383421352805
20
-19.1209361972229
30
0
41
1
10
9.09554387437262
20
-19.1220042459418
30
0
41
1
10
9.08617552753341
20
-19.1222825906926
30
0
41
1
10
9.0767949192432
20
-19.1222825906926
30
0
0
SPLINE
5
165
100
AcDbEntity
8
SK1
62
256
6
ByLayer
370
18
48
1
60
0
100
AcDbSpline
70
4
71
3
72
9
73
5
40
0
40
0
40
0
40
0
40
0.398612302526601
40
1
40
1
40
1
40
1
41
1
10
-0.394913799811235
20
13.8446595289407
30
0
41
1
10
-0.394913799811235
20
13.8386282511807
30
0
41
1
10
-0.394913799811235
20
13.8153202987596
30
0
41
1
10
-0.394913799811235
20
13.7726147174672
30
0
41
1
10
-0.394913799811249
20
13.7403545289408
30
0
0
SPLINE
5
166
100
AcDbEntity
8
SK1
62
256
6
ByLayer
370
13
48
1
60
0
100
AcDbSpline
70
4
71
3
72
18
73
14
40
0
40
0
40
0
40
0
40
0.0327428665916714
40
0.112953690065661
40
0.193164513539651
40
0.35358616048763
40
0.514007807435609
40
0.594218630909599
40
0.674429454383589
40
0.834851101331568
40
0.915061924805557
40
0.995272748279547
40
1
40
1
40
1
40
1
41
1
10
-0.394913799811249
20
13.7403540822205
30
0
41
1
10
-0.394913799811249
20
13.7181012198191
30
0
41
1
10
-0.394913799811249
20
13.630538524955
30
0
41
1
10
-0.394913799811235
20
13.4200270263956
30
0
41
1
10
-0.394913799811249
20
12.9393754432253
30
0
41
1
10
-0.394913799811249
20
12.1118907902116
30
0
41
1
10
-0.394913799811249
20
11.015314225612
30
0
41
1
10
-0.394913799811249
20
9.98771978618734
30
0
41
1
10
-0.394913799811263
20
8.86359092653058
30
0
41
1
10
-0.394913799811263
20
7.59985122616763
30
0
41
1
10
-0.394913799811263
20
6.19788950405021
30
0
41
1
10
-0.394913799811278
20
5.43069780454792
30
0
41
1
10
-0.394913799811278
20
5.02384266526144
30
0
41
1
10
-0.394913799811278
20
5.00116108217654
30
0
0
SPLINE
5
167
100
AcDbEntity
8
SK1
62
256
6
ByLayer
370
13
48
1
60
0
100
AcDbSpline
70
4
71
3
72
18
73
14
40
0
40
0
40
0
40
0
40
0.0047272869869683
40
0.084938101916593
40
0.165148916846218
40
0.325570546705467
40
0.405781361635092
40
0.485992176564717
40
0.646413806423966
40
0.806835436283216
40
0.88704625121284
40
0.967257066142465
40
1
40
1
40
1
40
1
41
1
10
-0.394913799811306
20
-5.00116056257954
30
0
41
1
10
-0.394913799811306
20
-5.02384231959817
30
0
41
1
10
-0.394913799811306
20
-5.43069766104711
30
0
41
1
10
-0.39491379981132
20
-6.19788936064776
30
0
41
1
10
-0.39491379981132
20
-7.59985108367658
30
0
41
1
10
-0.39491379981132
20
-8.86359091499725
30
0
41
1
10
-0.394913799811334
20
-9.98771966705354
30
0
41
1
10
-0.394913799811334
20
-11.0153145242407
30
0
41
1
10
-0.394913799811334
20
-12.1118904563386
30
0
41
1
10
-0.394913799811334
20
-12.9393760577865
30
0
41
1
10
-0.394913799811349
20
-13.4200269261686
30
0
41
1
10
-0.394913799811349
20
-13.6305387837567
30
0
41
1
10
-0.394913799811349
20
-13.7181016404298
30
0
41
1
10
-0.394913799811349
20
-13.7403545625042
30
0
0
SPLINE
5
168
100
AcDbEntity
8
SK1
62
256
6
ByLayer
370
18
48
1
60
0
100
AcDbSpline
70
4
71
3
72
9
73
5
40
0
40
0
40
0
40
0
40
0.601388591682611
40
1
40
1
40
1
40
1
41
1
10
-0.394913799811349
20
-13.7403546985091
30
0
41
1
10
-0.394913799811349
20
-13.7726150015539
30
0
41
1
10
-0.394913799811349
20
-13.8153206302576
30
0
41
1
10
-0.394913799811349
20
-13.8386284705405
30
0
41
1
10
-0.394913799811349
20
-13.8446596982821
30
0
0
SPLINE
5
169
100
AcDbEntity
8
SK1
62
256
6
ByLayer
370
18
48
1
60
0
100
AcDbSpline
70
4
71
3
72
38
73
34
40
0
40
0
40
0
40
0
40
0.250000000000002
40
0.250000000000002
40
0.375000000000002
40
0.375000000000002
40
0.500000000000002
40
0.500000000000002
40
0.625000000000002
40
0.625000000000002
40
0.687500000000001
40
0.687500000000001
40
0.75
40
0.75
40
0.8125
40
0.8125
40
0.843750000000001
40
0.843750000000001
40
0.875000000000001
40
0.875000000000001
40
0.906250000000002
40
0.906250000000002
40
0.921875000000002
40
0.921875000000002
40
0.937500000000002
40
0.937500000000002
40
0.953125000000001
40
0.953125000000001
40
0.968750000000001
40
0.968750000000001
40
0.984375
40
0.984375
40
1
40
1
40
1
40
1
41
1
10
-0.199999999999378
20
-5.67845150386444
30
0
41
1
10
-0.200325582586359
20
-5.61546983787082
30
0
41
1
10
-0.201889292857572
20
-5.55215860517754
30
0
41
1
10
-0.206944102194697
20
-5.45662122321775
30
0
41
1
10
-0.209086134714454
20
-5.42467998239266
30
0
41
1
10
-0.21457199069215
20
-5.3605854115099
30
0
41
1
10
-0.21791206316162
20
-5.32841102024764
30
0
41
1
10
-0.226295439932088
20
-5.26391096451732
30
0
41
1
10
-0.231309806286362
20
-5.2316498923106
30
0
41
1
10
-0.240869472301753
20
-5.1832943458636
30
0
41
1
10
-0.244408671816416
20
-5.1671511226622
30
0
41
1
10
-0.252415474864946
20
-5.13507348952746
30
0
41
1
10
-0.256872941279809
20
-5.11914471875505
30
0
41
1
10
-0.267174521639603
20
-5.08763962812168
30
0
41
1
10
-0.272989810767712
20
-5.0720552884666
30
0
41
1
10
-0.283588617018026
20
-5.04917503165311
30
0
41
1
10
-0.287438460226028
20
-5.04163217306021
30
0
41
1
10
-0.296146757253496
20
-5.02681840776788
30
0
41
1
10
-0.301009391388107
20
-5.0195415451586
30
0
41
1
10
-0.312085221061167
20
-5.00607580183632
30
0
41
1
10
-0.318315705389438
20
-4.99984728402768
30
0
41
1
10
-0.329074985885271
20
-4.99241446107195
30
0
41
1
10
-0.332955447380513
20
-4.99024185405489
30
0
41
1
10
-0.340970311890771
20
-4.98696063906132
30
0
41
1
10
-0.345215229647579
20
-4.98581465317102
30
0
41
1
10
-0.353680105344111
20
-4.98475614855747
30
0
41
1
10
-0.357908257096057
20
-4.98482371680851
30
0
41
1
10
-0.366237107963414
20
-4.9860363417142
30
0
41
1
10
-0.370199866879318
20
-4.9871503845547
30
0
41
1
10
-0.377826935749439
20
-4.99013013351933
30
0
41
1
10
-0.381503554974373
20
-4.99201030025074
30
0
41
1
10
-0.38845158918636
20
-4.99624657017239
30
0
41
1
10
-0.391748910596093
20
-4.99861131394746
30
0
41
1
10
-0.394913799807441
20
-5.0011605625827
30
0
0
SPLINE
5
16A
100
AcDbEntity
8
SK1
62
256
6
ByLayer
370
18
48
1
60
0
100
AcDbSpline
70
4
71
3
72
40
73
36
40
0
40
0
40
0
40
0
40
0.015625000000001
40
0.015625000000001
40
0.0312500000000019
40
0.0312500000000019
40
0.0468750000000029
40
0.0468750000000029
40
0.0625000000000039
40
0.0625000000000039
40
0.0781250000000048
40
0.0781250000000048
40
0.0937500000000058
40
0.0937500000000058
40
0.109375000000007
40
0.109375000000007
40
0.125000000000008
40
0.125000000000008
40
0.156250000000008
40
0.156250000000008
40
0.187500000000009
40
0.187500000000009
40
0.250000000000009
40
0.250000000000009
40
0.31250000000001
40
0.31250000000001
40
0.37500000000001
40
0.37500000000001
40
0.500000000000007
40
0.500000000000007
40
0.625000000000006
40
0.625000000000006
40
0.750000000000004
40
0.750000000000004
40
1
40
1
40
1
40
1
41
1
10
-0.394913799811349
20
-13.8446596982821
30
0
41
1
10
-0.391753842527209
20
-13.8448423969163
30
0
41
1
10
-0.388464315595641
20
-13.845095524037
30
0
41
1
10
-0.38154173639289
20
-13.8457899488977
30
0
41
1
10
-0.377877027729312
20
-13.846235641883
30
0
41
1
10
-0.370235109341778
20
-13.8473680380174
30
0
41
1
10
-0.366278137943979
20
-13.8480502152413
30
0
41
1
10
-0.358006392496023
20
-13.8497192387353
30
0
41
1
10
-0.353733594241419
20
-13.8507022641717
30
0
41
1
10
-0.34529125377172
20
-13.8529042812469
30
0
41
1
10
-0.3410399733106
20
-13.8541465128493
30
0
41
1
10
-0.333021571763936
20
-13.8567295936368
30
0
41
1
10
-0.329149016141301
20
-13.858101654615
30
0
41
1
10
-0.321960461862019
20
-13.8608465411072
30
0
41
1
10
-0.318622944145062
20
-13.8622234641578
30
0
41
1
10
-0.312322841306056
20
-13.8649804039333
30
0
41
1
10
-0.309355911672199
20
-13.866364075454
30
0
41
1
10
-0.301081039190649
20
-13.8704177140821
30
0
41
1
10
-0.296293809253356
20
-13.8730299294695
30
0
41
1
10
-0.287566520738594
20
-13.8781327420571
30
0
41
1
10
-0.283637913589743
20
-13.8806243248759
30
0
41
1
10
-0.272924030069376
20
-13.8878208927885
30
0
41
1
10
-0.267075773720691
20
-13.8923152006563
30
0
41
1
10
-0.256729802109774
20
-13.9009261566768
30
0
41
1
10
-0.252263586587162
20
-13.9050370743235
30
0
41
1
10
-0.244249097570261
20
-13.9129633802222
30
0
41
1
10
-0.240704867227152
20
-13.9167821274841
30
0
41
1
10
-0.231153161037952
20
-13.9277833881154
30
0
41
1
10
-0.226167999262017
20
-13.9345502713768
30
0
41
1
10
-0.217842040598015
20
-13.9472498215878
30
0
41
1
10
-0.214523379010984
20
-13.9531770452386
30
0
41
1
10
-0.209063760504875
20
-13.9643331642488
30
0
41
1
10
-0.206929064369021
20
-13.9695604951636
30
0
41
1
10
-0.201888899753541
20
-13.984321015747
30
0
41
1
10
-0.200325484931866
20
-13.9929389755075
30
0
41
1
10
-0.20000000000006
20
-14.0005308360297
30
0
0
SPLINE
5
16B
100
AcDbEntity
8
SK1
62
256
6
ByLayer
370
18
48
1
60
0
100
AcDbSpline
70
4
71
3
72
38
73
34
40
0
40
0
40
0
40
0
40
0.25
40
0.25
40
0.375
40
0.375
40
0.5
40
0.5
40
0.624999999999999
40
0.624999999999999
40
0.687499999999999
40
0.687499999999999
40
0.749999999999999
40
0.749999999999999
40
0.812499999999999
40
0.812499999999999
40
0.84375
40
0.84375
40
0.875
40
0.875
40
0.90625
40
0.90625
40
0.921875
40
0.921875
40
0.9375
40
0.9375
40
0.953125
40
0.953125
40
0.96875
40
0.96875
40
0.984375
40
0.984375
40
1
40
1
40
1
40
1
41
1
10
-0.199999999999946
20
14.0005306290776
30
0
41
1
10
-0.200325526921574
20
13.992937784021
30
0
41
1
10
-0.201888714477036
20
13.9843134154886
30
0
41
1
10
-0.206943565198557
20
13.9695217949656
30
0
41
1
10
-0.209085750971298
20
13.964280444998
30
0
41
1
10
-0.214572317075422
20
13.9530845047233
30
0
41
1
10
-0.217912944663397
20
13.947127348993
30
0
41
1
10
-0.226297832831506
20
13.9343664914099
30
0
41
1
10
-0.231313142997848
20
13.9275805879124
30
0
41
1
10
-0.240874255815243
20
13.9165963734792
30
0
41
1
10
-0.244413939321532
20
13.9127918287046
30
0
41
1
10
-0.252421658911729
20
13.9048892296203
30
0
41
1
10
-0.256879537942311
20
13.9007947938235
30
0
41
1
10
-0.267181679795669
20
13.8922335922221
30
0
41
1
10
-0.272997114041147
20
13.887771829979
30
0
41
1
10
-0.283595780474911
20
13.8806523483052
30
0
41
1
10
-0.287445517218615
20
13.8782073044309
30
0
41
1
10
-0.296153419957108
20
13.8731079755537
30
0
41
1
10
-0.301015966388689
20
13.8704509077418
30
0
41
1
10
-0.312091372528158
20
13.865022403485
30
0
41
1
10
-0.318321797662975
20
13.8622381003803
30
0
41
1
10
-0.329080600695008
20
13.8581264595614
30
0
41
1
10
-0.332960961810812
20
13.8567502285021
30
0
41
1
10
-0.340975528995827
20
13.854165851519
30
0
41
1
10
-0.345220189226723
20
13.8529238754024
30
0
41
1
10
-0.353684635700617
20
13.8507136617023
30
0
41
1
10
-0.357912392007762
20
13.849739303977
30
0
41
1
10
-0.366240526544601
20
13.8480563938372
30
0
41
1
10
-0.370202860200664
20
13.8473733313911
30
0
41
1
10
-0.377829013893731
20
13.846241915681
30
0
41
1
10
-0.381505168769678
20
13.8457938151623
30
0
41
1
10
-0.388452375608722
20
13.8450961903932
30
0
41
1
10
-0.391749296202022
20
13.844842490927
30
0
41
1
10
-0.39491379981456
20
13.8446595289409
30
0
0
SPLINE
5
16C
100
AcDbEntity
8
SK1
62
256
6
ByLayer
370
18
48
1
60
0
100
AcDbSpline
70
4
71
3
72
40
73
36
40
0
40
0
40
0
40
0
40
0.0156250000000001
40
0.0156250000000001
40
0.0312500000000003
40
0.0312500000000003
40
0.0468750000000004
40
0.0468750000000004
40
0.0625000000000006
40
0.0625000000000006
40
0.0781250000000007
40
0.0781250000000007
40
0.0937500000000009
40
0.0937500000000009
40
0.109375000000001
40
0.109375000000001
40
0.125000000000001
40
0.125000000000001
40
0.156250000000002
40
0.156250000000002
40
0.187500000000002
40
0.187500000000002
40
0.250000000000003
40
0.250000000000003
40
0.312500000000004
40
0.312500000000004
40
0.375000000000005
40
0.375000000000005
40
0.500000000000004
40
0.500000000000004
40
0.625000000000003
40
0.625000000000003
40
0.750000000000002
40
0.750000000000002
40
1
40
1
40
1
40
1
41
1
10
-0.394913799811278
20
5.00116108217654
30
0
41
1
10
-0.39175343882772
20
4.99861548354417
30
0
41
1
10
-0.388463488029373
20
4.99625601274579
30
0
41
1
10
-0.381540018186655
20
4.99203141004628
30
0
41
1
10
-0.377874829705547
20
4.99015247985739
30
0
41
1
10
-0.370231991198054
20
4.98716039898099
30
0
41
1
10
-0.366274570071283
20
4.98604804966439
30
0
41
1
10
-0.358001975899739
20
4.98483227377295
30
0
41
1
10
-0.353728848469089
20
4.98475618750666
30
0
41
1
10
-0.345285948994103
20
4.98580083402234
30
0
41
1
10
-0.34103446340481
20
4.9869408469134
30
0
41
1
10
-0.333015725026698
20
4.99021187411824
30
0
41
1
10
-0.329143040072339
20
4.99237354459822
30
0
41
1
10
-0.321954234540072
20
4.99732874567789
30
0
41
1
10
-0.318616604997231
20
5.00011766639525
30
0
41
1
10
-0.312316306979497
20
5.00615011165598
30
0
41
1
10
-0.30934926961055
20
5.00940629678661
30
0
41
1
10
-0.301074093098094
20
5.01945615581229
30
0
41
1
10
-0.296286725692653
20
5.02660153595323
30
0
41
1
10
-0.287559273211826
20
5.04140704567578
30
0
41
1
10
-0.283630596953586
20
5.04908544639636
30
0
41
1
10
-0.272916655032176
20
5.07221259840796
30
0
41
1
10
-0.267068575155207
20
5.0879254663663
30
0
41
1
10
-0.256723214245511
20
5.1196426801294
30
0
41
1
10
-0.252257427302865
20
5.13565463294324
30
0
41
1
10
-0.24424387723711
20
5.16786639775964
30
0
41
1
10
-0.240700146478531
20
5.18409077433588
30
0
41
1
10
-0.231149880121407
20
5.23258507573854
30
0
41
1
10
-0.226165642228992
20
5.26480643303958
30
0
41
1
10
-0.217841153282222
20
5.32906305985333
30
0
41
1
10
-0.214523044028113
20
5.36109790788328
30
0
41
1
10
-0.209064130076854
20
5.42499801712538
30
0
41
1
10
-0.206929588208112
20
5.45686315009974
30
0
41
1
10
-0.201889470916555
20
5.5522215486582
30
0
41
1
10
-0.20032554002394
20
5.61547854140437
30
0
41
1
10
-0.199999999999974
20
5.67845201642962
30
0
0
SPLINE
5
16D
100
AcDbEntity
8
SK1
62
256
6
ByLayer
370
18
48
1
60
0
100
AcDbSpline
70
4
71
3
72
51
73
47
40
0
40
0
40
0
40
0
40
0.125
40
0.125
40
0.249999999999999
40
0.249999999999999
40
0.374999999999998
40
0.374999999999998
40
0.437499999999998
40
0.437499999999998
40
0.499999999999999
40
0.499999999999999
40
0.562499999999999
40
0.562499999999999
40
0.624999999999999
40
0.624999999999999
40
0.687499999999999
40
0.687499999999999
40
0.749999999999999
40
0.749999999999999
40
0.78125
40
0.78125
40
0.8125
40
0.8125
40
0.828124999999999
40
0.828124999999999
40
0.843749999999999
40
0.843749999999999
40
0.859374999999999
40
0.859374999999999
40
0.867187499999999
40
0.867187499999999
40
0.874999999999999
40
0.874999999999999
40
0.90625
40
0.90625
40
0.9140625
40
0.9140625
40
0.921875
40
0.9375
40
0.9375
40
0.953125
40
0.953125
40
0.96875
40
0.96875
40
1
40
1
40
1
40
1
41
1
10
-1.30710678118653
20
3.62853433720645
30
0
41
1
10
-1.29188624779785
20
3.70566670397201
30
0
41
1
10
-1.27561460874021
20
3.78218340304136
30
0
41
1
10
-1.24056171778476
20
3.9339536596444
30
0
41
1
10
-1.22178607754873
20
4.0092085502001
30
0
41
1
10
-1.18109081197507
20
4.1583703791232
30
0
41
1
10
-1.15918165202706
20
4.23227919141885
30
0
41
1
10
-1.12316712175576
20
4.34200882575533
30
0
41
1
10
-1.1106258302802
20
4.37841416747673
30
0
41
1
10
-1.08433177378572
20
4.4506493409462
30
0
41
1
10
-1.07057669597751
20
4.48649265752218
30
0
41
1
10
-1.04157111619291
20
4.55755616008759
30
0
41
1
10
-1.02632348400361
20
4.59277716864142
30
0
41
1
10
-0.99391311207107
20
4.66248133856587
30
0
41
1
10
-0.976740804435934
20
4.69698582221125
30
0
41
1
10
-0.940052913520773
20
4.76461628090829
30
0
41
1
10
-0.920529370906067
20
4.79779601403041
30
0
41
1
10
-0.878053724810215
20
4.86240606869328
30
0
41
1
10
-0.855145617589429
20
4.89385654551648
30
0
41
1
10
-0.816547093628216
20
4.93896729549496
30
0
41
1
10
-0.802914827069728
20
4.95369126459417
30
0
41
1
10
-0.774172797668399
20
4.98165817730296
30
0
41
1
10
-0.759028353676285
20
4.99496074537163
30
0
41
1
10
-0.734670547069513
20
5.01348585979886
30
0
41
1
10
-0.72627528941797
20
5.01942067172476
30
0
41
1
10
-0.708803295444639
20
5.03069978836885
30
0
41
1
10
-0.69969969309355
20
5.0360533513589
30
0
41
1
10
-0.681034016074307
20
5.04581904881579
30
0
41
1
10
-0.671435209911522
20
5.05025831011366
30
0
41
1
10
-0.656561241457737
20
5.05612553121159
30
0
41
1
10
-0.651523728611238
20
5.05794894419779
30
0
41
1
10
-0.641273399804717
20
5.06130432437081
30
0
41
1
10
-0.636038898961729
20
5.06284104440826
30
0
41
1
10
-0.609788395540505
20
5.06961980113229
30
0
41
1
10
-0.588380278389138
20
5.07223202598755
30
0
41
1
10
-0.561044214178395
20
5.0715296778481
30
0
41
1
10
-0.555539481232202
20
5.07118703454174
30
0
41
1
10
-0.544698986354902
20
5.07012184570777
30
0
41
1
10
-0.528606239136906
20
5.06795442924033
30
0
41
1
10
-0.512988129699508
20
5.06417699720825
30
0
41
1
10
-0.492542658095459
20
5.05785401853598
30
0
41
1
10
-0.482560235211082
20
5.05405619211425
30
0
41
1
10
-0.463438908679194
20
5.04557564745028
30
0
41
1
10
-0.454225812702362
20
5.04087055985525
30
0
41
1
10
-0.427444682539445
20
5.02560401094567
30
0
41
1
10
-0.410665386495026
20
5.01384862569722
30
0
41
1
10
-0.394913799811278
20
5.00116108217659
30
0
0
SPLINE
5
16E
100
AcDbEntity
8
SK1
62
256
6
ByLayer
370
18
48
1
60
0
100
AcDbSpline
70
4
71
3
72
51
73
47
40
0
40
0
40
0
40
0
40
0.0312500000000001
40
0.0312500000000001
40
0.0468749999999999
40
0.0468749999999999
40
0.0624999999999996
40
0.0781249999999994
40
0.0781249999999994
40
0.0859374999999992
40
0.0859374999999992
40
0.0937499999999991
40
0.109374999999999
40
0.109374999999999
40
0.117187499999999
40
0.117187499999999
40
0.124999999999999
40
0.140624999999998
40
0.140624999999998
40
0.156249999999998
40
0.156249999999998
40
0.187499999999997
40
0.187499999999997
40
0.203124999999997
40
0.203124999999997
40
0.218749999999997
40
0.218749999999997
40
0.249999999999997
40
0.249999999999997
40
0.312499999999997
40
0.312499999999997
40
0.343749999999997
40
0.343749999999997
40
0.374999999999997
40
0.374999999999997
40
0.437499999999998
40
0.437499999999998
40
0.499999999999999
40
0.499999999999999
40
0.624999999999999
40
0.624999999999999
40
0.749999999999999
40
0.749999999999999
40
0.875
40
0.875
40
1
40
1
40
1
40
1
41
1
10
-0.39491379981051
20
-5.00116056255814
30
0
41
1
10
-0.410735023483511
20
-5.01390421017646
30
0
41
1
10
-0.427464692677447
20
-5.02563245237855
30
0
41
1
10
-0.454534416729544
20
-5.04103707702356
30
0
41
1
10
-0.463947967840681
20
-5.04582591451216
30
0
41
1
10
-0.48322891103075
20
-5.05432574420996
30
0
41
1
10
-0.502979834812194
20
-5.06177117057427
30
0
41
1
10
-0.523814898152153
20
-5.06678978581303
30
0
41
1
10
-0.539919309159203
20
-5.06948506381411
30
0
41
1
10
-0.545392549087396
20
-5.07020599311227
30
0
41
1
10
-0.556304392511294
20
-5.07124292633216
30
0
41
1
10
-0.572669010460402
20
-5.07220433725334
30
0
41
1
10
-0.589024240534258
20
-5.07139043996949
30
0
41
1
10
-0.605373228252532
20
-5.06939770112723
30
0
41
1
10
-0.610843200205011
20
-5.06853179751513
30
0
41
1
10
-0.621612371118474
20
-5.06644388397413
30
0
41
1
10
-0.637551053482468
20
-5.06277719842694
30
0
41
1
10
-0.652894042393328
20
-5.05762851177528
30
0
41
1
10
-0.672891603682146
20
-5.04961808259611
30
0
41
1
10
-0.682629254932394
20
-5.04504465543113
30
0
41
1
10
-0.710603681718226
20
-5.03020967742904
30
0
41
1
10
-0.727880800919948
20
-5.01875181169186
30
0
41
1
10
-0.752392350049973
20
-4.999948849948
30
0
41
1
10
-0.760349771776163
20
-4.99338317091983
30
0
41
1
10
-0.775696659387549
20
-4.9799241664696
30
0
41
1
10
-0.783093038222944
20
-4.97302905184745
30
0
41
1
10
-0.804596803075029
20
-4.95193103239396
30
0
41
1
10
-0.818026122235807
20
-4.93731968624948
30
0
41
1
10
-0.856343638951415
20
-4.89227865327601
30
0
41
1
10
-0.879296662789457
20
-4.86066233047498
30
0
41
1
10
-0.911330345780584
20
-4.81170689277053
30
0
41
1
10
-0.921612206817869
20
-4.79509560720325
30
0
41
1
10
-0.941360422010987
20
-4.76165452150423
30
0
41
1
10
-0.950840081220875
20
-4.74480636515824
30
0
41
1
10
-0.978301889811434
20
-4.69393335632202
30
0
41
1
10
-0.995317234370319
20
-4.65958274004282
30
0
41
1
10
-1.02746285247527
20
-4.59019333091888
30
0
41
1
10
-1.04258655138122
20
-4.55515277213792
30
0
41
1
10
-1.08574263925136
20
-4.44915525032008
30
0
41
1
10
-1.11159177403968
20
-4.37733091027962
30
0
41
1
10
-1.15931218721894
20
-4.23182333008765
30
0
41
1
10
-1.18115763731656
20
-4.15813319978358
30
0
41
1
10
-1.22181063294734
20
-4.00910669461106
30
0
41
1
10
-1.24060841320622
20
-3.93375870314145
30
0
41
1
10
-1.27564950878532
20
-3.7820205106818
30
0
41
1
10
-1.29190613640861
20
-3.70556358522939
30
0
41
1
10
-1.30710678118753
20
-3.62853202212813
30
0
0
SPLINE
5
16F
100
AcDbEntity
8
SK1
62
256
6
ByLayer
370
18
48
1
60
0
100
AcDbSpline
70
4
71
3
72
39
73
35
40
0
40
0
40
0
40
0
40
0.0233594702196919
40
0.0513972114058401
40
0.0794349525919883
40
0.107472693778136
40
0.163548176150433
40
0.219623658522729
40
0.247661399708877
40
0.275699140895026
40
0.331774623267322
40
0.35981236445347
40
0.387850105639618
40
0.415887846825767
40
0.443925588011915
40
0.471963329198063
40
0.485982199791137
40
0.500001070384211
40
0.514019940977285
40
0.528038811570359
40
0.556076552756507
40
0.584114293942656
40
0.612152035128804
40
0.640189776314952
40
0.6682275175011
40
0.724302999873396
40
0.752340741059545
40
0.780378482245693
40
0.836453964617989
40
0.892529446990285
40
0.920567188176433
40
0.948604929362582
40
0.97664267054873
40
1
40
1
40
1
40
1
41
1
10
-24.0000000000001
20
-12.6317141805443
30
0
41
1
10
-24.0000000000001
20
-12.6344704886058
30
0
41
1
10
-24.0000000000001
20
-12.6094827243217
30
0
41
1
10
-24.0000000000001
20
-12.4743692733744
30
0
41
1
10
-24.0000000000001
20
-12.2301460729138
30
0
41
1
10
-24.0000000000001
20
-11.7782448377073
30
0
41
1
10
-24.0000000000001
20
-11.0029089912387
30
0
41
1
10
-24
20
-9.97333275207063
30
0
41
1
10
-24
20
-9.00198709358395
30
0
41
1
10
-24
20
-7.94098139760007
30
0
41
1
10
-24
20
-6.7681291151888
30
0
41
1
10
-24
20
-5.45799609225446
30
0
41
1
10
-24
20
-4.42753754516352
30
0
41
1
10
-24
20
-3.35000208235874
30
0
41
1
10
-24
20
-2.23771697460666
30
0
41
1
10
-24
20
-1.3051594341712
30
0
41
1
10
-24
20
-0.5511008955595
30
0
41
1
10
-24
20
2.454148387E-07
30
0
41
1
10
-24
20
0.551100854738962
30
0
41
1
10
-24
20
1.30515932004798
30
0
41
1
10
-24
20
2.23771741989404
30
0
41
1
10
-24
20
3.35000222974929
30
0
41
1
10
-24
20
4.42753733029463
30
0
41
1
10
-24
20
5.45799637564662
30
0
41
1
10
-24
20
6.76812921007337
30
0
41
1
10
-24
20
7.94098140173105
30
0
41
1
10
-24
20
9.00198713477042
30
0
41
1
10
-24
20
9.97333247862696
30
0
41
1
10
-24
20
11.0029092636264
30
0
41
1
10
-24
20
11.7782442414181
30
0
41
1
10
-24
20
12.2301461791881
30
0
41
1
10
-24
20
12.4743689830172
30
0
41
1
10
-24
20
12.6094786305682
30
0
41
1
10
-24
20
12.634468294247
30
0
41
1
10
-24
20
12.6317148502291
30
0
0
SPLINE
5
170
100
AcDbEntity
8
SK1
62
256
6
ByLayer
370
13
48
1
60
0
100
AcDbSpline
70
4
71
3
72
20
73
16
40
0
40
0
40
0
40
0
40
0.0019271163462167
40
0.0711953803465328
40
0.140463644346849
40
0.209731908347165
40
0.279000172347481
40
0.417536700348113
40
0.48680496434843
40
0.556073228348746
40
0.694609756349378
40
0.83314628435001
40
0.902414548350326
40
0.971682812350642
40
1
40
1
40
1
40
1
41
1
10
-1.49503997793931
20
-2.59572866980201
30
0
41
1
10
-1.49503997793931
20
-2.60753527399982
30
0
41
1
10
-1.49503997793931
20
-3.04345441166046
30
0
41
1
10
-1.49503997793931
20
-3.88412508952482
30
0
41
1
10
-1.49503997793931
20
-5.06527592408099
30
0
41
1
10
-1.49503997793931
20
-6.18114524290195
30
0
41
1
10
-1.49503997793933
20
-7.58102884110858
30
0
41
1
10
-1.49503997793933
20
-8.84271184628204
30
0
41
1
10
-1.49503997793933
20
-9.96541209516295
30
0
41
1
10
-1.49503997793934
20
-10.9917340076615
30
0
41
1
10
-1.49503997793934
20
-12.0867937065467
30
0
41
1
10
-1.49503997793934
20
-12.9130991355629
30
0
41
1
10
-1.49503997793934
20
-13.3930993868039
30
0
41
1
10
-1.49503997793934
20
-13.6033357132343
30
0
41
1
10
-1.49503997793934
20
-13.6907766311938
30
0
41
1
10
-1.49503997793934
20
-13.7130156697226
30
0
0
SPLINE
5
171
100
AcDbEntity
8
SK1
62
256
6
ByLayer
370
18
48
1
60
0
100
AcDbSpline
70
4
71
3
72
9
73
5
40
0
40
0
40
0
40
0
40
0.442601394088435
40
1
40
1
40
1
40
1
41
1
10
-1.49503997793934
20
-13.7130150941426
30
0
41
1
10
-1.49503997793934
20
-13.7451764875591
30
0
41
1
10
-1.49503997793936
20
-13.8030300848544
30
0
41
1
10
-1.49503997793936
20
-13.8252009274933
30
0
41
1
10
-1.49503997793936
20
-13.8252670941427
30
0
0
SPLINE
5
172
100
AcDbEntity
8
SK1
62
256
6
ByLayer
370
18
48
1
60
0
100
AcDbSpline
70
4
71
3
72
9
73
5
40
0
40
0
40
0
40
0
40
0.558795674717303
40
1
40
1
40
1
40
1
41
1
10
-1.49503997793924
20
13.8252669420053
30
0
41
1
10
-1.49503997793924
20
13.8253406216125
30
0
41
1
10
-1.49503997793926
20
13.8032126849956
30
0
41
1
10
-1.49503997793924
20
13.7451765603785
30
0
41
1
10
-1.49503997793923
20
13.7130155967229
30
0
0
SPLINE
5
173
100
AcDbEntity
8
SK1
62
256
6
ByLayer
370
13
48
1
60
0
100
AcDbSpline
70
4
71
3
72
20
73
16
40
0
40
0
40
0
40
0
40
0.0283172975499229
40
0.0975855570087622
40
0.166853816467602
40
0.30539033538528
40
0.443926854302959
40
0.513195113761798
40
0.582463373220638
40
0.720999892138317
40
0.790268151597156
40
0.859536411055995
40
0.928804670514835
40
0.998072929973674
40
1
40
1
40
1
40
1
41
1
10
-1.49503997793926
20
13.713015596722
30
0
41
1
10
-1.49503997793926
20
13.690776520156
30
0
41
1
10
-1.49503997793924
20
13.6033356715963
30
0
41
1
10
-1.49503997793924
20
13.3930994871677
30
0
41
1
10
-1.49503997793924
20
12.9130985214152
30
0
41
1
10
-1.49503997793926
20
12.0867940390283
30
0
41
1
10
-1.49503997793926
20
10.9917337096027
30
0
41
1
10
-1.49503997793926
20
9.96541221253275
30
0
41
1
10
-1.49503997793927
20
8.84271185764786
30
0
41
1
10
-1.49503997793927
20
7.58102898252227
30
0
41
1
10
-1.49503997793927
20
6.18114538947242
30
0
41
1
10
-1.49503997793928
20
5.0652758228772
30
0
41
1
10
-1.49503997793928
20
3.88412534084222
30
0
41
1
10
-1.49503997793928
20
3.04345481646686
30
0
41
1
10
-1.49503997793928
20
2.6075359189918
30
0
41
1
10
-1.49503997793928
20
2.59572959682799
30
0
0
SPLINE
5
174
100
AcDbEntity
8
SK1
62
256
6
ByLayer
370
18
48
1
60
0
100
AcDbSpline
70
4
71
3
72
50
73
46
40
0
40
0
40
0
40
0
40
0.124999999999984
40
0.124999999999984
40
0.249999999999968
40
0.249999999999968
40
0.31249999999996
40
0.31249999999996
40
0.374999999999952
40
0.374999999999952
40
0.406249999999948
40
0.406249999999948
40
0.421874999999946
40
0.421874999999946
40
0.437499999999944
40
0.437499999999944
40
0.453124999999941
40
0.453124999999941
40
0.460937499999941
40
0.460937499999941
40
0.464843749999941
40
0.464843749999941
40
0.468749999999941
40
0.468749999999941
40
0.476562499999943
40
0.476562499999943
40
0.484374999999946
40
0.484374999999946
40
0.499999999999948
40
0.499999999999948
40
0.51562499999995
40
0.51562499999995
40
0.531249999999952
40
0.531249999999952
40
0.562499999999955
40
0.562499999999955
40
0.624999999999962
40
0.624999999999962
40
0.687499999999969
40
0.687499999999969
40
0.749999999999976
40
0.749999999999976
40
0.874999999999988
40
0.874999999999988
40
1
40
1
40
1
40
1
41
1
10
-1.69999999999999
20
2.58377808521789
30
0
41
1
10
-1.69980283176193
20
2.53494813104058
30
0
41
1
10
-1.69914629015305
20
2.48605219520391
30
0
41
1
10
-1.69652501232169
20
2.38809848078017
30
0
41
1
10
-1.69458987013775
20
2.33904299616427
30
0
41
1
10
-1.68996451253321
20
2.26528111364473
30
0
41
1
10
-1.68813273270565
20
2.24066381962936
30
0
41
1
10
-1.68351230038941
20
2.19134004598717
30
0
41
1
10
-1.68075232756119
20
2.16659121971193
30
0
41
1
10
-1.6751594901484
20
2.12981712458023
30
0
41
1
10
-1.67305217630945
20
2.11760538297838
30
0
41
1
10
-1.66917976470285
20
2.09942277841125
30
0
41
1
10
-1.66776761506959
20
2.09338046474818
30
0
41
1
10
-1.66455510466849
20
2.0813878802806
30
0
41
1
10
-1.66277344227467
20
2.07547629075165
30
0
41
1
10
-1.65853679929718
20
2.06399527606524
30
0
41
1
10
-1.65615085025311
20
2.05848683766305
30
0
41
1
10
-1.65146277058665
20
2.05118187975825
30
0
41
1
10
-1.64972344115719
20
2.04895713823333
30
0
41
1
10
-1.6467847142906
20
2.04633307019134
30
0
41
1
10
-1.64576913847837
20
2.04559596629972
30
0
41
1
10
-1.64365346396514
20
2.0444445370054
30
0
41
1
10
-1.64253578152041
20
2.04402974687966
30
0
41
1
10
-1.63921911624004
20
2.04338149066749
30
0
41
1
10
-1.63699263810763
20
2.04373469956389
30
0
41
1
10
-1.63290194573229
20
2.04547928392895
30
0
41
1
10
-1.63098239203809
20
2.04685996014615
30
0
41
1
10
-1.62570082643286
20
2.05168607565221
30
0
41
1
10
-1.62266900676535
20
2.05586039978147
30
0
41
1
10
-1.61717970743425
20
2.06467763004105
30
0
41
1
10
-1.61471614069211
20
2.06937654210969
30
0
41
1
10
-1.61008417279068
20
2.0790771956942
30
0
41
1
10
-1.60792208521561
20
2.0840854996479
30
0
41
1
10
-1.60173135359587
20
2.09941136011767
30
0
41
1
10
-1.59800183776959
20
2.11000295822438
30
0
41
1
10
-1.58752132339228
20
2.14206819971534
30
0
41
1
10
-1.58141440210633
20
2.1639829941042
30
0
41
1
10
-1.56994933734997
20
2.20824327444524
30
0
41
1
10
-1.56462503300465
20
2.23061031941455
30
0
41
1
10
-1.5544579928043
20
2.27560423600821
30
0
41
1
10
-1.5496214994392
20
2.29823508774663
30
0
41
1
10
-1.53561964544301
20
2.36637992038092
30
0
41
1
10
-1.52696140207523
20
2.41209242042987
30
0
41
1
10
-1.51044407919379
20
2.5037485497009
30
0
41
1
10
-1.50259580380229
20
2.54970538090487
30
0
41
1
10
-1.49503997793928
20
2.59572959682799
30
0
0
SPLINE
5
175
100
AcDbEntity
8
SK1
62
256
6
ByLayer
370
18
48
1
60
0
100
AcDbSpline
70
4
71
3
72
50
73
46
40
0
40
0
40
0
40
0
40
0.12499999999999
40
0.12499999999999
40
0.249999999999981
40
0.249999999999981
40
0.312499999999977
40
0.312499999999977
40
0.374999999999973
40
0.374999999999973
40
0.437499999999968
40
0.437499999999968
40
0.468749999999966
40
0.468749999999966
40
0.484374999999965
40
0.484374999999965
40
0.499999999999964
40
0.499999999999964
40
0.507812499999963
40
0.507812499999963
40
0.515624999999963
40
0.515624999999963
40
0.523437499999962
40
0.523437499999962
40
0.531249999999962
40
0.531249999999962
40
0.539062499999961
40
0.539062499999961
40
0.546874999999961
40
0.546874999999961
40
0.562499999999962
40
0.562499999999962
40
0.578124999999964
40
0.578124999999964
40
0.593749999999965
40
0.593749999999965
40
0.624999999999968
40
0.624999999999968
40
0.687499999999973
40
0.687499999999973
40
0.749999999999979
40
0.749999999999979
40
0.874999999999989
40
0.874999999999989
40
1
40
1
40
1
40
1
41
1
10
-1.49503997793931
20
-2.59572866980201
30
0
41
1
10
-1.5026506075818
20
-2.54937072424821
30
0
41
1
10
-1.51055736408901
20
-2.5030840028657
30
0
41
1
10
-1.52720389146866
20
-2.41078220609728
30
0
41
1
10
-1.53593092606574
20
-2.36476035150477
30
0
41
1
10
-1.55006067855432
20
-2.29615277543081
30
0
41
1
10
-1.55494638829136
20
-2.27335583269641
30
0
41
1
10
-1.56523752837914
20
-2.22799607735607
30
0
41
1
10
-1.57063755711233
20
-2.20542457669759
30
0
41
1
10
-1.58228349561369
20
-2.16081267675321
30
0
41
1
10
-1.58850203306028
20
-2.13871110702169
30
0
41
1
10
-1.59920684184682
20
-2.10654042134561
30
0
41
1
10
-1.60299914819288
20
-2.09599696577877
30
0
41
1
10
-1.60936320219
20
-2.08073614174975
30
0
41
1
10
-1.61160259165958
20
-2.0757367393019
30
0
41
1
10
-1.61642392925383
20
-2.06612103362772
30
0
41
1
10
-1.61901669792691
20
-2.06146559975113
30
0
41
1
10
-1.62333314102943
20
-2.05512691093279
30
0
41
1
10
-1.62484301170015
20
-2.0531239146128
30
0
41
1
10
-1.62808309003236
20
-2.04945955976308
30
0
41
1
10
-1.62982987335099
20
-2.04777834300637
30
0
41
1
10
-1.63361913581856
20
-2.0450986814044
30
0
41
1
10
-1.63568436966972
20
-2.04410116240959
30
0
41
1
10
-1.63997873447315
20
-2.04341449775862
30
0
41
1
10
-1.64226262858723
20
-2.043768326699
30
0
41
1
10
-1.64651873271588
20
-2.04593477970201
30
0
41
1
10
-1.64851622596237
20
-2.04772090624601
30
0
41
1
10
-1.65203540861354
20
-2.05194214116116
30
0
41
1
10
-1.6536026588184
20
-2.05440095769973
30
0
41
1
10
-1.6578027104924
20
-2.06209889338851
30
0
41
1
10
-1.66005581238082
20
-2.06781172737621
30
0
41
1
10
-1.66396430018824
20
-2.079318483533
30
0
41
1
10
-1.66562961649735
20
-2.08519083778748
30
0
41
1
10
-1.66864594862511
20
-2.09706546109072
30
0
41
1
10
-1.66999109272727
20
-2.10307013790924
30
0
41
1
10
-1.67370679113652
20
-2.12121687034826
30
0
41
1
10
-1.67575012136615
20
-2.13342095957782
30
0
41
1
10
-1.68115380351311
20
-2.16993349213547
30
0
41
1
10
-1.68382251839573
20
-2.1943014978572
30
0
41
1
10
-1.68832031406808
20
-2.24305704289955
30
0
41
1
10
-1.69011547560281
20
-2.26744567235394
30
0
41
1
10
-1.69465688317246
20
-2.34062742639441
30
0
41
1
10
-1.69657077641125
20
-2.38945991149225
30
0
41
1
10
-1.69915633746156
20
-2.48678291130125
30
0
41
1
10
-1.69980436369319
20
-2.53532682713825
30
0
41
1
10
-1.7
20
-2.58377729734613
30
0
0
SPLINE
5
176
100
AcDbEntity
8
SK1
62
256
6
ByLayer
370
18
48
1
60
0
100
AcDbSpline
70
4
71
3
72
8
73
4
40
0
40
0
40
0
40
0
40
1
40
1
40
1
40
1
41
1
10
-1.30710678118656
20
-3.62853202212773
30
0
41
1
10
-1.37356940710869
20
-3.29172262772087
30
0
41
1
10
-1.43720046286556
20
-2.94804131885212
30
0
41
1
10
-1.49503997793931
20
-2.59572866974992
30
0
0
SPLINE
5
177
100
AcDbEntity
8
SK1
62
256
6
ByLayer
370
18
48
1
60
0
100
AcDbSpline
70
4
71
3
72
8
73
4
40
0
40
0
40
0
40
0
40
1
40
1
40
1
40
1
41
1
10
-1.49503997793928
20
2.59572959682802
30
0
41
1
10
-1.43720049720227
20
2.94804273884375
30
0
41
1
10
-1.37356947571646
20
3.29172452904805
30
0
41
1
10
-1.30710678118653
20
3.62853433720642
30
0
0
SPLINE
5
178
100
AcDbEntity
8
SK1
62
256
6
ByLayer
370
18
48
1
60
0
100
AcDbSpline
70
4
71
3
72
21
73
17
40
0
40
0
40
0
40
0
40
0.0619468516078749
40
0.124127248773008
40
0.186307645938141
40
0.248488043103273
40
0.372848837433539
40
0.497209631763805
40
0.559390028928937
40
0.62157042609407
40
0.745931220424336
40
0.808111617589468
40
0.870292014754601
40
0.932472411919734
40
0.994652809084867
40
1
40
1
40
1
40
1
41
1
10
-1.69999999999995
20
14.0158119586247
30
0
41
1
10
-1.69999999999995
20
14.0272338768781
30
0
41
1
10
-1.69999999999995
20
14.0038343025153
30
0
41
1
10
-1.69999999999995
20
13.8477062499051
30
0
41
1
10
-1.69999999999995
20
13.5829959818305
30
0
41
1
10
-1.69999999999995
20
13.0984067777707
30
0
41
1
10
-1.69999999999996
20
12.2637795792515
30
0
41
1
10
-1.69999999999996
20
11.1580265629749
30
0
41
1
10
-1.69999999999996
20
10.1227281115305
30
0
41
1
10
-1.69999999999996
20
8.98995375595479
30
0
41
1
10
-1.69999999999997
20
7.71376588282689
30
0
41
1
10
-1.69999999999997
20
6.29922705440438
30
0
41
1
10
-1.69999999999997
20
5.16941096177055
30
0
41
1
10
-1.69999999999999
20
3.97134131573904
30
0
41
1
10
-1.69999999999999
20
3.09163207213677
30
0
41
1
10
-1.69999999999999
20
2.62111308533423
30
0
41
1
10
-1.69999999999999
20
2.58377808521789
30
0
0
SPLINE
5
179
100
AcDbEntity
8
SK1
62
256
6
ByLayer
370
18
48
1
60
0
100
AcDbSpline
70
4
71
3
72
21
73
17
40
0
40
0
40
0
40
0
40
0.0053472254639788
40
0.0675276081643686
40
0.129707990864759
40
0.191888373565148
40
0.254068756265538
40
0.378429521666318
40
0.440609904366708
40
0.502790287067097
40
0.627151052467877
40
0.751511817868657
40
0.813692200569047
40
0.875872583269436
40
0.938052965969826
40
1
40
1
40
1
40
1
41
1
10
-1.7
20
-2.58377729734613
30
0
41
1
10
-1.70000000000002
20
-2.62111254506641
30
0
41
1
10
-1.70000000000002
20
-3.09163174208075
30
0
41
1
10
-1.70000000000002
20
-3.97134104745157
30
0
41
1
10
-1.70000000000002
20
-5.16941104441418
30
0
41
1
10
-1.70000000000002
20
-6.29922693017525
30
0
41
1
10
-1.70000000000003
20
-7.71376573381551
30
0
41
1
10
-1.70000000000003
20
-8.9899537434076
30
0
41
1
10
-1.70000000000003
20
-10.1227279817209
30
0
41
1
10
-1.70000000000005
20
-11.158026865053
30
0
41
1
10
-1.70000000000005
20
-12.2637792369573
30
0
41
1
10
-1.70000000000005
20
-13.0984073948343
30
0
41
1
10
-1.70000000000005
20
-13.5829958824317
30
0
41
1
10
-1.70000000000005
20
-13.8477064954836
30
0
41
1
10
-1.70000000000005
20
-14.0038349659296
30
0
41
1
10
-1.70000000000005
20
-14.0272339860346
30
0
41
1
10
-1.70000000000005
20
-14.0158119280015
30
0
0
SPLINE
5
17A
100
AcDbEntity
8
SK1
62
256
6
ByLayer
370
18
48
1
60
0
100
AcDbSpline
70
4
71
3
72
28
73
24
40
0
40
0
40
0
40
0
40
0.125
40
0.125
40
0.25
40
0.25
40
0.375
40
0.375
40
0.4375
40
0.4375
40
0.46875
40
0.46875
40
0.5
40
0.5
40
0.625
40
0.625
40
0.75
40
0.75
40
0.875
40
0.875
40
0.9375
40
0.9375
40
1
40
1
40
1
40
1
41
1
10
-1.7
20
-2.58377729734613
30
0
41
1
10
-1.7330653294344
20
-2.37581216989975
30
0
41
1
10
-1.76383853333439
20
-2.16627904107367
30
0
41
1
10
-1.81907192909576
20
-1.74359145904057
30
0
41
1
10
-1.84353399204588
20
-1.53043779083347
30
0
41
1
10
-1.88427766240595
20
-1.09995043784016
30
0
41
1
10
-1.90057185673115
20
-0.882620801089502
30
0
41
1
10
-1.91719408999322
20
-0.552958450347262
30
0
41
1
10
-1.92143351430276
20
-0.442459814342214
30
0
41
1
10
-1.92571062209051
20
-0.275747908317783
30
0
41
1
10
-1.92678890529307
20
-0.219949147197752
30
0
41
1
10
-1.92821915648835
20
-0.108715900509111
30
0
41
1
10
-1.92857376506792
20
-0.0532112388235646
30
0
41
1
10
-1.9285260192795
20
0.2237512458141
30
0
41
1
10
-1.92269285742202
20
0.443534065874218
30
0
41
1
10
-1.90073152159664
20
0.879827175945792
30
0
41
1
10
-1.88456941336776
20
1.09633072422011
30
0
41
1
10
-1.84395869573467
20
1.52647783394636
30
0
41
1
10
-1.8194991935238
20
1.74011907259904
30
0
41
1
10
-1.7779104307611
20
2.05868937391003
30
0
41
1
10
-1.76321329032666
20
2.16467276723154
30
0
41
1
10
-1.73252928227532
20
2.37518275958956
30
0
41
1
10
-1.7165348045867
20
2.4797818566588
30
0
41
1
10
-1.69999999999999
20
2.58377808521789
30
0
0
SPLINE
5
17B
100
AcDbEntity
8
SK1
62
256
6
ByLayer
370
18
48
1
60
0
100
AcDbSpline
70
4
71
3
72
39
73
35
40
0
40
0
40
0
40
0
40
0.0277684763424229
40
0.0555468270652369
40
0.083325177788051
40
0.111103528510865
40
0.166660229956493
40
0.222216931402121
40
0.249995282124935
40
0.277773632847749
40
0.333330334293377
40
0.361108685016191
40
0.388887035739005
40
0.416665386461819
40
0.444443737184633
40
0.472222087907447
40
0.486111263268855
40
0.500000438630261
40
0.513889613991668
40
0.527778789353076
40
0.555557140075889
40
0.583335490798704
40
0.611113841521517
40
0.638892192244332
40
0.666670542967146
40
0.722227244412774
40
0.750005595135588
40
0.777783945858402
40
0.83334064730403
40
0.888897348749658
40
0.916675699472472
40
0.944454050195286
40
0.9722324009181
40
1
40
1
40
1
40
1
41
1
10
-22.4999999999999
20
13.4936001652924
30
0
41
1
10
-22.5
20
13.5046602829025
30
0
41
1
10
-22.5
20
13.4821976498246
30
0
41
1
10
-22.5
20
13.3308793310682
30
0
41
1
10
-22.5
20
13.0738790940806
30
0
41
1
10
-22.5
20
12.6015910628857
30
0
41
1
10
-22.5
20
11.7892772585257
30
0
41
1
10
-22.5
20
10.7121915826387
30
0
41
1
10
-22.5
20
9.7009605531901
30
0
41
1
10
-22.5
20
8.59519482612023
30
0
41
1
10
-22.5
20
7.35789518762183
30
0
41
1
10
-22.5
20
5.98264738368832
30
0
41
1
10
-22.5
20
4.89022224945163
30
0
41
1
10
-22.5
20
3.73751327283395
30
0
41
1
10
-22.5
20
2.52988151772922
30
0
41
1
10
-22.5
20
1.48826017841208
30
0
41
1
10
-22.5
20
0.637225663005495
30
0
41
1
10
-22.5
20
1.013002873E-07
30
0
41
1
10
-22.5
20
-0.637225639727319
30
0
41
1
10
-22.5
20
-1.48826022368618
30
0
41
1
10
-22.5
20
-2.52988134516502
30
0
41
1
10
-22.5
20
-3.73751305004345
30
0
41
1
10
-22.5
20
-4.89022238185538
30
0
41
1
10
-22.5
20
-5.9826471995614
30
0
41
1
10
-22.5
20
-7.35789505897986
30
0
41
1
10
-22.5
20
-8.59519481674022
30
0
41
1
10
-22.5
20
-9.70096045673185
30
0
41
1
10
-22.5
20
-10.7121918739408
30
0
41
1
10
-22.5
20
-11.7892769425393
30
0
41
1
10
-22.5
20
-12.6015916721313
30
0
41
1
10
-22.5000000000001
20
-13.0738789920943
30
0
41
1
10
-22.5000000000001
20
-13.3308795934981
30
0
41
1
10
-22.5
20
-13.4821965416344
30
0
41
1
10
-22.5000000000001
20
-13.5046596119855
30
0
41
1
10
-22.5000000000001
20
-13.4936012964496
30
0
0
SPLINE
5
17C
100
AcDbEntity
8
1
62
256
6
ByLayer
370
18
48
1
60
0
100
AcDbSpline
70
4
71
3
72
28
73
24
40
0
40
0
40
0
40
0
40
0.0281851352860828
40
0.0281851352860828
40
0.0821748499924131
40
0.0821748499924131
40
0.136164564698743
40
0.136164564698743
40
0.244143994111404
40
0.244143994111404
40
0.298133708817737
40
0.298133708817737
40
0.35212342352407
40
0.35212342352407
40
0.460102852936725
40
0.460102852936725
40
0.56808228234938
40
0.56808228234938
40
0.676061711762036
40
0.676061711762036
40
0.784041141174691
40
0.784041141174691
40
1
40
1
40
1
40
1
41
1
10
287.553882325968
20
-19.7708430820677
30
0
41
1
10
287.553416157084
20
-19.7713138885412
30
0
41
1
10
287.552995519122
20
-19.7717387277253
30
0
41
1
10
287.551904777518
20
-19.7728403855666
30
0
41
1
10
287.551358069514
20
-19.7733926014488
30
0
41
1
10
287.550642684802
20
-19.7741152032579
30
0
41
1
10
287.550471174801
20
-19.7742884504579
30
0
41
1
10
287.550501778366
20
-19.7742575373648
30
0
41
1
10
287.551246131199
20
-19.7735056170729
30
0
41
1
10
287.553449587003
20
-19.7712801191211
30
0
41
1
10
287.554366440456
20
-19.7703541331474
30
0
41
1
10
287.556507437831
20
-19.7681920072904
30
0
41
1
10
287.557735591993
20
-19.7669518171114
30
0
41
1
10
287.561863192775
20
-19.7627842351997
30
0
41
1
10
287.565218581561
20
-19.7593968992328
30
0
41
1
10
287.572951716672
20
-19.7515926878484
30
0
41
1
10
287.577252302461
20
-19.7472536906856
30
0
41
1
10
287.586584704884
20
-19.7378414692282
30
0
41
1
10
287.591617667416
20
-19.7327670857892
30
0
41
1
10
287.602342916788
20
-19.7219581556365
30
0
41
1
10
287.607954623723
20
-19.7163048356891
30
0
41
1
10
287.625296915117
20
-19.6988417531493
30
0
41
1
10
287.637586054382
20
-19.6864770846466
30
0
41
1
10
287.650480947162
20
-19.6735161477117
30
0
0
SPLINE
5
17D
100
AcDbEntity
8
1
62
256
6
ByLayer
370
18
48
1
60
0
100
AcDbSpline
70
4
71
3
72
8
73
4
40
0
40
0
40
0
40
0
40
1
40
1
40
1
40
1
41
1
10
287.650480947162
20
-19.6735161477117
30
0
41
1
10
287.875830405165
20
-19.4470125107008
30
0
41
1
10
288.100607863251
20
-19.219754669872
30
0
41
1
10
288.324759526419
20
-18.991671694457
30
0
0
SPLINE
5
17E
100
AcDbEntity
8
1
62
256
6
ByLayer
370
18
48
1
60
0
100
AcDbSpline
70
4
71
3
72
8
73
4
40
0
40
0
40
0
40
0
40
1
40
1
40
1
40
1
41
1
10
288.324759526419
20
-18.9768567932111
30
0
41
1
10
288.100458994954
20
-19.1950332762292
30
0
41
1
10
287.875685997487
20
-19.412558910768
30
0
41
1
10
287.650480947162
20
-19.6294893682068
30
0
0
SPLINE
5
17F
100
AcDbEntity
8
1
62
256
6
ByLayer
370
18
48
1
60
0
100
AcDbSpline
70
4
71
3
72
36
73
32
40
0
40
0
40
0
40
0
40
0.0624999999999998
40
0.0624999999999998
40
0.125
40
0.125
40
0.1875
40
0.1875
40
0.25
40
0.25
40
0.312499999999999
40
0.312499999999999
40
0.374999999999999
40
0.374999999999999
40
0.437499999999999
40
0.437499999999999
40
0.499999999999999
40
0.499999999999999
40
0.562499999999999
40
0.562499999999999
40
0.624999999999999
40
0.624999999999999
40
0.687499999999999
40
0.687499999999999
40
0.749999999999999
40
0.749999999999999
40
0.812499999999999
40
0.812499999999999
40
0.874999999999999
40
0.874999999999999
40
1
40
1
40
1
40
1
41
1
10
287.650480947162
20
-19.6294893682068
30
0
41
1
10
287.643862084188
20
-19.6358650377155
30
0
41
1
10
287.637368158041
20
-19.6420854939403
30
0
41
1
10
287.624658212001
20
-19.654179514404
30
0
41
1
10
287.618465781099
20
-19.6600302465748
30
0
41
1
10
287.606614451507
20
-19.6711317760512
30
0
41
1
10
287.600930365741
20
-19.6764066912087
30
0
41
1
10
287.590113554064
20
-19.6863246581532
30
0
41
1
10
287.584944456052
20
-19.6910000297351
30
0
41
1
10
287.575462300344
20
-19.6994157565428
30
0
41
1
10
287.571165979258
20
-19.7031426233284
30
0
41
1
10
287.563582231134
20
-19.7095025996341
30
0
41
1
10
287.560295493777
20
-19.712131438416
30
0
41
1
10
287.555115656292
20
-19.7159495810432
30
0
41
1
10
287.55318093426
20
-19.7171751733816
30
0
41
1
10
287.550745513604
20
-19.7181286395752
30
0
41
1
10
287.550291079597
20
-19.717836383796
30
0
41
1
10
287.550812662286
20
-19.7158184071486
30
0
41
1
10
287.551796471514
20
-19.7140793421226
30
0
41
1
10
287.555138387984
20
-19.7092388666708
30
0
41
1
10
287.557446708715
20
-19.7062051495612
30
0
41
1
10
287.563158317433
20
-19.6990846204179
30
0
41
1
10
287.566592406128
20
-19.6949623448446
30
0
41
1
10
287.57432482138
20
-19.6859171291043
30
0
41
1
10
287.578590882068
20
-19.6810299821921
30
0
41
1
10
287.587802061849
20
-19.670638073288
30
0
41
1
10
287.592748132286
20
-19.6651324406492
30
0
41
1
10
287.60325464834
20
-19.6535639456453
30
0
41
1
10
287.608756349684
20
-19.6475660845116
30
0
41
1
10
287.625757992912
20
-19.6291819152162
30
0
41
1
10
287.63781344554
20
-19.61633815057
30
0
41
1
10
287.650480947162
20
-19.6030003410703
30
0
0
SPLINE
5
180
100
AcDbEntity
8
1
62
256
6
ByLayer
370
18
48
1
60
0
100
AcDbSpline
70
4
71
3
72
8
73
4
40
0
40
0
40
0
40
0
40
1
40
1
40
1
40
1
41
1
10
287.650480947162
20
-19.6030003410703
30
0
41
1
10
287.876008003165
20
-19.3655393957396
30
0
41
1
10
288.100791090601
20
-19.1271433496662
30
0
41
1
10
288.324759526419
20
-18.8877233606923
30
0
0
SPLINE
5
181
100
AcDbEntity
8
1
62
256
6
ByLayer
370
18
48
1
60
0
100
AcDbSpline
70
4
71
3
72
8
73
4
40
0
40
0
40
0
40
0
40
1
40
1
40
1
40
1
41
1
10
288.324759526419
20
-18.8429985339394
30
0
41
1
10
288.10033706691
20
-19.0525298860226
30
0
41
1
10
287.875567648883
20
-19.2615638584147
30
0
41
1
10
287.650480947162
20
-19.4701429912267
30
0
0
SPLINE
5
182
100
AcDbEntity
8
1
62
256
6
ByLayer
370
18
48
1
60
0
100
AcDbSpline
70
4
71
3
72
38
73
34
40
0
40
0
40
0
40
0
40
0.0625000000000052
40
0.0625000000000052
40
0.12500000000001
40
0.12500000000001
40
0.187500000000015
40
0.187500000000015
40
0.250000000000021
40
0.250000000000021
40
0.312500000000026
40
0.312500000000026
40
0.375000000000031
40
0.375000000000031
40
0.437500000000036
40
0.437500000000036
40
0.500000000000042
40
0.500000000000042
40
0.531250000000043
40
0.531250000000043
40
0.562500000000044
40
0.562500000000044
40
0.62500000000004
40
0.62500000000004
40
0.687500000000035
40
0.687500000000035
40
0.75000000000003
40
0.75000000000003
40
0.812500000000026
40
0.812500000000026
40
0.875000000000021
40
0.875000000000021
40
1
40
1
40
1
40
1
41
1
10
287.650480947162
20
-19.4701429912267
30
0
41
1
10
287.643726881464
20
-19.4764017224424
30
0
41
1
10
287.637098160743
20
-19.4824675984273
30
0
41
1
10
287.624121587645
20
-19.4941653645868
30
0
41
1
10
287.617742143976
20
-19.4998242703935
30
0
41
1
10
287.605562970484
20
-19.5104136408799
30
0
41
1
10
287.599742695575
20
-19.515363799965
30
0
41
1
10
287.588714807944
20
-19.5244776354355
30
0
41
1
10
287.583471678807
20
-19.528668714688
30
0
41
1
10
287.573894168183
20
-19.5359672809044
30
0
41
1
10
287.569604727196
20
-19.5390430763014
30
0
41
1
10
287.562140118258
20
-19.543911628763
30
0
41
1
10
287.558968752714
20
-19.54569252126
30
0
41
1
10
287.55412676766
20
-19.5476893893338
30
0
41
1
10
287.552408786091
20
-19.5479394606963
30
0
41
1
10
287.550449968655
20
-19.5468649480105
30
0
41
1
10
287.550243871428
20
-19.5455532016636
30
0
41
1
10
287.550991933076
20
-19.5425459103032
30
0
41
1
10
287.551417710024
20
-19.5413688368429
30
0
41
1
10
287.55261285119
20
-19.5386745168143
30
0
41
1
10
287.553385026571
20
-19.5371539574112
30
0
41
1
10
287.556141299637
20
-19.5322031740125
30
0
41
1
10
287.558572250333
20
-19.5283601137454
30
0
41
1
10
287.56445428438
20
-19.5197418754235
30
0
41
1
10
287.567937837454
20
-19.5149253101646
30
0
41
1
10
287.575648799551
20
-19.5046892334924
30
0
41
1
10
287.579874304902
20
-19.4992680700753
30
0
41
1
10
287.588959245089
20
-19.4879075907872
30
0
41
1
10
287.593819464948
20
-19.4819676301921
30
0
41
1
10
287.604115964568
20
-19.4696181549195
30
0
41
1
10
287.609513235996
20
-19.4632561734402
30
0
41
1
10
287.6261921918
20
-19.4438785061742
30
0
41
1
10
287.638027080278
20
-19.4304881908617
30
0
41
1
10
287.650480947162
20
-19.4166940319337
30
0
0
SPLINE
5
183
100
AcDbEntity
8
1
62
256
6
ByLayer
370
18
48
1
60
0
100
AcDbSpline
70
4
71
3
72
8
73
4
40
0
40
0
40
0
40
0
40
1
40
1
40
1
40
1
41
1
10
287.650480947162
20
-19.4166940319337
30
0
41
1
10
287.876228917632
20
-19.1666509399759
30
0
41
1
10
288.101019214676
20
-18.9154654531776
30
0
41
1
10
288.324759526419
20
-18.6630274540344
30
0
0
SPLINE
5
184
100
AcDbEntity
8
1
62
256
6
ByLayer
370
18
48
1
60
0
100
AcDbSpline
70
4
71
3
72
8
73
4
40
0
40
0
40
0
40
0
40
1
40
1
40
1
40
1
41
1
10
288.324759526419
20
-18.5875252185448
30
0
41
1
10
288.100236859786
20
-18.7895703804302
30
0
41
1
10
287.875470342809
20
-18.991253225174
30
0
41
1
10
287.650480947162
20
-19.1926049128586
30
0
0
SPLINE
5
185
100
AcDbEntity
8
1
62
256
6
ByLayer
370
18
48
1
60
0
100
AcDbSpline
70
4
71
3
72
39
73
35
40
0
40
0
40
0
40
0
40
0.0624999999999973
40
0.0624999999999973
40
0.124999999999995
40
0.124999999999995
40
0.187499999999992
40
0.187499999999992
40
0.249999999999989
40
0.249999999999989
40
0.312499999999987
40
0.312499999999987
40
0.343749999999984
40
0.343749999999984
40
0.374999999999981
40
0.406249999999978
40
0.406249999999978
40
0.437499999999975
40
0.437499999999975
40
0.499999999999978
40
0.499999999999978
40
0.562499999999981
40
0.562499999999981
40
0.624999999999984
40
0.624999999999984
40
0.687499999999987
40
0.687499999999987
40
0.74999999999999
40
0.74999999999999
40
0.812499999999994
40
0.812499999999994
40
0.874999999999997
40
0.874999999999997
40
1
40
1
40
1
40
1
41
1
10
287.650480947162
20
-19.1926049128586
30
0
41
1
10
287.643561481925
20
-19.1987974091724
30
0
41
1
10
287.636760597053
20
-19.2047594560304
30
0
41
1
10
287.623428732479
20
-19.2161568732058
30
0
41
1
10
287.616868043973
20
-19.2216149223441
30
0
41
1
10
287.604372494835
20
-19.2316571174385
30
0
41
1
10
287.598405523108
20
-19.2362705085002
30
0
41
1
10
287.587120780066
20
-19.2445513660962
30
0
41
1
10
287.581757911793
20
-19.248245222262
30
0
41
1
10
287.572161291116
20
-19.2542618829981
30
0
41
1
10
287.567898801765
20
-19.256611320728
30
0
41
1
10
287.562409953693
20
-19.2590197111102
30
0
41
1
10
287.560740249761
20
-19.2596301418333
30
0
41
1
10
287.557792033825
20
-19.2604382600577
30
0
41
1
10
287.555212841065
20
-19.2608439299461
30
0
41
1
10
287.553367705005
20
-19.2604482498093
30
0
41
1
10
287.551893890274
20
-19.2596468478131
30
0
41
1
10
287.551341802858
20
-19.2590371274935
30
0
41
1
10
287.550274927363
20
-19.2566430276485
30
0
41
1
10
287.550326458122
20
-19.2543028706046
30
0
41
1
10
287.551787967949
20
-19.2482959791926
30
0
41
1
10
287.553220516284
20
-19.2445964956725
30
0
41
1
10
287.557185296634
20
-19.2362910592435
30
0
41
1
10
287.559719213955
20
-19.2316610587587
30
0
41
1
10
287.565737405588
20
-19.221578878288
30
0
41
1
10
287.569244994022
20
-19.2160956853234
30
0
41
1
10
287.576918114054
20
-19.2046829541816
30
0
41
1
10
287.581098727558
20
-19.1987255135267
30
0
41
1
10
287.590054837743
20
-19.1863774236145
30
0
41
1
10
287.594830979835
20
-19.1799863029424
30
0
41
1
10
287.604926584524
20
-19.1668094826125
30
0
41
1
10
287.61022432905
20
-19.1600533921717
30
0
41
1
10
287.626598565669
20
-19.1395788033859
30
0
41
1
10
287.638226288089
20
-19.125556955305
30
0
41
1
10
287.650480947162
20
-19.1112111570005
30
0
0
SPLINE
5
186
100
AcDbEntity
8
1
62
256
6
ByLayer
370
18
48
1
60
0
100
AcDbSpline
70
4
71
3
72
8
73
4
40
0
40
0
40
0
40
0
40
1
40
1
40
1
40
1
41
1
10
287.650480947162
20
-19.1112111570005
30
0
41
1
10
287.876507770666
20
-18.8466150387272
30
0
41
1
10
288.101307459449
20
-18.58063653669
30
0
41
1
10
288.324759526419
20
-18.3131399205608
30
0
0
SPLINE
5
187
100
AcDbEntity
8
1
62
256
6
ByLayer
370
18
48
1
60
0
100
AcDbSpline
70
4
71
3
72
8
73
4
40
0
40
0
40
0
40
0
40
1
40
1
40
1
40
1
41
1
10
288.324759526419
20
-18.2053177327406
30
0
41
1
10
288.100154848045
20
-18.4009956122079
30
0
41
1
10
287.875390693943
20
-18.5964289589483
30
0
41
1
10
287.650480947162
20
-18.7916390605863
30
0
0
SPLINE
5
188
100
AcDbEntity
8
1
62
256
6
ByLayer
370
18
48
1
60
0
100
AcDbSpline
70
4
71
3
72
32
73
28
40
0
40
0
40
0
40
0
40
0.125000000000011
40
0.125000000000011
40
0.187500000000011
40
0.187500000000011
40
0.25000000000001
40
0.25000000000001
40
0.312500000000009
40
0.312500000000009
40
0.375000000000009
40
0.375000000000009
40
0.437500000000008
40
0.437500000000008
40
0.500000000000008
40
0.500000000000008
40
0.562500000000007
40
0.562500000000007
40
0.625000000000007
40
0.625000000000007
40
0.75000000000001
40
0.75000000000001
40
0.812500000000012
40
0.812500000000012
40
0.875000000000014
40
0.875000000000014
40
1
40
1
40
1
40
1
41
1
10
287.650480947162
20
-18.7916390605863
30
0
41
1
10
287.636218452344
20
-18.8040181731097
30
0
41
1
10
287.622240264368
20
-18.8154173152057
30
0
41
1
10
287.602992291188
20
-18.8296153042819
30
0
41
1
10
287.596826112669
20
-18.8338945401542
30
0
41
1
10
287.585150324815
20
-18.8413094412346
30
0
41
1
10
287.579802545074
20
-18.8443419283303
30
0
41
1
10
287.570193548697
20
-18.8489058516395
30
0
41
1
10
287.565917359672
20
-18.8504253367867
30
0
41
1
10
287.5589614839
20
-18.8516753986754
30
0
41
1
10
287.556219248358
20
-18.8514436933268
30
0
41
1
10
287.552246458667
20
-18.8492156646221
30
0
41
1
10
287.551085390741
20
-18.8472516771761
30
0
41
1
10
287.550241537348
20
-18.8418614194547
30
0
41
1
10
287.550569080283
20
-18.838382972768
30
0
41
1
10
287.552511726574
20
-18.8303344171854
30
0
41
1
10
287.554109567751
20
-18.8257708187565
30
0
41
1
10
287.558360917358
20
-18.8157342041939
30
0
41
1
10
287.56103952816
20
-18.8102189029196
30
0
41
1
10
287.570274220005
20
-18.7928579231854
30
0
41
1
10
287.578003306719
20
-18.7801749967746
30
0
41
1
10
287.591401058081
20
-18.7598818429382
30
0
41
1
10
287.59613953536
20
-18.7529552766069
30
0
41
1
10
287.605993559771
20
-18.7389641660197
30
0
41
1
10
287.611125160039
20
-18.7318756087937
30
0
41
1
10
287.627074672477
20
-18.7103590621013
30
0
41
1
10
287.638441494712
20
-18.6956828090535
30
0
41
1
10
287.650480947162
20
-18.6807059996454
30
0
0
SPLINE
5
189
100
AcDbEntity
8
1
62
256
6
ByLayer
370
18
48
1
60
0
100
AcDbSpline
70
4
71
3
72
8
73
4
40
0
40
0
40
0
40
0
40
1
40
1
40
1
40
1
41
1
10
287.650480947162
20
-18.6807059996454
30
0
41
1
10
287.876866272618
20
-18.3990877212208
30
0
41
1
10
288.101678442285
20
-18.1158055554859
30
0
41
1
10
288.324759526419
20
-17.8306924641204
30
0
0
SPLINE
5
18A
100
AcDbEntity
8
1
62
256
6
ByLayer
370
18
48
1
60
0
100
AcDbSpline
70
4
71
3
72
8
73
4
40
0
40
0
40
0
40
0
40
1
40
1
40
1
40
1
41
1
10
288.324759526419
20
-17.6881625317623
30
0
41
1
10
288.100089025132
20
-17.8786205059035
30
0
41
1
10
287.875326782245
20
-18.0689340213266
30
0
41
1
10
287.650480947162
20
-18.259115910296
30
0
0
SPLINE
5
18B
100
AcDbEntity
8
1
62
256
6
ByLayer
370
18
48
1
60
0
100
AcDbSpline
70
4
71
3
72
41
73
37
40
0
40
0
40
0
40
0
40
0.0625000000000003
40
0.0625000000000003
40
0.125000000000001
40
0.125000000000001
40
0.156249999999997
40
0.156249999999997
40
0.187499999999992
40
0.187499999999992
40
0.24999999999999
40
0.24999999999999
40
0.281249999999989
40
0.281249999999989
40
0.312499999999988
40
0.343749999999988
40
0.343749999999988
40
0.374999999999987
40
0.374999999999987
40
0.43749999999998
40
0.43749999999998
40
0.468749999999979
40
0.468749999999979
40
0.499999999999978
40
0.499999999999978
40
0.562499999999981
40
0.562499999999981
40
0.624999999999984
40
0.624999999999984
40
0.687499999999986
40
0.687499999999986
40
0.749999999999989
40
0.749999999999989
40
0.874999999999994
40
0.874999999999994
40
1
40
1
40
1
40
1
41
1
10
287.650480947162
20
-18.259115910296
30
0
41
1
10
287.64312067197
20
-18.2653414694167
30
0
41
1
10
287.635804695087
20
-18.2712773588534
30
0
41
1
10
287.621558337367
20
-18.2822363602358
30
0
41
1
10
287.614658110685
20
-18.2872398905807
30
0
41
1
10
287.604698216193
20
-18.2939087063824
30
0
41
1
10
287.601443651369
20
-18.2959915195206
30
0
41
1
10
287.595080260982
20
-18.2998442241162
30
0
41
1
10
287.591968194619
20
-18.3016142220478
30
0
41
1
10
287.583076629913
20
-18.3062945367757
30
0
41
1
10
287.577668862641
20
-18.3086246746217
30
0
41
1
10
287.570442806861
20
-18.3107695863606
30
0
41
1
10
287.568202442333
20
-18.3112498316751
30
0
41
1
10
287.564140466581
20
-18.3117249114438
30
0
41
1
10
287.560469603166
20
-18.3117232866636
30
0
41
1
10
287.557572696077
20
-18.3107769709451
30
0
41
1
10
287.555065784551
20
-18.3093539638451
30
0
41
1
10
287.554012412702
20
-18.3084010300556
30
0
41
1
10
287.551498718449
20
-18.3049318251678
30
0
41
1
10
287.550641696582
20
-18.3017928744924
30
0
41
1
10
287.550431296051
20
-18.2959971988541
30
0
41
1
10
287.550543891767
20
-18.2938771195682
30
0
41
1
10
287.551097439142
20
-18.2893835606961
30
0
41
1
10
287.55153724686
20
-18.2870008336856
30
0
41
1
10
287.553295887259
20
-18.2794861044514
30
0
41
1
10
287.555051097323
20
-18.2739898973767
30
0
41
1
10
287.559557801758
20
-18.2621650826903
30
0
41
1
10
287.562301249488
20
-18.2558684256221
30
0
41
1
10
287.568507240897
20
-18.2428591198084
30
0
41
1
10
287.571983861287
20
-18.236110933698
30
0
41
1
10
287.579584891849
20
-18.2221925717876
30
0
41
1
10
287.583728003621
20
-18.2149922619396
30
0
41
1
10
287.59691541842
20
-18.1930284474533
30
0
41
1
10
287.606613261902
20
-18.1780492255834
30
0
41
1
10
287.627467863824
20
-18.1475539976582
30
0
41
1
10
287.638630045339
20
-18.1320359563963
30
0
41
1
10
287.650480947162
20
-18.116267866283
30
0
0
SPLINE
5
18C
100
AcDbEntity
8
1
62
256
6
ByLayer
370
18
48
1
60
0
100
AcDbSpline
70
4
71
3
72
8
73
4
40
0
40
0
40
0
40
0
40
1
40
1
40
1
40
1
41
1
10
287.650480947162
20
-18.116267866283
30
0
41
1
10
287.877337890168
20
-17.8144257977424
30
0
41
1
10
288.102167049584
20
-17.5105841761005
30
0
41
1
10
288.324759526419
20
-17.2045370106271
30
0
0
SPLINE
5
18D
100
AcDbEntity
8
1
62
256
6
ByLayer
370
18
48
1
60
0
100
AcDbSpline
70
4
71
3
72
8
73
4
40
0
40
0
40
0
40
0
40
1
40
1
40
1
40
1
41
1
10
288.324759526419
20
-17.0237655573036
30
0
41
1
10
288.100039125586
20
-17.2102687278787
30
0
41
1
10
287.87527835498
20
-17.396707056342
30
0
41
1
10
287.650480947162
20
-17.5830864488545
30
0
0
SPLINE
5
18E
100
AcDbEntity
8
1
62
256
6
ByLayer
370
18
48
1
60
0
100
AcDbSpline
70
4
71
3
72
39
73
35
40
0
40
0
40
0
40
0
40
0.062500000000017
40
0.062500000000017
40
0.125000000000034
40
0.125000000000034
40
0.187500000000051
40
0.187500000000051
40
0.218750000000061
40
0.218750000000061
40
0.250000000000071
40
0.250000000000071
40
0.312500000000083
40
0.312500000000083
40
0.343750000000087
40
0.343750000000087
40
0.375000000000091
40
0.406250000000095
40
0.406250000000095
40
0.437500000000099
40
0.437500000000099
40
0.500000000000089
40
0.500000000000089
40
0.562500000000079
40
0.562500000000079
40
0.625000000000069
40
0.625000000000069
40
0.68750000000006
40
0.68750000000006
40
0.75000000000005
40
0.75000000000005
40
0.875000000000025
40
0.875000000000025
40
1
40
1
40
1
40
1
41
1
10
287.650480947162
20
-17.5830864488546
30
0
41
1
10
287.642848465984
20
-17.589414534303
30
0
41
1
10
287.635230044314
20
-17.5953906617511
30
0
41
1
10
287.620434193986
20
-17.6061779599137
30
0
41
1
10
287.613255140464
20
-17.6109974845259
30
0
41
1
10
287.599425158374
20
-17.6192459915898
30
0
41
1
10
287.592745263725
20
-17.6226722784107
30
0
41
1
10
287.583692680945
20
-17.62629981683
30
0
41
1
10
287.580816760607
20
-17.6272697003255
30
0
41
1
10
287.575367399923
20
-17.6286973789882
30
0
41
1
10
287.572783455345
20
-17.6291527982114
30
0
41
1
10
287.565725370173
20
-17.6296830301401
30
0
41
1
10
287.561864611698
20
-17.6289563432174
30
0
41
1
10
287.557292459269
20
-17.6263023228402
30
0
41
1
10
287.555968736541
20
-17.6251453113997
30
0
41
1
10
287.553784251942
20
-17.6223872509883
30
0
41
1
10
287.5520409109
20
-17.6191807863454
30
0
41
1
10
287.551098579189
20
-17.6151589316107
30
0
41
1
10
287.550528264205
20
-17.6107578663782
30
0
41
1
10
287.550430700683
20
-17.6083568813512
30
0
41
1
10
287.550654051541
20
-17.6007652352963
30
0
41
1
10
287.551475794025
20
-17.5951597496365
30
0
41
1
10
287.554198267888
20
-17.5830737854486
30
0
41
1
10
287.556114381686
20
-17.5765557654394
30
0
41
1
10
287.560823333971
20
-17.5629298211252
30
0
41
1
10
287.563597798464
20
-17.5558628914168
30
0
41
1
10
287.569844713144
20
-17.5413066108053
30
0
41
1
10
287.573318283136
20
-17.5338165910077
30
0
41
1
10
287.580882685558
20
-17.5184630726746
30
0
41
1
10
287.584984596991
20
-17.5105829559688
30
0
41
1
10
287.597909096523
20
-17.4868430027675
30
0
41
1
10
287.60740422431
20
-17.4707518266133
30
0
41
1
10
287.627855969026
20
-17.4381338925018
30
0
41
1
10
287.638816630045
20
-17.4216059035303
30
0
41
1
10
287.650480947162
20
-17.4048713342169
30
0
0
SPLINE
5
18F
100
AcDbEntity
8
1
62
256
6
ByLayer
370
18
48
1
60
0
100
AcDbSpline
70
4
71
3
72
8
73
4
40
0
40
0
40
0
40
0
40
1
40
1
40
1
40
1
41
1
10
287.650480947162
20
-17.4048713342169
30
0
41
1
10
287.87797677687
20
-17.0784874839783
30
0
41
1
10
288.10282976625
20
-16.7496954266918
30
0
41
1
10
288.324759526419
20
-16.4182396666036
30
0
0
SPLINE
5
190
100
AcDbEntity
8
1
62
256
6
ByLayer
370
18
48
1
60
0
100
AcDbSpline
70
4
71
3
72
8
73
4
40
0
40
0
40
0
40
0
40
1
40
1
40
1
40
1
41
1
10
288.324759526419
20
-16.1940141333159
30
0
41
1
10
288.100007511727
20
-16.3780816494077
30
0
41
1
10
287.875247737629
20
-16.5621365334041
30
0
41
1
10
287.650480947162
20
-16.7461799915731
30
0
0
SPLINE
5
191
100
AcDbEntity
8
1
62
256
6
ByLayer
370
18
48
1
60
0
100
AcDbSpline
70
4
71
3
72
39
73
35
40
0
40
0
40
0
40
0
40
0.0625000000000128
40
0.0625000000000128
40
0.125000000000026
40
0.125000000000026
40
0.156250000000029
40
0.156250000000029
40
0.187500000000032
40
0.187500000000032
40
0.218750000000035
40
0.218750000000035
40
0.250000000000038
40
0.281250000000041
40
0.281250000000041
40
0.312500000000044
40
0.312500000000044
40
0.37500000000005
40
0.37500000000005
40
0.406250000000053
40
0.406250000000053
40
0.437500000000057
40
0.437500000000057
40
0.500000000000055
40
0.500000000000055
40
0.562500000000053
40
0.562500000000053
40
0.625000000000052
40
0.625000000000052
40
0.750000000000034
40
0.750000000000034
40
0.875000000000017
40
0.875000000000017
40
1
40
1
40
1
40
1
41
1
10
287.650480947162
20
-16.7461799915731
30
0
41
1
10
287.642517355019
20
-16.752700737073
30
0
41
1
10
287.63453440989
20
-16.7587815916517
30
0
41
1
10
287.619042460543
20
-16.7694623151682
30
0
41
1
10
287.611511726718
20
-16.7740895951831
30
0
41
1
10
287.600621370502
20
-16.7796806806266
30
0
41
1
10
287.597061556649
20
-16.7813124621383
30
0
41
1
10
287.590290341915
20
-16.7839856794476
30
0
41
1
10
287.587053841966
20
-16.78504091901
30
0
41
1
10
287.58089623758
20
-16.7865551188083
30
0
41
1
10
287.577954952722
20
-16.7870145467251
30
0
41
1
10
287.572512587958
20
-16.78728427633
30
0
41
1
10
287.567547431314
20
-16.7869134556389
30
0
41
1
10
287.56348717482
20
-16.7853258627783
30
0
41
1
10
287.559865561372
20
-16.7831473720274
30
0
41
1
10
287.558264729514
20
-16.7817488018333
30
0
41
1
10
287.554196953588
20
-16.7767917693817
30
0
41
1
10
287.552440567205
20
-16.772507925754
30
0
41
1
10
287.550959029724
20
-16.7648963564567
30
0
41
1
10
287.550660070545
20
-16.7621461067266
30
0
41
1
10
287.550422720308
20
-16.7563820754742
30
0
41
1
10
287.550481076441
20
-16.7533611718072
30
0
41
1
10
287.551119474506
20
-16.7439343578554
30
0
41
1
10
287.552159177103
20
-16.7371671874775
30
0
41
1
10
287.555239798449
20
-16.7228437690722
30
0
41
1
10
287.557290439547
20
-16.7152746972414
30
0
41
1
10
287.562146245543
20
-16.6997853492499
30
0
41
1
10
287.564959968858
20
-16.6918233983917
30
0
41
1
10
287.574383518436
20
-16.6673835167671
30
0
41
1
10
287.582020418222
20
-16.6502626912251
30
0
41
1
10
287.598905986321
20
-16.6158494363729
30
0
41
1
10
287.608200334979
20
-16.5984352934851
30
0
41
1
10
287.628249215424
20
-16.5632547901692
30
0
41
1
10
287.639006636006
20
-16.5454877152698
30
0
41
1
10
287.650480947162
20
-16.5275506630103
30
0
0
SPLINE
5
192
100
AcDbEntity
8
1
62
256
6
ByLayer
370
18
48
1
60
0
100
AcDbSpline
70
4
71
3
72
8
73
4
40
0
40
0
40
0
40
0
40
1
40
1
40
1
40
1
41
1
10
287.650480947162
20
-16.5275506630103
30
0
41
1
10
287.878876276632
20
-16.1705149416596
30
0
41
1
10
288.103764009202
20
-15.8105598495171
30
0
41
1
10
288.324759526419
20
-15.4473652688746
30
0
0
SPLINE
5
193
100
AcDbEntity
8
1
62
256
6
ByLayer
370
18
48
1
60
0
100
AcDbSpline
70
4
71
3
72
8
73
4
40
0
40
0
40
0
40
0
40
1
40
1
40
1
40
1
41
1
10
288.324759526419
20
-15.1718025873669
30
0
41
1
10
288.10000187134
20
-15.3554472734968
30
0
41
1
10
287.875242279349
20
-15.5390887989496
30
0
41
1
10
287.650480947162
20
-15.7227274845184
30
0
0
SPLINE
5
194
100
AcDbEntity
8
1
62
256
6
ByLayer
370
18
48
1
60
0
100
AcDbSpline
70
4
71
3
72
38
73
34
40
0
40
0
40
0
40
0
40
0.062500000000004
40
0.062500000000004
40
0.0937500000000034
40
0.0937500000000034
40
0.125000000000003
40
0.125000000000003
40
0.187500000000006
40
0.187500000000006
40
0.250000000000009
40
0.250000000000009
40
0.281250000000012
40
0.281250000000012
40
0.312500000000016
40
0.312500000000016
40
0.375000000000015
40
0.375000000000015
40
0.437500000000014
40
0.437500000000014
40
0.500000000000014
40
0.500000000000014
40
0.562500000000013
40
0.562500000000013
40
0.625000000000013
40
0.625000000000013
40
0.687500000000012
40
0.687500000000012
40
0.750000000000011
40
0.750000000000011
40
0.875000000000006
40
0.875000000000006
40
1
40
1
40
1
40
1
41
1
10
287.650480947162
20
-15.7227274845184
30
0
41
1
10
287.642084189611
20
-15.7295879596038
30
0
41
1
10
287.633635577278
20
-15.7358730778357
30
0
41
1
10
287.621331349082
20
-15.7438542779441
30
0
41
1
10
287.617278610407
20
-15.7462841546213
30
0
41
1
10
287.609284196945
20
-15.7506167225578
30
0
41
1
10
287.605312533919
20
-15.7525309641136
30
0
41
1
10
287.59384949108
20
-15.7572404234749
30
0
41
1
10
287.586793021271
20
-15.7590261770082
30
0
41
1
10
287.574217814694
20
-15.7594741859479
30
0
41
1
10
287.568995280752
20
-15.758139110913
30
0
41
1
10
287.562595860953
20
-15.754028349818
30
0
41
1
10
287.560701051961
20
-15.7522911875507
30
0
41
1
10
287.557471003325
20
-15.7482678595027
30
0
41
1
10
287.556116901746
20
-15.7459736675137
30
0
41
1
10
287.552741344183
20
-15.7383459141718
30
0
41
1
10
287.551412871276
20
-15.7322137165065
30
0
41
1
10
287.550260898918
20
-15.71896225516
30
0
41
1
10
287.550404629695
20
-15.7117851145466
30
0
41
1
10
287.551786707427
20
-15.6965886813024
30
0
41
1
10
287.55302900844
20
-15.6885664010898
30
0
41
1
10
287.556428844899
20
-15.6718153503698
30
0
41
1
10
287.558575785074
20
-15.6631531994742
30
0
41
1
10
287.563557184201
20
-15.6455384394764
30
0
41
1
10
287.566399025425
20
-15.6365545230327
30
0
41
1
10
287.5726862554
20
-15.6182825742105
30
0
41
1
10
287.576143791446
20
-15.6089656304782
30
0
41
1
10
287.58354639268
20
-15.5902008455667
30
0
41
1
10
287.587481021919
20
-15.5807754721048
30
0
41
1
10
287.599905559109
20
-15.5523851374548
30
0
41
1
10
287.609009839549
20
-15.533307043836
30
0
41
1
10
287.628661740995
20
-15.4948880043355
30
0
41
1
10
287.639211392285
20
-15.4755466757477
30
0
41
1
10
287.650480947162
20
-15.4560769820837
30
0
0
SPLINE
5
195
100
AcDbEntity
8
1
62
256
6
ByLayer
370
18
48
1
60
0
100
AcDbSpline
70
4
71
3
72
8
73
4
40
0
40
0
40
0
40
0
40
1
40
1
40
1
40
1
41
1
10
287.650480947162
20
-15.4560769820837
30
0
41
1
10
287.880211532645
20
-15.0591860512815
30
0
41
1
10
288.105152654041
20
-14.6587123242214
30
0
41
1
10
288.324759526419
20
-14.2542482702537
30
0
0
SPLINE
5
196
100
AcDbEntity
8
1
62
256
6
ByLayer
370
18
48
1
60
0
100
AcDbSpline
70
4
71
3
72
8
73
4
40
0
40
0
40
0
40
0
40
1
40
1
40
1
40
1
41
1
10
288.324759526419
20
-13.9147796874413
30
0
41
1
10
288.10004293855
20
-14.1009918745296
30
0
41
1
10
287.87528177088
20
-14.2871322907622
30
0
41
1
10
287.650480947162
20
-14.4732088630925
30
0
0
SPLINE
5
197
100
AcDbEntity
8
1
62
256
6
ByLayer
370
18
48
1
60
0
100
AcDbSpline
70
4
71
3
72
34
73
30
40
0
40
0
40
0
40
0
40
0.0625000000000062
40
0.0625000000000062
40
0.0937500000000095
40
0.0937500000000095
40
0.125000000000013
40
0.125000000000013
40
0.187500000000013
40
0.187500000000013
40
0.250000000000013
40
0.250000000000013
40
0.281250000000009
40
0.281250000000009
40
0.312500000000005
40
0.312500000000005
40
0.375000000000005
40
0.375000000000005
40
0.437500000000004
40
0.437500000000004
40
0.500000000000004
40
0.500000000000004
40
0.625000000000003
40
0.625000000000003
40
0.750000000000002
40
0.750000000000002
40
0.875000000000001
40
0.875000000000001
40
1
40
1
40
1
40
1
41
1
10
287.650480947162
20
-14.4732088630934
30
0
41
1
10
287.641610746045
20
-14.4805510809395
30
0
41
1
10
287.632717594853
20
-14.487097426015
30
0
41
1
10
287.619328414583
20
-14.4952053949908
30
0
41
1
10
287.614948765932
20
-14.4975617119483
30
0
41
1
10
287.606376490095
20
-14.5014961459096
30
0
41
1
10
287.602156895126
20
-14.5030818509577
30
0
41
1
10
287.590005767027
20
-14.5064329261973
30
0
41
1
10
287.582819857639
20
-14.5067574004911
30
0
41
1
10
287.570335823892
20
-14.5034485559466
30
0
41
1
10
287.565449926247
20
-14.4999293623094
30
0
41
1
10
287.559738856258
20
-14.4925438009578
30
0
41
1
10
287.558096977763
20
-14.4897010183216
30
0
41
1
10
287.555363676398
20
-14.4835186121868
30
0
41
1
10
287.554261456695
20
-14.4801742613052
30
0
41
1
10
287.551618606382
20
-14.4695040698864
30
0
41
1
10
287.55074024509
20
-14.4614886218103
30
0
41
1
10
287.550322100162
20
-14.4446421416508
30
0
41
1
10
287.550767880496
20
-14.4357693456123
30
0
41
1
10
287.552650600946
20
-14.4173396015775
30
0
41
1
10
287.554097560382
20
-14.4077483041181
30
0
41
1
10
287.559624326733
20
-14.3783622980707
30
0
41
1
10
287.564840271179
20
-14.3580458003168
30
0
41
1
10
287.57746663017
20
-14.3164151731902
30
0
41
1
10
287.584781622077
20
-14.2954445124753
30
0
41
1
10
287.600983403359
20
-14.2532582502729
30
0
41
1
10
287.609876729726
20
-14.2320416953026
30
0
41
1
10
287.629096511696
20
-14.1893876202447
30
0
41
1
10
287.639424130324
20
-14.1679499081228
30
0
41
1
10
287.650480947162
20
-14.1464023848407
30
0
0
SPLINE
5
198
100
AcDbEntity
8
1
62
256
6
ByLayer
370
18
48
1
60
0
100
AcDbSpline
70
4
71
3
72
8
73
4
40
0
40
0
40
0
40
0
40
1
40
1
40
1
40
1
41
1
10
287.650480947162
20
-14.1464023848407
30
0
41
1
10
287.882352997816
20
-13.6945301612798
30
0
41
1
10
288.107382666912
20
-13.2381665161982
30
0
41
1
10
288.324759526419
20
-12.7767794748922
30
0
0
SPLINE
5
199
100
AcDbEntity
8
1
62
256
6
ByLayer
370
18
48
1
60
0
100
AcDbSpline
70
4
71
3
72
8
73
4
40
0
40
0
40
0
40
0
40
1
40
1
40
1
40
1
41
1
10
288.324759526419
20
-12.3514611989848
30
0
41
1
10
288.100191536751
20
-12.5453578173517
30
0
41
1
10
287.875423713527
20
-12.7389451074593
30
0
41
1
10
287.650480947162
20
-12.9322615979172
30
0
0
SPLINE
5
19A
100
AcDbEntity
8
1
62
256
6
ByLayer
370
18
48
1
60
0
100
AcDbSpline
70
4
71
3
72
39
73
35
40
0
40
0
40
0
40
0
40
0.0312500000000007
40
0.0312500000000007
40
0.0625000000000016
40
0.0625000000000016
40
0.0937500000000023
40
0.0937500000000023
40
0.125000000000003
40
0.125000000000003
40
0.156250000000004
40
0.156250000000004
40
0.187500000000005
40
0.187500000000005
40
0.218750000000006
40
0.218750000000006
40
0.250000000000006
40
0.250000000000006
40
0.281250000000007
40
0.281250000000007
40
0.312500000000008
40
0.312500000000008
40
0.375000000000004
40
0.375000000000004
40
0.499999999999991
40
0.499999999999991
40
0.562499999999989
40
0.562499999999989
40
0.624999999999988
40
0.624999999999988
40
0.749999999999992
40
0.749999999999992
40
0.874999999999996
40
1
40
1
40
1
40
1
41
1
10
287.650480947162
20
-12.9322615979191
30
0
41
1
10
287.645659559596
20
-12.9364051129046
30
0
41
1
10
287.640801078904
20
-12.9402752725346
30
0
41
1
10
287.630992180374
20
-12.9473366560161
30
0
41
1
10
287.626006027204
20
-12.950544709168
30
0
41
1
10
287.616213206618
20
-12.9559198413904
30
0
41
1
10
287.611384546088
20
-12.9581090210076
30
0
41
1
10
287.601890289183
20
-12.9612844521544
30
0
41
1
10
287.597355810905
20
-12.9622204837463
30
0
41
1
10
287.588820720175
20
-12.9627189554149
30
0
41
1
10
287.584759371
20
-12.9622658825164
30
0
41
1
10
287.577453125654
20
-12.9600256025949
30
0
41
1
10
287.574191909539
20
-12.9582620751245
30
0
41
1
10
287.568356163976
20
-12.9536047091909
30
0
41
1
10
287.565807208947
20
-12.9507159173016
30
0
41
1
10
287.561457307646
20
-12.944216322146
30
0
41
1
10
287.559626662752
20
-12.9405816268452
30
0
41
1
10
287.556523269337
20
-12.9326866584453
30
0
41
1
10
287.555247510152
20
-12.9284035299883
30
0
41
1
10
287.55319751331
20
-12.919443414034
30
0
41
1
10
287.552418485904
20
-12.9147636089503
30
0
41
1
10
287.550682498191
20
-12.900234349396
30
0
41
1
10
287.550325735067
20
-12.8898556133695
30
0
41
1
10
287.550966789172
20
-12.8579922826183
30
0
41
1
10
287.553590221519
20
-12.8355866876131
30
0
41
1
10
287.559524476594
20
-12.8009026027315
30
0
41
1
10
287.561860927053
20
-12.78911380619
30
0
41
1
10
287.567088729835
20
-12.7654205868517
30
0
41
1
10
287.569973709317
20
-12.7535355328594
30
0
41
1
10
287.579321527427
20
-12.7177809868888
30
0
41
1
10
287.58646953122
20
-12.6938130910548
30
0
41
1
10
287.602267862415
20
-12.6456594779348
30
0
41
1
10
287.619577003328
20
-12.5972869331217
30
0
41
1
10
287.639694160572
20
-12.5485106461858
30
0
41
1
10
287.650480947162
20
-12.5240203286146
30
0
0
SPLINE
5
19B
100
AcDbEntity
8
1
62
256
6
ByLayer
370
18
48
1
60
0
100
AcDbSpline
70
4
71
3
72
8
73
4
40
0
40
0
40
0
40
0
40
1
40
1
40
1
40
1
41
1
10
287.650480947162
20
-12.5240203286146
30
0
41
1
10
287.886241901321
20
-11.9887487173433
30
0
41
1
10
288.111437539985
20
-11.4476285217357
30
0
41
1
10
288.324759526419
20
-10.8999354929295
30
0
0
SPLINE
5
19C
100
AcDbEntity
8
1
62
256
6
ByLayer
370
18
48
1
60
0
100
AcDbSpline
70
4
71
3
72
8
73
4
40
0
40
0
40
0
40
0
40
1
40
1
40
1
40
1
41
1
10
288.324759526419
20
-10.3438916153459
30
0
41
1
10
288.100672937923
20
-10.5561625919082
30
0
41
1
10
287.875878259423
20
-10.7674293885335
30
0
41
1
10
287.650480947162
20
-10.9778415583043
30
0
0
SPLINE
5
19D
100
AcDbEntity
8
1
62
256
6
ByLayer
370
18
48
1
60
0
100
AcDbSpline
70
4
71
3
72
39
73
35
40
0
40
0
40
0
40
0
40
0.0312500000000018
40
0.0312500000000018
40
0.0625000000000037
40
0.0625000000000037
40
0.078125000000005
40
0.078125000000005
40
0.0937500000000062
40
0.0937500000000062
40
0.125000000000008
40
0.125000000000008
40
0.15625000000001
40
0.15625000000001
40
0.187500000000012
40
0.187500000000012
40
0.218750000000014
40
0.218750000000014
40
0.250000000000016
40
0.250000000000016
40
0.281250000000018
40
0.281250000000018
40
0.31250000000002
40
0.31250000000002
40
0.375000000000024
40
0.375000000000024
40
0.500000000000019
40
0.500000000000019
40
0.625000000000015
40
0.625000000000015
40
0.75000000000001
40
0.75000000000001
40
0.875000000000005
40
1
40
1
40
1
40
1
41
1
10
287.650480947162
20
-10.977841558306
30
0
41
1
10
287.645070573186
20
-10.9828922331174
30
0
41
1
10
287.639513106979
20
-10.9875792288384
30
0
41
1
10
287.628225225349
20
-10.9957597995148
30
0
41
1
10
287.622572736455
20
-10.999203314173
30
0
41
1
10
287.614077225303
20
-11.0030918810395
30
0
41
1
10
287.611222335286
20
-11.0041768835964
30
0
41
1
10
287.605677702528
20
-11.0057967808811
30
0
41
1
10
287.602973531995
20
-11.0063414516272
30
0
41
1
10
287.595073068045
20
-11.007149022523
30
0
41
1
10
287.590031566255
20
-11.0065324890345
30
0
41
1
10
287.581193349521
20
-11.0032210025222
30
0
41
1
10
287.577280359417
20
-11.0005431411259
30
0
41
1
10
287.570434037439
20
-10.9936129589082
30
0
41
1
10
287.567567506173
20
-10.9894554602366
30
0
41
1
10
287.562642849808
20
-10.9801311836346
30
0
41
1
10
287.560603852079
20
-10.9749764931923
30
0
41
1
10
287.557229405652
20
-10.9641977522349
30
0
41
1
10
287.555875895449
20
-10.9585336597296
30
0
41
1
10
287.553672457203
20
-10.9467890170168
30
0
41
1
10
287.552823959493
20
-10.9407073042594
30
0
41
1
10
287.551532822405
20
-10.9282066799289
30
0
41
1
10
287.551090778585
20
-10.9217691865281
30
0
41
1
10
287.550280304693
20
-10.9022578233628
30
0
41
1
10
287.550409275107
20
-10.888933626275
30
0
41
1
10
287.552194406003
20
-10.8482913762723
30
0
41
1
10
287.555225580055
20
-10.8203143302219
30
0
41
1
10
287.56364088965
20
-10.7632072654742
30
0
41
1
10
287.568989094997
20
-10.7344845311737
30
0
41
1
10
287.581324248186
20
-10.6768917217874
30
0
41
1
10
287.588324868774
20
-10.6479991733824
30
0
41
1
10
287.603732419277
20
-10.5900484071957
30
0
41
1
10
287.620551977068
20
-10.5319314186687
30
0
41
1
10
287.640038964387
20
-10.4735017998081
30
0
41
1
10
287.650480947162
20
-10.4442074830633
30
0
0
SPLINE
5
19E
100
AcDbEntity
8
1
62
256
6
ByLayer
370
18
48
1
60
0
100
AcDbSpline
70
4
71
3
72
8
73
4
40
0
40
0
40
0
40
0
40
1
40
1
40
1
40
1
41
1
10
287.650480947162
20
-10.4442074830633
30
0
41
1
10
287.895186418447
20
-9.75770188931247
30
0
41
1
10
288.120774732857
20
-9.06295440434474
30
0
41
1
10
288.324759526419
20
-8.35889309358711
30
0
0
SPLINE
5
19F
100
AcDbEntity
8
1
62
256
6
ByLayer
370
18
48
1
60
0
100
AcDbSpline
70
4
71
3
72
8
73
4
40
0
40
0
40
0
40
0
40
1
40
1
40
1
40
1
41
1
10
288.324759526419
20
-7.54543529228212
30
0
41
1
10
288.102856207575
20
-7.80812939306762
30
0
41
1
10
287.87789393872
20
-8.06728947825408
30
0
41
1
10
287.650480947162
20
-8.32361823496828
30
0
0
SPLINE
5
1A0
100
AcDbEntity
8
1
62
256
6
ByLayer
370
18
48
1
60
0
100
AcDbSpline
70
4
71
3
72
38
73
34
40
0
40
0
40
0
40
0
40
0.031250000000004
40
0.031250000000004
40
0.0468750000000062
40
0.0468750000000062
40
0.0625000000000085
40
0.0625000000000085
40
0.0781250000000108
40
0.0781250000000108
40
0.093750000000013
40
0.093750000000013
40
0.109375000000015
40
0.109375000000015
40
0.125000000000018
40
0.125000000000018
40
0.156250000000015
40
0.156250000000015
40
0.187500000000012
40
0.187500000000012
40
0.25000000000001
40
0.25000000000001
40
0.312500000000008
40
0.312500000000008
40
0.375000000000007
40
0.375000000000007
40
0.500000000000005
40
0.500000000000005
40
0.625000000000003
40
0.625000000000003
40
0.750000000000001
40
0.750000000000001
40
1
40
1
40
1
40
1
41
1
10
287.650480947163
20
-8.3236182349716
30
0
41
1
10
287.643984522043
20
-8.33094068635307
30
0
41
1
10
287.637087099727
20
-8.33768124412316
30
0
41
1
10
287.626354747428
20
-8.34568070105766
30
0
41
1
10
287.622672786078
20
-8.34801975192076
30
0
41
1
10
287.615227174174
20
-8.35169640698226
30
0
41
1
10
287.611531397854
20
-8.35300455163292
30
0
41
1
10
287.604203715131
20
-8.35436607527089
30
0
41
1
10
287.600638398742
20
-8.35438934468053
30
0
41
1
10
287.593959541195
20
-8.35314067665334
30
0
41
1
10
287.590782123263
20
-8.35184798669403
30
0
41
1
10
287.58507026222
20
-8.34828207327101
30
0
41
1
10
287.582488099225
20
-8.34601133649508
30
0
41
1
10
287.577753050436
20
-8.34070331419872
30
0
41
1
10
287.575612489275
20
-8.33767053930828
30
0
41
1
10
287.569849274635
20
-8.32792028671361
30
0
41
1
10
287.566789889396
20
-8.32043543782294
30
0
41
1
10
287.561775920044
20
-8.30477720344985
30
0
41
1
10
287.559797491318
20
-8.29654262529223
30
0
41
1
10
287.554893629213
20
-8.27104194241093
30
0
41
1
10
287.552983754743
20
-8.25288418124578
30
0
41
1
10
287.550722421526
20
-8.21638791679737
30
0
41
1
10
287.550369579247
20
-8.19789985844963
30
0
41
1
10
287.550648562
20
-8.16061226405222
30
0
41
1
10
287.551290415845
20
-8.14180977373374
30
0
41
1
10
287.5543116466
20
-8.08504763501378
30
0
41
1
10
287.557768451239
20
-8.04673870110847
30
0
41
1
10
287.566574464434
20
-7.96947917110111
30
0
41
1
10
287.571943356467
20
-7.93052277137778
30
0
41
1
10
287.584191791777
20
-7.85208140430839
30
0
41
1
10
287.591049423945
20
-7.81277108989704
30
0
41
1
10
287.613451439318
20
-7.69485960614361
30
0
41
1
10
287.630794068013
20
-7.61615616242867
30
0
41
1
10
287.650480947162
20
-7.53736390968345
30
0
0
SPLINE
5
1A1
100
AcDbEntity
8
1
62
256
6
ByLayer
370
18
48
1
60
0
100
AcDbSpline
70
4
71
3
72
8
73
4
40
0
40
0
40
0
40
0
40
1
40
1
40
1
40
1
41
1
10
287.650480947162
20
-7.53736390968348
30
0
41
1
10
287.936650314553
20
-6.3920361533973
30
0
41
1
10
288.164101740032
20
-5.23155518188855
30
0
41
1
10
288.324759526419
20
-4.05383691704645
30
0
0
SPLINE
5
1A2
100
AcDbEntity
8
1
62
256
6
ByLayer
370
18
48
1
60
0
100
AcDbSpline
70
4
71
3
72
10
73
6
40
0
40
0
40
0
40
0
40
0.5
40
0.5
40
1
40
1
40
1
40
1
41
1
10
288.324759526416
20
-1.53983562436434
30
0
41
1
10
288.253343637489
20
-1.91394777515424
30
0
41
1
10
288.158489259991
20
-2.27822115563256
30
0
41
1
10
287.9309865447
20
-2.99090315238416
30
0
41
1
10
287.798334418939
20
-3.33931017858274
30
0
41
1
10
287.650480947162
20
-3.68133613838199
30
0
0
SPLINE
5
1A3
100
AcDbEntity
8
1
62
256
6
ByLayer
370
18
48
1
60
0
100
AcDbSpline
70
4
71
3
72
57
73
53
40
0
40
0
40
0
40
0
40
0.124999999999999
40
0.124999999999999
40
0.249999999999999
40
0.374999999999998
40
0.374999999999998
40
0.499999999999998
40
0.499999999999998
40
0.624999999999997
40
0.624999999999997
40
0.687499999999997
40
0.687499999999997
40
0.749999999999997
40
0.749999999999997
40
0.812499999999997
40
0.812499999999997
40
0.874999999999996
40
0.874999999999996
40
0.906249999999996
40
0.906249999999996
40
0.921874999999996
40
0.921874999999996
40
0.937499999999995
40
0.937499999999995
40
0.945312499999995
40
0.945312499999995
40
0.953124999999995
40
0.953124999999995
40
0.960937499999995
40
0.960937499999995
40
0.964843749999995
40
0.964843749999995
40
0.968749999999995
40
0.968749999999995
40
0.972656249999995
40
0.972656249999995
40
0.976562499999995
40
0.976562499999995
40
0.978515624999996
40
0.978515624999996
40
0.980468749999997
40
0.980468749999997
40
0.982421874999998
40
0.982421874999998
40
0.984374999999999
40
0.984374999999999
40
0.988281249999999
40
0.988281249999999
40
0.992187499999999
40
0.992187499999999
40
1
40
1
40
1
40
1
41
1
10
287.650480947162
20
-0.205522419002108
30
0
41
1
10
287.649474914009
20
-0.357427176921362
30
0
41
1
10
287.647352403027
20
-0.509318066438738
30
0
41
1
10
287.641079448038
20
-0.813071042313766
30
0
41
1
10
287.632780577668
20
-1.11679520449022
30
0
41
1
10
287.621220285853
20
-1.42045756542282
30
0
41
1
10
287.608599227805
20
-1.72408596214623
30
0
41
1
10
287.601754923346
20
-1.87588319884142
30
0
41
1
10
287.587790157287
20
-2.17943940737294
30
0
41
1
10
287.580656945612
20
-2.33119845239159
30
0
41
1
10
287.570656270951
20
-2.55880325319814
30
0
41
1
10
287.567443146172
20
-2.63466586964768
30
0
41
1
10
287.561508805657
20
-2.78637838337744
30
0
41
1
10
287.558783648494
20
-2.86225232686184
30
0
41
1
10
287.554227791731
20
-3.01360192235217
30
0
41
1
10
287.552384521753
20
-3.08911791731569
30
0
41
1
10
287.550304819929
20
-3.23969455939044
30
0
41
1
10
287.550017507499
20
-3.3147647400524
30
0
41
1
10
287.552116127572
20
-3.42678061902993
30
0
41
1
10
287.553241725102
20
-3.46402017693529
30
0
41
1
10
287.556066196098
20
-3.519637825209
30
0
41
1
10
287.557199844787
20
-3.5381362328736
30
0
41
1
10
287.560032561576
20
-3.57501750617948
30
0
41
1
10
287.561724621638
20
-3.59340168463731
30
0
41
1
10
287.564962866512
20
-3.62083957542202
30
0
41
1
10
287.566160648091
20
-3.62996216256761
30
0
41
1
10
287.568892543204
20
-3.64814192598001
30
0
41
1
10
287.570429233634
20
-3.65722701901345
30
0
41
1
10
287.574003223349
20
-3.67517038949839
30
0
41
1
10
287.576022559128
20
-3.68398056808931
30
0
41
1
10
287.579665375541
20
-3.69677304463397
30
0
41
1
10
287.580983473112
20
-3.70096570129027
30
0
41
1
10
287.583925806698
20
-3.70914096325646
30
0
41
1
10
287.585555704597
20
-3.71313687493503
30
0
41
1
10
287.589214864266
20
-3.72059319090169
30
0
41
1
10
287.591242911041
20
-3.72408197853673
30
0
41
1
10
287.596024190781
20
-3.73018722526112
30
0
41
1
10
287.598791925149
20
-3.73279255037687
30
0
41
1
10
287.603585192062
20
-3.7350281309358
30
0
41
1
10
287.605238544653
20
-3.73546904733837
30
0
41
1
10
287.608667422955
20
-3.73568290628771
30
0
41
1
10
287.61045752744
20
-3.7354403300275
30
0
41
1
10
287.613936585578
20
-3.7343332398537
30
0
41
1
10
287.615671884936
20
-3.73346228202792
30
0
41
1
10
287.61899339339
20
-3.73128844497953
30
0
41
1
10
287.620581409002
20
-3.72999412036586
30
0
41
1
10
287.625186557665
20
-3.72565845068132
30
0
41
1
10
287.628021131566
20
-3.72219009813043
30
0
41
1
10
287.633249794904
20
-3.71485248827565
30
0
41
1
10
287.635679061346
20
-3.71093331943959
30
0
41
1
10
287.642616772462
20
-3.69870333450189
30
0
41
1
10
287.646685962344
20
-3.6901149875296
30
0
41
1
10
287.650480947162
20
-3.68133613838199
30
0
0
SPLINE
5
1A4
100
AcDbEntity
8
1
62
256
6
ByLayer
370
18
48
1
60
0
100
AcDbSpline
70
4
71
3
72
8
73
4
40
0
40
0
40
0
40
0
40
1
40
1
40
1
40
1
41
1
10
287.650480947162
20
-0.205522419002108
30
0
41
1
10
287.651388368233
20
-0.0685074730014037
30
0
41
1
10
287.651388368233
20
0.0685074729992721
30
0
41
1
10
287.650480947162
20
0.205522418999948
30
0
0
SPLINE
5
1A5
100
AcDbEntity
8
1
62
256
6
ByLayer
370
18
48
1
60
0
100
AcDbSpline
70
4
71
3
72
59
73
55
40
0
40
0
40
0
40
0
40
0.125000000000001
40
0.125000000000001
40
0.250000000000003
40
0.375000000000005
40
0.375000000000005
40
0.500000000000006
40
0.500000000000006
40
0.625000000000007
40
0.625000000000007
40
0.687500000000008
40
0.687500000000008
40
0.750000000000008
40
0.750000000000008
40
0.812500000000009
40
0.812500000000009
40
0.843750000000009
40
0.843750000000009
40
0.875000000000009
40
0.875000000000009
40
0.906250000000009
40
0.906250000000009
40
0.921875000000009
40
0.921875000000009
40
0.937500000000009
40
0.937500000000009
40
0.945312500000009
40
0.945312500000009
40
0.953125000000008
40
0.953125000000008
40
0.960937500000008
40
0.960937500000008
40
0.964843750000007
40
0.964843750000007
40
0.968750000000007
40
0.968750000000007
40
0.972656250000007
40
0.972656250000007
40
0.976562500000007
40
0.976562500000007
40
0.978515625000006
40
0.978515625000006
40
0.980468750000006
40
0.980468750000006
40
0.982421875000006
40
0.982421875000006
40
0.984375000000006
40
0.984375000000006
40
0.988281250000004
40
0.988281250000004
40
0.992187500000003
40
0.992187500000003
40
1
40
1
40
1
40
1
41
1
10
287.650480947162
20
0.205522418999948
30
0
41
1
10
287.649474529164
20
0.357485286117395
30
0
41
1
10
287.647350571744
20
0.509462034317579
30
0
41
1
10
287.641070593963
20
0.813444393379513
30
0
41
1
10
287.632760419544
20
1.11745562328122
30
0
41
1
10
287.621178756172
20
1.42152886412001
30
0
41
1
10
287.608531759673
20
1.72563622957605
30
0
41
1
10
287.601672191193
20
1.87770695466011
30
0
41
1
10
287.587676377915
20
2.18188692008735
30
0
41
1
10
287.580530180473
20
2.33394573764622
30
0
41
1
10
287.570536139854
20
2.56160809848316
30
0
41
1
10
287.567328862803
20
2.63743907733232
30
0
41
1
10
287.561413484972
20
2.78896908574674
30
0
41
1
10
287.558701689912
20
2.86466839812863
30
0
41
1
10
287.554167978853
20
3.0159053359223
30
0
41
1
10
287.552334555853
20
3.09144384070029
30
0
41
1
10
287.550799054594
20
3.20458854632418
30
0
41
1
10
287.550492739193
20
3.242276036909
30
0
41
1
10
287.550469812772
20
3.31758254278563
30
0
41
1
10
287.550750183483
20
3.35523886655162
30
0
41
1
10
287.552208755407
20
3.4302326217132
30
0
41
1
10
287.553373181025
20
3.46757297685457
30
0
41
1
10
287.556275212278
20
3.52319890720369
30
0
41
1
10
287.557437968645
20
3.54167593430685
30
0
41
1
10
287.560336644401
20
3.5784457108345
30
0
41
1
10
287.562065629678
20
3.59674052995962
30
0
41
1
10
287.565365531574
20
3.62396204542202
30
0
41
1
10
287.566584913132
20
3.63299859792517
30
0
41
1
10
287.569361551694
20
3.65096757430686
30
0
41
1
10
287.570921073671
20
3.65991916152177
30
0
41
1
10
287.574516938715
20
3.67745376451629
30
0
41
1
10
287.576547962152
20
3.68605996342834
30
0
41
1
10
287.58021552862
20
3.69854381258722
30
0
41
1
10
287.581543102687
20
3.702633139618
30
0
41
1
10
287.584510409302
20
3.71059873923636
30
0
41
1
10
287.586161611328
20
3.71450396438104
30
0
41
1
10
287.589888240219
20
3.72177776739389
30
0
41
1
10
287.591955510826
20
3.72516274851051
30
0
41
1
10
287.59684579735
20
3.73100162030147
30
0
41
1
10
287.599637337106
20
3.73338371760596
30
0
41
1
10
287.604411839463
20
3.73527061609724
30
0
41
1
10
287.606061767277
20
3.73560195864556
30
0
41
1
10
287.609492008734
20
3.7356009926032
30
0
41
1
10
287.611227428267
20
3.73526227848512
30
0
41
1
10
287.61463552521
20
3.73400699466941
30
0
41
1
10
287.616332222931
20
3.73307964611323
30
0
41
1
10
287.61955483406
20
3.73084823538682
30
0
41
1
10
287.621102908113
20
3.72953833110844
30
0
41
1
10
287.62560527577
20
3.72517335725422
30
0
41
1
10
287.628363216431
20
3.72174764484242
30
0
41
1
10
287.633516183583
20
3.71443632136817
30
0
41
1
10
287.635914818984
20
3.71053626148265
30
0
41
1
10
287.642693644436
20
3.69852839288191
30
0
41
1
10
287.646722359183
20
3.69003079157744
30
0
41
1
10
287.650480947162
20
3.68133613838142
30
0
0
SPLINE
5
1A6
100
AcDbEntity
8
1
62
256
6
ByLayer
370
18
48
1
60
0
100
AcDbSpline
70
4
71
3
72
10
73
6
40
0
40
0
40
0
40
0
40
0.5
40
0.5
40
1
40
1
40
1
40
1
41
1
10
287.650480947161
20
3.6813361383812
30
0
41
1
10
287.798334418938
20
3.33931017858185
30
0
41
1
10
287.9309865447
20
2.99090315238323
30
0
41
1
10
288.158489259991
20
2.27822115563151
30
0
41
1
10
288.253343637489
20
1.91394777515316
30
0
41
1
10
288.324759526416
20
1.53983562436318
30
0
0
SPLINE
5
1A7
100
AcDbEntity
8
1
62
256
6
ByLayer
370
18
48
1
60
0
100
AcDbSpline
70
4
71
3
72
8
73
4
40
0
40
0
40
0
40
0
40
1
40
1
40
1
40
1
41
1
10
288.324759526419
20
4.05383691704429
30
0
41
1
10
288.164101740032
20
5.23155518188642
30
0
41
1
10
287.936650314553
20
6.39203615339514
30
0
41
1
10
287.650480947162
20
7.53736390968135
30
0
0
SPLINE
5
1A8
100
AcDbEntity
8
1
62
256
6
ByLayer
370
18
48
1
60
0
100
AcDbSpline
70
4
71
3
72
42
73
38
40
0
40
0
40
0
40
0
40
0.25000000000001
40
0.25000000000001
40
0.375000000000014
40
0.375000000000014
40
0.500000000000019
40
0.500000000000019
40
0.625000000000024
40
0.625000000000024
40
0.687500000000027
40
0.687500000000027
40
0.750000000000029
40
0.750000000000029
40
0.781250000000026
40
0.781250000000026
40
0.812500000000022
40
0.812500000000022
40
0.843750000000019
40
0.843750000000019
40
0.859375000000017
40
0.859375000000017
40
0.875000000000015
40
0.875000000000015
40
0.890625000000013
40
0.890625000000013
40
0.906250000000011
40
0.906250000000011
40
0.921875000000009
40
0.921875000000009
40
0.937500000000007
40
0.937500000000007
40
0.953125000000006
40
0.953125000000006
40
0.968750000000004
40
0.968750000000004
40
1
40
1
40
1
40
1
41
1
10
287.650480947162
20
7.53736390968135
30
0
41
1
10
287.63076897837
20
7.6162565780113
30
0
41
1
10
287.61346059995
20
7.69484838754843
30
0
41
1
10
287.591140780514
20
7.81227186098036
30
0
41
1
10
287.584320719395
20
7.85133461566323
30
0
41
1
10
287.572124668301
20
7.92928471022154
30
0
41
1
10
287.566742521326
20
7.96817257525043
30
0
41
1
10
287.557864378318
20
8.04573416545588
30
0
41
1
10
287.55434285781
20
8.08444008797309
30
0
41
1
10
287.551271377319
20
8.14217806187213
30
0
41
1
10
287.550630005146
20
8.16123086440473
30
0
41
1
10
287.550377159459
20
8.19882638523748
30
0
41
1
10
287.550757044976
20
8.21737314192032
30
0
41
1
10
287.552486535079
20
8.2446298400146
30
0
41
1
10
287.553258656099
20
8.2536204028757
30
0
41
1
10
287.555324288495
20
8.27135071684782
30
0
41
1
10
287.556619146011
20
8.2801132325753
30
0
41
1
10
287.559941779673
20
8.29718730274985
30
0
41
1
10
287.56194845637
20
8.30541747543811
30
0
41
1
10
287.565733288872
20
8.31707909554189
30
0
41
1
10
287.567125496084
20
8.32085109081328
30
0
41
1
10
287.570248978874
20
8.32809687353506
30
0
41
1
10
287.571992418155
20
8.33159059856953
30
0
41
1
10
287.575857623531
20
8.33803499233437
30
0
41
1
10
287.577978928924
20
8.34099480065206
30
0
41
1
10
287.582717557109
20
8.34622641457625
30
0
41
1
10
287.58536880188
20
8.34851669927062
30
0
41
1
10
287.59114028397
20
8.35201750539247
30
0
41
1
10
287.594278886941
20
8.35324654097903
30
0
41
1
10
287.601038610781
20
8.35441280864691
30
0
41
1
10
287.604547324229
20
8.35433579846466
30
0
41
1
10
287.611812347963
20
8.35291576298241
30
0
41
1
10
287.615579957294
20
8.35154989266965
30
0
41
1
10
287.622949675614
20
8.34785285904445
30
0
41
1
10
287.626634528599
20
8.34549323736715
30
0
41
1
10
287.637401170667
20
8.33740232559015
30
0
41
1
10
287.644079218297
20
8.33083394937836
30
0
41
1
10
287.650480947162
20
8.32361823496615
30
0
0
SPLINE
5
1A9
100
AcDbEntity
8
1
62
256
6
ByLayer
370
18
48
1
60
0
100
AcDbSpline
70
4
71
3
72
8
73
4
40
0
40
0
40
0
40
0
40
1
40
1
40
1
40
1
41
1
10
287.650480947162
20
8.32361823496615
30
0
41
1
10
287.877893938717
20
8.06728947825516
30
0
41
1
10
288.102856207569
20
7.80812939307205
30
0
41
1
10
288.324759526411
20
7.54543529228997
30
0
0
SPLINE
5
1AA
100
AcDbEntity
8
1
62
256
6
ByLayer
370
18
48
1
60
0
100
AcDbSpline
70
4
71
3
72
8
73
4
40
0
40
0
40
0
40
0
40
1
40
1
40
1
40
1
41
1
10
288.324759526419
20
8.35889309358495
30
0
41
1
10
288.120774732857
20
9.06295440434258
30
0
41
1
10
287.895186418447
20
9.75770188931031
30
0
41
1
10
287.650480947162
20
10.4442074830612
30
0
0
SPLINE
5
1AB
100
AcDbEntity
8
1
62
256
6
ByLayer
370
18
48
1
60
0
100
AcDbSpline
70
4
71
3
72
40
73
36
40
0
40
0
40
0
40
0
40
0.125
40
0.125
40
0.25
40
0.25
40
0.375000000000001
40
0.375000000000001
40
0.500000000000001
40
0.500000000000001
40
0.562500000000001
40
0.562500000000001
40
0.625000000000001
40
0.625000000000001
40
0.687500000000001
40
0.687500000000001
40
0.750000000000001
40
0.750000000000001
40
0.781249999999999
40
0.781249999999999
40
0.812499999999997
40
0.812499999999997
40
0.843749999999995
40
0.843749999999995
40
0.874999999999992
40
0.874999999999992
40
0.90624999999999
40
0.90624999999999
40
0.921874999999989
40
0.921874999999989
40
0.937499999999988
40
0.937499999999988
40
0.968749999999994
40
0.968749999999994
40
1
40
1
40
1
40
1
41
1
10
287.650480947162
20
10.4442074830612
30
0
41
1
10
287.640025010737
20
10.4735409458817
30
0
41
1
10
287.630210989746
20
10.5029673076435
30
0
41
1
10
287.611958545041
20
10.5616002322835
30
0
41
1
10
287.603523410692
20
10.5907865528439
30
0
41
1
10
287.588102337404
20
10.6488854928155
30
0
41
1
10
287.581113785878
20
10.6777985452109
30
0
41
1
10
287.568829176801
20
10.7353093306312
30
0
41
1
10
287.56352332279
20
10.7639086554231
30
0
41
1
10
287.557268698593
20
10.8064991466686
30
0
41
1
10
287.555468305322
20
10.8206822963943
30
0
41
1
10
287.55261922337
20
10.8486113407314
30
0
41
1
10
287.55156397293
20
10.8623801284263
30
0
41
1
10
287.550399909879
20
10.8894214732831
30
0
41
1
10
287.550285829804
20
10.9026966836882
30
0
41
1
10
287.55138586223
20
10.9285585052087
30
0
41
1
10
287.552608640832
20
10.941233130268
30
0
41
1
10
287.555948456209
20
10.9588608230572
30
0
41
1
10
287.557314290988
20
10.9645185412791
30
0
41
1
10
287.560709973981
20
10.975262942648
30
0
41
1
10
287.562757184409
20
10.9803881681503
30
0
41
1
10
287.567691285185
20
10.9896473096829
30
0
41
1
10
287.570555797839
20
10.9937603959159
30
0
41
1
10
287.577358112121
20
11.000596940404
30
0
41
1
10
287.581328265331
20
11.0032995526676
30
0
41
1
10
287.590209516905
20
11.0065701580038
30
0
41
1
10
287.595238130169
20
11.0071547338817
30
0
41
1
10
287.603144568995
20
11.0063121242086
30
0
41
1
10
287.605853809948
20
11.0057558877132
30
0
41
1
10
287.611415566325
20
11.0041091466666
30
0
41
1
10
287.614249175209
20
11.0030206655192
30
0
41
1
10
287.622685087213
20
10.9991362853468
30
0
41
1
10
287.628307688267
20
10.9957046891446
30
0
41
1
10
287.639550729521
20
10.9875472607241
30
0
41
1
10
287.645089621271
20
10.982874451409
30
0
41
1
10
287.650480947162
20
10.9778415583039
30
0
0
SPLINE
5
1AC
100
AcDbEntity
8
1
62
256
6
ByLayer
370
18
48
1
60
0
100
AcDbSpline
70
4
71
3
72
8
73
4
40
0
40
0
40
0
40
0
40
1
40
1
40
1
40
1
41
1
10
287.650480947162
20
10.9778415583021
30
0
41
1
10
287.875878259424
20
10.7674293885313
30
0
41
1
10
288.100672937923
20
10.5561625919061
30
0
41
1
10
288.324759526419
20
10.3438916153437
30
0
0
SPLINE
5
1AD
100
AcDbEntity
8
1
62
256
6
ByLayer
370
18
48
1
60
0
100
AcDbSpline
70
4
71
3
72
8
73
4
40
0
40
0
40
0
40
0
40
1
40
1
40
1
40
1
41
1
10
288.324759526419
20
10.8999354929273
30
0
41
1
10
288.111437539985
20
11.4476285217336
30
0
41
1
10
287.886241901322
20
11.9887487173411
30
0
41
1
10
287.650480947162
20
12.5240203286124
30
0
0
SPLINE
5
1AE
100
AcDbEntity
8
1
62
256
6
ByLayer
370
18
48
1
60
0
100
AcDbSpline
70
4
71
3
72
40
73
36
40
0
40
0
40
0
40
0
40
0.125000000000001
40
0.125000000000001
40
0.250000000000003
40
0.250000000000003
40
0.375000000000004
40
0.375000000000004
40
0.500000000000006
40
0.500000000000006
40
0.562500000000008
40
0.562500000000008
40
0.625000000000011
40
0.625000000000011
40
0.687500000000014
40
0.687500000000014
40
0.718750000000013
40
0.718750000000013
40
0.750000000000011
40
0.750000000000011
40
0.78125000000001
40
0.78125000000001
40
0.812500000000008
40
0.812500000000008
40
0.843750000000007
40
0.843750000000007
40
0.875000000000006
40
0.875000000000006
40
0.906250000000004
40
0.906250000000004
40
0.937500000000003
40
0.937500000000003
40
0.968750000000001
40
0.968750000000001
40
1
40
1
40
1
40
1
41
1
10
287.650480947162
20
12.5240203286124
30
0
41
1
10
287.639690471916
20
12.5485190209083
30
0
41
1
10
287.629613916006
20
12.5729486554877
30
0
41
1
10
287.610849297584
20
12.6216689381409
30
0
41
1
10
287.602160592807
20
12.6459596622946
30
0
41
1
10
287.586289625029
20
12.6943887125289
30
0
41
1
10
287.579096154492
20
12.7185525224905
30
0
41
1
10
287.566584682111
20
12.7665924147555
30
0
41
1
10
287.561339273704
20
12.7901565661232
30
0
41
1
10
287.555481361028
20
12.824606055429
30
0
41
1
10
287.553867302615
20
12.8359382479907
30
0
41
1
10
287.551487852271
20
12.8582271487084
30
0
41
1
10
287.550718615151
20
12.8692396521942
30
0
41
1
10
287.550336211257
20
12.8904892822457
30
0
41
1
10
287.550714779598
20
12.9006787514824
30
0
41
1
10
287.552465551096
20
12.9150655650469
30
0
41
1
10
287.553248182532
20
12.9197101977647
30
0
41
1
10
287.555309097648
20
12.9286248501673
30
0
41
1
10
287.556593904736
20
12.9329010995036
30
0
41
1
10
287.559717301251
20
12.9407756166942
30
0
41
1
10
287.561559358519
20
12.9444002494732
30
0
41
1
10
287.565937706079
20
12.9508777423318
30
0
41
1
10
287.568504767017
20
12.9537519025172
30
0
41
1
10
287.574349248947
20
12.9583575070408
30
0
41
1
10
287.577621102576
20
12.9601034727093
30
0
41
1
10
287.584977180313
20
12.9623048822327
30
0
41
1
10
287.589008029016
20
12.9627276846826
30
0
41
1
10
287.597554413792
20
12.962188306638
30
0
41
1
10
287.602165047508
20
12.9612103113983
30
0
41
1
10
287.61156352127
20
12.9580305278126
30
0
41
1
10
287.616343834585
20
12.9558532438601
30
0
41
1
10
287.626039774226
20
12.9505209964742
30
0
41
1
10
287.630992916635
20
12.947336362704
30
0
41
1
10
287.640809613647
20
12.9402688914584
30
0
41
1
10
287.64566607499
20
12.9363995135526
30
0
41
1
10
287.650480947162
20
12.9322615979161
30
0
0
SPLINE
5
1AF
100
AcDbEntity
8
1
62
256
6
ByLayer
370
18
48
1
60
0
100
AcDbSpline
70
4
71
3
72
8
73
4
40
0
40
0
40
0
40
0
40
1
40
1
40
1
40
1
41
1
10
287.650480947162
20
12.9322615979151
30
0
41
1
10
287.875423713527
20
12.7389451074571
30
0
41
1
10
288.100191536751
20
12.5453578173495
30
0
41
1
10
288.324759526419
20
12.3514611989826
30
0
0
SPLINE
5
1B0
100
AcDbEntity
8
1
62
256
6
ByLayer
370
18
48
1
60
0
100
AcDbSpline
70
4
71
3
72
8
73
4
40
0
40
0
40
0
40
0
40
1
40
1
40
1
40
1
41
1
10
288.324759526419
20
12.7767794748901
30
0
41
1
10
288.107382666912
20
13.238166516196
30
0
41
1
10
287.882352997816
20
13.6945301612777
30
0
41
1
10
287.650480947162
20
14.1464023848385
30
0
0
SPLINE
5
1B1
100
AcDbEntity
8
1
62
256
6
ByLayer
370
18
48
1
60
0
100
AcDbSpline
70
4
71
3
72
40
73
36
40
0
40
0
40
0
40
0
40
0.125000000000011
40
0.125000000000011
40
0.250000000000021
40
0.250000000000021
40
0.375000000000032
40
0.375000000000032
40
0.437500000000035
40
0.437500000000035
40
0.500000000000039
40
0.500000000000039
40
0.562500000000042
40
0.562500000000042
40
0.625000000000045
40
0.625000000000045
40
0.687500000000048
40
0.687500000000048
40
0.718750000000044
40
0.718750000000044
40
0.750000000000039
40
0.750000000000039
40
0.781250000000035
40
0.781250000000035
40
0.81250000000003
40
0.81250000000003
40
0.843750000000026
40
0.843750000000026
40
0.875000000000022
40
0.875000000000022
40
0.937500000000013
40
0.937500000000013
40
0.968750000000006
40
0.968750000000006
40
1
40
1
40
1
40
1
41
1
10
287.650480947162
20
14.1464023848385
30
0
41
1
10
287.639414958228
20
14.1679677827008
30
0
41
1
10
287.629040809079
20
14.1894982781831
30
0
41
1
10
287.609683150239
20
14.2324844320545
30
0
41
1
10
287.600665700982
20
14.2540304822568
30
0
41
1
10
287.584409180772
20
14.2964716606373
30
0
41
1
10
287.577153956557
20
14.317378395479
30
0
41
1
10
287.56784509696
20
14.3481740824699
30
0
41
1
10
287.565006721944
20
14.3583444727699
30
0
41
1
10
287.55994833633
20
14.3784644888762
30
0
41
1
10
287.557723039423
20
14.3884367390233
30
0
41
1
10
287.554054354315
20
14.4080137813789
30
0
41
1
10
287.552625671844
20
14.4175304795205
30
0
41
1
10
287.550759790623
20
14.4359026326862
30
0
41
1
10
287.550318779816
20
14.4447605718951
30
0
41
1
10
287.550749497916
20
14.4616056545868
30
0
41
1
10
287.551636822927
20
14.4696104377058
30
0
41
1
10
287.554281873644
20
14.4802400051817
30
0
41
1
10
287.555383473851
20
14.4835703154131
30
0
41
1
10
287.55811068237
20
14.4897250071952
30
0
41
1
10
287.559751087798
20
14.4925672484097
30
0
41
1
10
287.5635955558
20
14.4975235357771
30
0
41
1
10
287.565792502249
20
14.4996397405517
30
0
41
1
10
287.570810054821
20
14.5030524418836
30
0
41
1
10
287.573662929114
20
14.5043510856055
30
0
41
1
10
287.579852338378
20
14.505948937452
30
0
41
1
10
287.583198210382
20
14.5062662734105
30
0
41
1
10
287.59039654148
20
14.5059318013027
30
0
41
1
10
287.594295692839
20
14.5052651393155
30
0
41
1
10
287.606418497699
20
14.5018746224366
30
0
41
1
10
287.61493133613
20
14.4978669254711
30
0
41
1
10
287.628201605806
20
14.4898327177068
30
0
41
1
10
287.632697891774
20
14.4868155998185
30
0
41
1
10
287.641605111238
20
14.4803478822282
30
0
41
1
10
287.646047713553
20
14.4768784266659
30
0
41
1
10
287.650480947162
20
14.4732088630909
30
0
0
SPLINE
5
1B2
100
AcDbEntity
8
1
62
256
6
ByLayer
370
18
48
1
60
0
100
AcDbSpline
70
4
71
3
72
8
73
4
40
0
40
0
40
0
40
0
40
1
40
1
40
1
40
1
41
1
10
287.650480947162
20
14.4732088630903
30
0
41
1
10
287.87528177088
20
14.2871322907601
30
0
41
1
10
288.10004293855
20
14.1009918745275
30
0
41
1
10
288.324759526419
20
13.9147796874392
30
0
0
SPLINE
5
1B3
100
AcDbEntity
8
1
62
256
6
ByLayer
370
18
48
1
60
0
100
AcDbSpline
70
4
71
3
72
8
73
4
40
0
40
0
40
0
40
0
40
1
40
1
40
1
40
1
41
1
10
288.324759526419
20
14.2542482702516
30
0
41
1
10
288.105152654041
20
14.6587123242192
30
0
41
1
10
287.880211532645
20
15.0591860512794
30
0
41
1
10
287.650480947162
20
15.4560769820816
30
0
0
SPLINE
5
1B4
100
AcDbEntity
8
1
62
256
6
ByLayer
370
18
48
1
60
0
100
AcDbSpline
70
4
71
3
72
39
73
35
40
0
40
0
40
0
40
0
40
0.124999999999983
40
0.124999999999983
40
0.249999999999966
40
0.249999999999966
40
0.374999999999949
40
0.374999999999949
40
0.437499999999947
40
0.437499999999947
40
0.499999999999946
40
0.499999999999946
40
0.562499999999945
40
0.562499999999945
40
0.593749999999944
40
0.593749999999944
40
0.624999999999944
40
0.624999999999944
40
0.687499999999952
40
0.687499999999952
40
0.718749999999957
40
0.718749999999957
40
0.749999999999962
40
0.749999999999962
40
0.781249999999966
40
0.781249999999966
40
0.812499999999971
40
0.843749999999976
40
0.843749999999976
40
0.87499999999998
40
0.87499999999998
40
0.93749999999999
40
0.93749999999999
40
1
40
1
40
1
40
1
41
1
10
287.650480947162
20
15.4560769820816
30
0
41
1
10
287.639193035731
20
15.4755783891974
30
0
41
1
10
287.628590160519
20
15.4950150972991
30
0
41
1
10
287.608789608101
20
15.5337506274611
30
0
41
1
10
287.59955440175
20
15.553139477001
30
0
41
1
10
287.582996045851
20
15.5910738569016
30
0
41
1
10
287.575636447461
20
15.6096683647387
30
0
41
1
10
287.566297083474
20
15.6368716168542
30
0
41
1
10
287.563469944102
20
15.6458235796129
30
0
41
1
10
287.558498129876
20
15.6634519327056
30
0
41
1
10
287.556355985995
20
15.6721338879727
30
0
41
1
10
287.552992495483
20
15.6887880727997
30
0
41
1
10
287.551755667217
20
15.6968054930663
30
0
41
1
10
287.550731607718
20
15.7082552465142
30
0
41
1
10
287.550529643809
20
15.7119751829301
30
0
41
1
10
287.550447718715
20
15.7191922642149
30
0
41
1
10
287.550569803588
20
15.7227031448452
30
0
41
1
10
287.551489172924
20
15.7326767960522
30
0
41
1
10
287.552823866437
20
15.738626638057
30
0
41
1
10
287.556235634613
20
15.7461914297897
30
0
41
1
10
287.557622786118
20
15.7484972729618
30
0
41
1
10
287.560888621489
20
15.7524800239245
30
0
41
1
10
287.562763444322
20
15.7541622265607
30
0
41
1
10
287.567039967856
20
15.7568546457295
30
0
41
1
10
287.569461523802
20
15.7578691446216
30
0
41
1
10
287.574799687778
20
15.7591280609581
30
0
41
1
10
287.580568003688
20
15.7596147416118
30
0
41
1
10
287.587174135165
20
15.7586005535325
30
0
41
1
10
287.594197904459
20
15.7568396148933
30
0
41
1
10
287.597925489672
20
15.7555764856669
30
0
41
1
10
287.609307892352
20
15.7508672481522
30
0
41
1
10
287.617324482498
20
15.7464633141769
30
0
41
1
10
287.63384879861
20
15.7357246214986
30
0
41
1
10
287.642150093394
20
15.7295341136667
30
0
41
1
10
287.650480947162
20
15.7227274845166
30
0
0
SPLINE
5
1B5
100
AcDbEntity
8
1
62
256
6
ByLayer
370
18
48
1
60
0
100
AcDbSpline
70
4
71
3
72
8
73
4
40
0
40
0
40
0
40
0
40
1
40
1
40
1
40
1
41
1
10
287.650480947162
20
15.7227274845162
30
0
41
1
10
287.875242279349
20
15.5390887989474
30
0
41
1
10
288.10000187134
20
15.3554472734946
30
0
41
1
10
288.324759526419
20
15.1718025873647
30
0
0
SPLINE
5
1B6
100
AcDbEntity
8
1
62
256
6
ByLayer
370
18
48
1
60
0
100
AcDbSpline
70
4
71
3
72
8
73
4
40
0
40
0
40
0
40
0
40
1
40
1
40
1
40
1
41
1
10
288.324759526419
20
15.4473652688725
30
0
41
1
10
288.103764009202
20
15.810559849515
30
0
41
1
10
287.878876276632
20
16.1705149416574
30
0
41
1
10
287.650480947162
20
16.5275506630081
30
0
0
SPLINE
5
1B7
100
AcDbEntity
8
1
62
256
6
ByLayer
370
18
48
1
60
0
100
AcDbSpline
70
4
71
3
72
41
73
37
40
0
40
0
40
0
40
0
40
0.125000000000012
40
0.125000000000012
40
0.187500000000017
40
0.187500000000017
40
0.250000000000021
40
0.250000000000021
40
0.375000000000025
40
0.375000000000025
40
0.437500000000024
40
0.437500000000024
40
0.500000000000023
40
0.500000000000023
40
0.562500000000022
40
0.562500000000022
40
0.625000000000021
40
0.625000000000021
40
0.656250000000021
40
0.656250000000021
40
0.68750000000002
40
0.68750000000002
40
0.71875000000002
40
0.71875000000002
40
0.750000000000019
40
0.750000000000019
40
0.812500000000019
40
0.812500000000019
40
0.843750000000017
40
0.843750000000017
40
0.875000000000016
40
0.906250000000014
40
0.906250000000014
40
0.937500000000012
40
0.937500000000012
40
1
40
1
40
1
40
1
41
1
10
287.650480947162
20
16.5275506630081
30
0
41
1
10
287.638981804677
20
16.5455265324861
30
0
41
1
10
287.62814548197
20
16.5634206151334
30
0
41
1
10
287.612939206481
20
16.5901281849015
30
0
41
1
10
287.608042788563
20
16.5990169496362
30
0
41
1
10
287.598721928768
20
16.6165648982936
30
0
41
1
10
287.594284643272
20
16.6252457634563
30
0
41
1
10
287.581686936374
20
16.6509896479133
30
0
41
1
10
287.574223281786
20
16.6677610781075
30
0
41
1
10
287.564837577099
20
16.692160446243
30
0
41
1
10
287.562006278076
20
16.7001981661693
30
0
41
1
10
287.557184605239
20
16.7156477088196
30
0
41
1
10
287.555179368067
20
16.7230904973053
30
0
41
1
10
287.552137250522
20
16.7373043165402
30
0
41
1
10
287.551097322754
20
16.7440774273179
30
0
41
1
10
287.550263647968
20
16.7567617390181
30
0
41
1
10
287.550482593648
20
16.7625191878583
30
0
41
1
10
287.551971457481
20
16.7700613230126
30
0
41
1
10
287.552662227263
20
16.7723934928266
30
0
41
1
10
287.554488589319
20
16.776642572204
30
0
41
1
10
287.555629696968
20
16.7785582671363
30
0
41
1
10
287.558347744801
20
16.78182817428
30
0
41
1
10
287.559929168047
20
16.7831969176469
30
0
41
1
10
287.563569638857
20
16.7853637195272
30
0
41
1
10
287.565645521329
20
16.7861647789774
30
0
41
1
10
287.572537810431
20
16.7876065271326
30
0
41
1
10
287.57792665398
20
16.7872966647596
30
0
41
1
10
287.587151619285
20
16.7850110816927
30
0
41
1
10
287.590446302725
20
16.7839313072064
30
0
41
1
10
287.597241521147
20
16.7812338486891
30
0
41
1
10
287.604247829044
20
16.7780072079673
30
0
41
1
10
287.61163322165
20
16.7738322488313
30
0
41
1
10
287.619193271317
20
16.7692211157912
30
0
41
1
10
287.623071327699
20
16.7666886267627
30
0
41
1
10
287.634714931172
20
16.7586489532183
30
0
41
1
10
287.642563586242
20
16.7526628820382
30
0
41
1
10
287.650480947162
20
16.7461799915711
30
0
0
SPLINE
5
1B8
100
AcDbEntity
8
1
62
256
6
ByLayer
370
18
48
1
60
0
100
AcDbSpline
70
4
71
3
72
8
73
4
40
0
40
0
40
0
40
0
40
1
40
1
40
1
40
1
41
1
10
287.650480947162
20
16.7461799915709
30
0
41
1
10
287.875247737629
20
16.5621365334019
30
0
41
1
10
288.100007511727
20
16.3780816494056
30
0
41
1
10
288.324759526419
20
16.1940141333137
30
0
0
SPLINE
5
1B9
100
AcDbEntity
8
1
62
256
6
ByLayer
370
18
48
1
60
0
100
AcDbSpline
70
4
71
3
72
8
73
4
40
0
40
0
40
0
40
0
40
1
40
1
40
1
40
1
41
1
10
288.324759526419
20
16.4182396666014
30
0
41
1
10
288.10282976625
20
16.7496954266896
30
0
41
1
10
287.87797677687
20
17.0784874839762
30
0
41
1
10
287.650480947162
20
17.4048713342147
30
0
0
SPLINE
5
1BA
100
AcDbEntity
8
1
62
256
6
ByLayer
370
18
48
1
60
0
100
AcDbSpline
70
4
71
3
72
34
73
30
40
0
40
0
40
0
40
0
40
0.125000000000009
40
0.125000000000009
40
0.250000000000017
40
0.250000000000017
40
0.312500000000019
40
0.312500000000019
40
0.37500000000002
40
0.37500000000002
40
0.50000000000001
40
0.50000000000001
40
0.562500000000006
40
0.562500000000006
40
0.625000000000002
40
0.625000000000002
40
0.687499999999999
40
0.687499999999999
40
0.718749999999995
40
0.718749999999995
40
0.749999999999992
40
0.749999999999992
40
0.812499999999994
40
0.812499999999994
40
0.874999999999996
40
0.874999999999996
40
0.937499999999998
40
0.937499999999998
40
1
40
1
40
1
40
1
41
1
10
287.650480947162
20
17.4048713342147
30
0
41
1
10
287.638779782576
20
17.4216587678776
30
0
41
1
10
287.627693116502
20
17.4383758860396
30
0
41
1
10
287.607002473869
20
17.4714107933071
30
0
41
1
10
287.597504579954
20
17.4875524832547
30
0
41
1
10
287.584701626499
20
17.5111204626925
30
0
41
1
10
287.580676613219
20
17.51886815968
30
0
41
1
10
287.57317678391
20
17.534117596637
30
0
41
1
10
287.569687169971
20
17.5416532144358
30
0
41
1
10
287.560306547286
20
17.5635746306851
30
0
41
1
10
287.555515793997
20
17.5771559030118
30
0
41
1
10
287.551444442405
20
17.595334081103
30
0
41
1
10
287.550629414815
20
17.6010158296468
30
0
41
1
10
287.550369704542
20
17.6110410235747
30
0
41
1
10
287.550906911697
20
17.6154408318432
30
0
41
1
10
287.553649785601
20
17.6227119306326
30
0
41
1
10
287.555833495619
20
17.625479638908
30
0
41
1
10
287.560418657478
20
17.6281044544231
30
0
41
1
10
287.562180578905
20
17.6287302685921
30
0
41
1
10
287.56612484049
20
17.629429998825
30
0
41
1
10
287.568286199411
20
17.6295043011137
30
0
41
1
10
287.575316333567
20
17.6289333978017
30
0
41
1
10
287.580743615077
20
17.6274928474914
30
0
41
1
10
287.592956646791
20
17.6225760263916
30
0
41
1
10
287.599500450861
20
17.619204439913
30
0
41
1
10
287.613308831925
20
17.6109620758313
30
0
41
1
10
287.620630234375
20
17.6060417517649
30
0
41
1
10
287.635395579302
20
17.5952630873187
30
0
41
1
10
287.642891402848
20
17.5893789353737
30
0
41
1
10
287.650480947162
20
17.5830864488525
30
0
0
SPLINE
5
1BB
100
AcDbEntity
8
1
62
256
6
ByLayer
370
18
48
1
60
0
100
AcDbSpline
70
4
71
3
72
8
73
4
40
0
40
0
40
0
40
0
40
1
40
1
40
1
40
1
41
1
10
287.650480947162
20
17.5830864488524
30
0
41
1
10
287.87527835498
20
17.3967070563398
30
0
41
1
10
288.100039125586
20
17.2102687278765
30
0
41
1
10
288.324759526419
20
17.0237655573015
30
0
0
SPLINE
5
1BC
100
AcDbEntity
8
1
62
256
6
ByLayer
370
18
48
1
60
0
100
AcDbSpline
70
4
71
3
72
8
73
4
40
0
40
0
40
0
40
0
40
1
40
1
40
1
40
1
41
1
10
288.324759526419
20
17.2045370106249
30
0
41
1
10
288.102167049584
20
17.5105841760983
30
0
41
1
10
287.877337890168
20
17.8144257977402
30
0
41
1
10
287.650480947162
20
18.1162678662808
30
0
0
SPLINE
5
1BD
100
AcDbEntity
8
1
62
256
6
ByLayer
370
18
48
1
60
0
100
AcDbSpline
70
4
71
3
72
41
73
37
40
0
40
0
40
0
40
0
40
0.0625000000000042
40
0.0625000000000042
40
0.125000000000008
40
0.125000000000008
40
0.250000000000017
40
0.250000000000017
40
0.312500000000021
40
0.312500000000021
40
0.375000000000025
40
0.375000000000025
40
0.437500000000029
40
0.468750000000031
40
0.468750000000031
40
0.500000000000033
40
0.500000000000033
40
0.562500000000033
40
0.562500000000033
40
0.625000000000032
40
0.625000000000032
40
0.687500000000031
40
0.687500000000031
40
0.750000000000031
40
0.750000000000031
40
0.781250000000031
40
0.781250000000031
40
0.81250000000003
40
0.81250000000003
40
0.875000000000024
40
0.875000000000024
40
0.906250000000018
40
0.906250000000018
40
0.937500000000012
40
0.937500000000012
40
1
40
1
40
1
40
1
41
1
10
287.650480947162
20
18.1162678662808
30
0
41
1
10
287.644530707472
20
18.1241848937808
30
0
41
1
10
287.638734660478
20
18.1320661881952
30
0
41
1
10
287.627462614209
20
18.1477537676435
30
0
41
1
10
287.621983627572
20
18.1555655854386
30
0
41
1
10
287.606226071217
20
18.1786319055685
30
0
41
1
10
287.59655639816
20
18.1936038516682
30
0
41
1
10
287.583525644729
20
18.2153410699507
30
0
41
1
10
287.579429881242
20
18.2224656317328
30
0
41
1
10
287.571814377828
20
18.2364325284515
30
0
41
1
10
287.568318980523
20
18.2432345542662
30
0
41
1
10
287.562151731737
20
18.2562021368558
30
0
41
1
10
287.558116055743
20
18.2654991328188
30
0
41
1
10
287.555124307769
20
18.2740375850832
30
0
41
1
10
287.553390593519
20
18.2795405045758
30
0
41
1
10
287.552653442229
20
18.2822028365401
30
0
41
1
10
287.550910298472
20
18.2897406107653
30
0
41
1
10
287.550352356246
20
18.2942147484457
30
0
41
1
10
287.550659068286
20
18.3018677379392
30
0
41
1
10
287.551551382702
20
18.3050594781871
30
0
41
1
10
287.554942046485
20
18.3096266601911
30
0
41
1
10
287.55744201508
20
18.311050293669
30
0
41
1
10
287.564147905172
20
18.3119608702208
30
0
41
1
10
287.568227742826
20
18.3114399048518
30
0
41
1
10
287.575359496822
20
18.3093034854214
30
0
41
1
10
287.577906330663
20
18.3083642815706
30
0
41
1
10
287.583336023074
20
18.3060366334097
30
0
41
1
10
287.58621229645
20
18.304648776098
30
0
41
1
10
287.595094710497
20
18.2999585110486
30
0
41
1
10
287.601422754011
20
18.2961049586602
30
0
41
1
10
287.611436330014
20
18.2893955044806
30
0
41
1
10
287.614876803774
20
18.2869917365582
30
0
41
1
10
287.62181975771
20
18.2819650556363
30
0
41
1
10
287.625327553303
20
18.2793394829964
30
0
41
1
10
287.635948792471
20
18.2711611225119
30
0
41
1
10
287.643159471795
20
18.2653086512657
30
0
41
1
10
287.650480947162
20
18.2591159102939
30
0
0
SPLINE
5
1BE
100
AcDbEntity
8
1
62
256
6
ByLayer
370
18
48
1
60
0
100
AcDbSpline
70
4
71
3
72
8
73
4
40
0
40
0
40
0
40
0
40
1
40
1
40
1
40
1
41
1
10
287.650480947162
20
18.2591159102938
30
0
41
1
10
287.875326782245
20
18.0689340213244
30
0
41
1
10
288.100089025132
20
17.8786205059013
30
0
41
1
10
288.324759526419
20
17.6881625317601
30
0
0
SPLINE
5
1BF
100
AcDbEntity
8
1
62
256
6
ByLayer
370
18
48
1
60
0
100
AcDbSpline
70
4
71
3
72
8
73
4
40
0
40
0
40
0
40
0
40
1
40
1
40
1
40
1
41
1
10
288.324759526419
20
17.8306924641182
30
0
41
1
10
288.101678442286
20
18.1158055554838
30
0
41
1
10
287.876866272618
20
18.3990877212187
30
0
41
1
10
287.650480947162
20
18.6807059996433
30
0
0
SPLINE
5
1C0
100
AcDbEntity
8
1
62
256
6
ByLayer
370
18
48
1
60
0
100
AcDbSpline
70
4
71
3
72
38
73
34
40
0
40
0
40
0
40
0
40
0.0624999999999932
40
0.0624999999999932
40
0.124999999999987
40
0.124999999999987
40
0.249999999999988
40
0.249999999999988
40
0.312499999999988
40
0.312499999999988
40
0.374999999999987
40
0.374999999999987
40
0.437499999999986
40
0.437499999999986
40
0.499999999999985
40
0.499999999999985
40
0.562499999999984
40
0.562499999999984
40
0.624999999999983
40
0.624999999999983
40
0.687499999999982
40
0.687499999999982
40
0.749999999999982
40
0.749999999999982
40
0.781249999999981
40
0.781249999999981
40
0.81249999999998
40
0.81249999999998
40
0.874999999999987
40
0.874999999999987
40
0.937499999999993
40
0.937499999999993
40
1
40
1
40
1
40
1
41
1
10
287.650480947162
20
18.6807059996433
30
0
41
1
10
287.644435066045
20
18.6882269404478
30
0
41
1
10
287.638541009106
20
18.6956954835834
30
0
41
1
10
287.627070710279
20
18.7105219541034
30
0
41
1
10
287.621478397149
20
18.7179019338324
30
0
41
1
10
287.605382543492
20
18.7396367381093
30
0
41
1
10
287.59552307329
20
18.753621317667
30
0
41
1
10
287.582291758194
20
18.7736882743315
30
0
41
1
10
287.5781434099
20
18.7802241905291
30
0
41
1
10
287.570463431254
20
18.792935050526
30
0
41
1
10
287.566983467967
20
18.7990266724996
30
0
41
1
10
287.560894095359
20
18.8105111646503
30
0
41
1
10
287.558273629461
20
18.815921115395
30
0
41
1
10
287.554041861199
20
18.8259505318485
30
0
41
1
10
287.552432376485
20
18.8305864249226
30
0
41
1
10
287.550538980103
20
18.8385889334796
30
0
41
1
10
287.550233118891
20
18.8420039082252
30
0
41
1
10
287.551141496283
20
18.8474028832881
30
0
41
1
10
287.552342069686
20
18.8493113044677
30
0
41
1
10
287.556322566543
20
18.8514574493084
30
0
41
1
10
287.559156903261
20
18.8516693992405
30
0
41
1
10
287.566155193741
20
18.8503516061781
30
0
41
1
10
287.57032728413
20
18.8488516643681
30
0
41
1
10
287.57754044284
20
18.8454114743369
30
0
41
1
10
287.580121827421
20
18.8440551043974
30
0
41
1
10
287.585487525657
20
18.8410134790054
30
0
41
1
10
287.588275661537
20
18.8393280740412
30
0
41
1
10
287.596927885113
20
18.8338227337165
30
0
41
1
10
287.603078037699
20
18.8295564416242
30
0
41
1
10
287.616050433374
20
18.8199786606828
30
0
41
1
10
287.622764082909
20
18.8147458022592
30
0
41
1
10
287.636420273296
20
18.8036638171361
30
0
41
1
10
287.64338911966
20
18.7977944023928
30
0
41
1
10
287.650480947162
20
18.7916390605842
30
0
0
SPLINE
5
1C1
100
AcDbEntity
8
1
62
256
6
ByLayer
370
18
48
1
60
0
100
AcDbSpline
70
4
71
3
72
8
73
4
40
0
40
0
40
0
40
0
40
1
40
1
40
1
40
1
41
1
10
287.650480947162
20
18.7916390605842
30
0
41
1
10
287.875390693943
20
18.5964289589461
30
0
41
1
10
288.100154848045
20
18.4009956122057
30
0
41
1
10
288.324759526419
20
18.2053177327385
30
0
0
SPLINE
5
1C2
100
AcDbEntity
8
1
62
256
6
ByLayer
370
18
48
1
60
0
100
AcDbSpline
70
4
71
3
72
8
73
4
40
0
40
0
40
0
40
0
40
1
40
1
40
1
40
1
41
1
10
288.324759526419
20
18.3131399205587
30
0
41
1
10
288.101307459449
20
18.5806365366878
30
0
41
1
10
287.876507770667
20
18.8466150387251
30
0
41
1
10
287.650480947162
20
19.1112111569983
30
0
0
SPLINE
5
1C3
100
AcDbEntity
8
1
62
256
6
ByLayer
370
18
48
1
60
0
100
AcDbSpline
70
4
71
3
72
37
73
33
40
0
40
0
40
0
40
0
40
0.124999999999994
40
0.124999999999994
40
0.249999999999988
40
0.249999999999988
40
0.312499999999979
40
0.312499999999979
40
0.37499999999997
40
0.37499999999997
40
0.43749999999996
40
0.43749999999996
40
0.46874999999996
40
0.46874999999996
40
0.49999999999996
40
0.53124999999996
40
0.53124999999996
40
0.56249999999996
40
0.56249999999996
40
0.624999999999959
40
0.624999999999959
40
0.656249999999962
40
0.656249999999962
40
0.687499999999964
40
0.687499999999964
40
0.749999999999969
40
0.749999999999969
40
0.812499999999974
40
0.812499999999974
40
0.874999999999979
40
0.874999999999979
40
1
40
1
40
1
40
1
41
1
10
287.650480947162
20
19.1112111569983
30
0
41
1
10
287.638202144537
20
19.1255852187191
30
0
41
1
10
287.626485867576
20
19.1397144945011
30
0
41
1
10
287.604552320067
20
19.1671510631419
30
0
41
1
10
287.594502099815
20
19.1802445976568
30
0
41
1
10
287.581082092083
20
19.1987490698122
30
0
41
1
10
287.57688735265
20
19.2047260678889
30
0
41
1
10
287.569160111633
20
19.2162246159382
30
0
41
1
10
287.565703840037
20
19.2216334116331
30
0
41
1
10
287.559712993625
20
19.2316731893731
30
0
41
1
10
287.557175330865
20
19.23630777325
30
0
41
1
10
287.554189582967
20
19.2425686008363
30
0
41
1
10
287.55333114082
20
19.2445439196831
30
0
41
1
10
287.551945089713
20
19.2481706791223
30
0
41
1
10
287.55088030604
20
19.2514915212525
30
0
41
1
10
287.550493173189
20
19.2541672783622
30
0
41
1
10
287.550469840073
20
19.2564968771605
30
0
41
1
10
287.55064329357
20
19.2574911476058
30
0
41
1
10
287.551729677775
20
19.259862762258
30
0
41
1
10
287.553197894126
20
19.2606567256907
30
0
41
1
10
287.556546564706
20
19.2606368151023
30
0
41
1
10
287.557864176504
20
19.2604245190895
30
0
41
1
10
287.560849626481
20
19.2595937482387
30
0
41
1
10
287.562509311232
20
19.2589798099636
30
0
41
1
10
287.567961306001
20
19.256576233021
30
0
41
1
10
287.572230449554
20
19.2542238153649
30
0
41
1
10
287.581924074944
20
19.2481356233883
30
0
41
1
10
287.587203153222
20
19.2444931606362
30
0
41
1
10
287.598484907468
20
19.2362099822934
30
0
41
1
10
287.604518790299
20
19.2315432716219
30
0
41
1
10
287.623400016941
20
19.2163577993813
30
0
41
1
10
287.636681697517
20
19.2049543935814
30
0
41
1
10
287.650480947162
20
19.1926049128565
30
0
0
SPLINE
5
1C4
100
AcDbEntity
8
1
62
256
6
ByLayer
370
18
48
1
60
0
100
AcDbSpline
70
4
71
3
72
8
73
4
40
0
40
0
40
0
40
0
40
1
40
1
40
1
40
1
41
1
10
287.650480947162
20
19.1926049128564
30
0
41
1
10
287.875470342809
20
18.9912532251719
30
0
41
1
10
288.100236859786
20
18.7895703804281
30
0
41
1
10
288.324759526419
20
18.5875252185427
30
0
0
SPLINE
5
1C5
100
AcDbEntity
8
1
62
256
6
ByLayer
370
18
48
1
60
0
100
AcDbSpline
70
4
71
3
72
8
73
4
40
0
40
0
40
0
40
0
40
1
40
1
40
1
40
1
41
1
10
288.324759526419
20
18.6630274540322
30
0
41
1
10
288.101019214676
20
18.9154654531754
30
0
41
1
10
287.876228917632
20
19.1666509399738
30
0
41
1
10
287.650480947162
20
19.4166940319316
30
0
0
SPLINE
5
1C6
100
AcDbEntity
8
1
62
256
6
ByLayer
370
18
48
1
60
0
100
AcDbSpline
70
4
71
3
72
37
73
33
40
0
40
0
40
0
40
0
40
0.0625000000000018
40
0.0625000000000018
40
0.125000000000004
40
0.125000000000004
40
0.249999999999993
40
0.249999999999993
40
0.312499999999987
40
0.312499999999987
40
0.374999999999981
40
0.406249999999982
40
0.406249999999982
40
0.437499999999984
40
0.437499999999984
40
0.49999999999999
40
0.49999999999999
40
0.53124999999999
40
0.53124999999999
40
0.562499999999989
40
0.562499999999989
40
0.62499999999999
40
0.62499999999999
40
0.687499999999992
40
0.687499999999992
40
0.749999999999993
40
0.749999999999993
40
0.812499999999995
40
0.812499999999995
40
0.874999999999996
40
0.874999999999996
40
1
40
1
40
1
40
1
41
1
10
287.650480947162
20
19.4166940319316
30
0
41
1
10
287.644233516261
20
19.4236138148025
30
0
41
1
10
287.638128791671
20
19.4304472421309
30
0
41
1
10
287.626224587923
20
19.4439282469404
30
0
41
1
10
287.620408632679
20
19.4505953398445
30
0
41
1
10
287.60369694473
20
19.4700187730238
30
0
41
1
10
287.593459438986
20
19.4822776869181
30
0
41
1
10
287.579801977808
20
19.4993597909759
30
0
41
1
10
287.575513158026
20
19.5048653228658
30
0
41
1
10
287.56782727776
20
19.5150761747939
30
0
41
1
10
287.562698992221
20
19.5221718288949
30
0
41
1
10
287.55866279162
20
19.5283005792946
30
0
41
1
10
287.556240243351
20
19.5321488241221
30
0
41
1
10
287.555161120897
20
19.5339584350348
30
0
41
1
10
287.552417952635
20
19.5389021635924
30
0
41
1
10
287.551221826354
20
19.5415884195274
30
0
41
1
10
287.550485616375
20
19.5445985953597
30
0
41
1
10
287.55041909126
20
19.5454340249247
30
0
41
1
10
287.550661814729
20
19.5467128369875
30
0
41
1
10
287.550968230583
20
19.5471605417452
30
0
41
1
10
287.55243913149
20
19.5479324593424
30
0
41
1
10
287.554154903999
20
19.5476875862852
30
0
41
1
10
287.559095757758
20
19.5456300292879
30
0
41
1
10
287.562230525272
20
19.5438567909978
30
0
41
1
10
287.569682176899
20
19.5389883407303
30
0
41
1
10
287.574051131848
20
19.535851615374
30
0
41
1
10
287.583612877603
20
19.5285570395079
30
0
41
1
10
287.58879748384
20
19.5244110022465
30
0
41
1
10
287.599860114334
20
19.5152650369464
30
0
41
1
10
287.605784818522
20
19.510223577668
30
0
41
1
10
287.624098620595
20
19.4942917137723
30
0
41
1
10
287.637015243457
20
19.4826211375569
30
0
41
1
10
287.650480947162
20
19.4701429912245
30
0
0
SPLINE
5
1C7
100
AcDbEntity
8
1
62
256
6
ByLayer
370
18
48
1
60
0
100
AcDbSpline
70
4
71
3
72
8
73
4
40
0
40
0
40
0
40
0
40
1
40
1
40
1
40
1
41
1
10
287.650480947162
20
19.4701429912245
30
0
41
1
10
287.875567648883
20
19.2615638584125
30
0
41
1
10
288.10033706691
20
19.0525298860205
30
0
41
1
10
288.324759526419
20
18.8429985339372
30
0
0
SPLINE
5
1C8
100
AcDbEntity
8
1
62
256
6
ByLayer
370
18
48
1
60
0
100
AcDbSpline
70
4
71
3
72
8
73
4
40
0
40
0
40
0
40
0
40
1
40
1
40
1
40
1
41
1
10
288.324759526419
20
18.8877233606901
30
0
41
1
10
288.100791090601
20
19.1271433496641
30
0
41
1
10
287.876008003165
20
19.3655393957374
30
0
41
1
10
287.650480947162
20
19.6030003410681
30
0
0
SPLINE
5
1C9
100
AcDbEntity
8
1
62
256
6
ByLayer
370
18
48
1
60
0
100
AcDbSpline
70
4
71
3
72
37
73
33
40
0
40
0
40
0
40
0
40
0.125000000000012
40
0.125000000000012
40
0.187500000000011
40
0.187500000000011
40
0.25000000000001
40
0.25000000000001
40
0.312500000000008
40
0.343750000000007
40
0.343750000000007
40
0.375000000000006
40
0.375000000000006
40
0.437500000000004
40
0.437500000000004
40
0.468750000000003
40
0.468750000000003
40
0.500000000000002
40
0.500000000000002
40
0.562500000000004
40
0.562500000000004
40
0.625000000000005
40
0.625000000000005
40
0.687500000000006
40
0.687500000000006
40
0.750000000000008
40
0.750000000000008
40
0.812500000000009
40
0.812500000000009
40
0.87500000000001
40
0.87500000000001
40
1
40
1
40
1
40
1
41
1
10
287.650480947162
20
19.6030003410681
30
0
41
1
10
287.637713524711
20
19.6164433587634
30
0
41
1
10
287.625555134205
20
19.6293990848526
30
0
41
1
10
287.608569850311
20
19.6477688699762
30
0
41
1
10
287.603108564082
20
19.6537238617297
30
0
41
1
10
287.592645038061
20
19.6652469120375
30
0
41
1
10
287.587628553198
20
19.6708318448441
30
0
41
1
10
287.578394061833
20
19.6812540907371
30
0
41
1
10
287.572016535815
20
19.6885648297582
30
0
41
1
10
287.566579562048
20
19.6950058114137
30
0
41
1
10
287.563185659207
20
19.6990862291306
30
0
41
1
10
287.561600856608
20
19.7010238889245
30
0
41
1
10
287.557303071354
20
19.706389331917
30
0
41
1
10
287.555014755975
20
19.7094065301883
30
0
41
1
10
287.552553203198
20
19.7129894842039
30
0
41
1
10
287.551893247071
20
19.7140301161116
30
0
41
1
10
287.550941407315
20
19.7157401602276
30
0
41
1
10
287.550646743412
20
19.716412469458
30
0
41
1
10
287.550307456757
20
19.7178803359898
30
0
41
1
10
287.550804218982
20
19.7181301453515
30
0
41
1
10
287.553323180194
20
19.7170929258177
30
0
41
1
10
287.555303382755
20
19.7158212919818
30
0
41
1
10
287.560517793468
20
19.7119566589431
30
0
41
1
10
287.563756830219
20
19.7093608740999
30
0
41
1
10
287.571431586465
20
19.7029148992638
30
0
41
1
10
287.575773222109
20
19.699143259071
30
0
41
1
10
287.585223568068
20
19.6907486294527
30
0
41
1
10
287.59034747327
20
19.6861125346093
30
0
41
1
10
287.601310018783
20
19.6760560925478
30
0
41
1
10
287.607046357809
20
19.6707294245959
30
0
41
1
10
287.624771194315
20
19.6541190568001
30
0
41
1
10
287.637325338165
20
19.642161607453
30
0
41
1
10
287.650480947162
20
19.6294893682046
30
0
0
SPLINE
5
1CA
100
AcDbEntity
8
1
62
256
6
ByLayer
370
18
48
1
60
0
100
AcDbSpline
70
4
71
3
72
8
73
4
40
0
40
0
40
0
40
0
40
1
40
1
40
1
40
1
41
1
10
287.650480947162
20
19.6294893682046
30
0
41
1
10
287.875685997487
20
19.4125589107658
30
0
41
1
10
288.100458994954
20
19.195033276227
30
0
41
1
10
288.324759526419
20
18.9768567932089
30
0
0
SPLINE
5
1CB
100
AcDbEntity
8
1
62
256
6
ByLayer
370
18
48
1
60
0
100
AcDbSpline
70
4
71
3
72
8
73
4
40
0
40
0
40
0
40
0
40
1
40
1
40
1
40
1
41
1
10
288.324759526419
20
18.9916716944549
30
0
41
1
10
288.100607863251
20
19.2197546698698
30
0
41
1
10
287.875830405166
20
19.4470125106986
30
0
41
1
10
287.650480947162
20
19.6735161477095
30
0
0
SPLINE
5
1CC
100
AcDbEntity
8
1
62
256
6
ByLayer
370
18
48
1
60
0
100
AcDbSpline
70
4
71
3
72
28
73
24
40
0
40
0
40
0
40
0
40
0.107048814705574
40
0.107048814705574
40
0.214097629411148
40
0.214097629411148
40
0.428195258822297
40
0.428195258822297
40
0.535244073527872
40
0.535244073527872
40
0.58876848088066
40
0.58876848088066
40
0.642292888233448
40
0.642292888233448
40
0.749341702939023
40
0.749341702939023
40
0.802866110291813
40
0.802866110291813
40
0.856390517644603
40
0.856390517644603
40
0.963439332350184
40
0.963439332350184
40
1
40
1
40
1
40
1
41
1
10
287.650480947162
20
19.6735161477095
30
0
41
1
10
287.643995528497
20
19.6800347829355
30
0
41
1
10
287.637641930968
20
19.6864240983014
30
0
41
1
10
287.625223781212
20
19.6989177330072
30
0
41
1
10
287.619159362558
20
19.7050219490495
30
0
41
1
10
287.601760540395
20
19.7225422830348
30
0
41
1
10
287.591092877904
20
19.7332946246374
30
0
41
1
10
287.576962978984
20
19.7475455477887
30
0
41
1
10
287.572665768936
20
19.7518812199184
30
0
41
1
10
287.566937041454
20
19.7576626687877
30
0
41
1
10
287.565146159727
20
19.7594703034823
30
0
41
1
10
287.561821741835
20
19.7628262012974
30
0
41
1
10
287.560285385348
20
19.7643773132452
30
0
41
1
10
287.556170769704
20
19.7685318245765
30
0
41
1
10
287.554054662599
20
19.7706689842454
30
0
41
1
10
287.551904777519
20
19.7728403855644
30
0
41
1
10
287.551358069514
20
19.7733926014467
30
0
41
1
10
287.550642684802
20
19.7741152032558
30
0
41
1
10
287.550471174801
20
19.7742884504557
30
0
41
1
10
287.550501778366
20
19.7742575373626
30
0
41
1
10
287.551246131199
20
19.7735056170707
30
0
41
1
10
287.553216803167
20
19.7715152315958
30
0
41
1
10
287.553803593629
20
19.7709225894847
30
0
41
1
10
287.554466319018
20
19.7702532921746
30
0
0
SPLINE
5
1CD
100
AcDbEntity
8
SK1
62
256
6
ByLayer
370
18
48
1
60
0
100
AcDbSpline
70
4
71
2
72
6
73
3
40
0
40
0
40
0
40
1
40
1
40
1
41
1
10
-0.394913799811235
20
13.740447551665
30
0
41
1
10
-0.944976888873853
20
13.7267321696587
30
0
41
1
10
-1.49503997793924
20
13.7130167789402
30
0
0
SPLINE
5
1CE
100
AcDbEntity
8
SK1
62
256
6
ByLayer
370
18
48
1
60
0
100
AcDbSpline
70
4
71
2
72
6
73
3
40
0
40
0
40
0
40
1
40
1
40
1
41
1
10
-1.49503997793934
20
-13.7130170190491
30
0
41
1
10
-0.944976888873953
20
-13.7267324097107
30
0
41
1
10
-0.394913799811349
20
-13.7404477916605
30
0
0
SPLINE
5
1CF
100
AcDbEntity
8
SK1
62
256
6
ByLayer
370
18
48
1
60
0
100
AcDbSpline
70
4
71
2
72
6
73
3
40
0
40
0
40
0
40
1
40
1
40
1
41
1
10
-22.5
20
13.4973518251593
30
0
41
1
10
-23.249999936895
20
13.0645339427608
30
0
41
1
10
-24
20
12.6317156240217
30
0
0
SPLINE
5
1D0
100
AcDbEntity
8
SK1
62
256
6
ByLayer
370
18
48
1
60
0
100
AcDbSpline
70
4
71
2
72
6
73
3
40
0
40
0
40
0
40
1
40
1
40
1
41
1
10
-24.0000000000001
20
-12.6317156907498
30
0
41
1
10
-23.2499999368977
20
-13.064534007069
30
0
41
1
10
-22.5000000000001
20
-13.4973518870615
30
0
0
SPLINE
5
1D1
100
AcDbEntity
8
SK1
62
256
6
ByLayer
370
18
48
1
60
0
100
AcDbSpline
70
4
71
3
72
13
73
9
40
0
40
0
40
0
40
0
40
0.239406584356299
40
0.368294064402706
40
0.499927815195484
40
0.631573554280449
40
0.760494103733143
40
1
40
1
40
1
40
1
41
1
10
-1.70000000000006
20
-14.020094440518
30
0
41
1
10
-1.6990912184984
20
-13.9940472396764
30
0
41
1
10
-1.69103207617429
20
-13.956689925787
30
0
41
1
10
-1.66563490778346
20
-13.9104917120148
30
0
41
1
10
-1.63886244003071
20
-13.8792240145368
30
0
41
1
10
-1.60627567892249
20
-13.8540680395026
30
0
41
1
10
-1.55883864918067
20
-13.8310346548635
30
0
41
1
10
-1.52110926509488
20
-13.8248650525742
30
0
41
1
10
-1.49503997793936
20
-13.8252671707288
30
0
0
SPLINE
5
1D2
100
AcDbEntity
8
SK1
62
256
6
ByLayer
370
18
48
1
60
0
100
AcDbSpline
70
4
71
3
72
13
73
9
40
0
40
0
40
0
40
0
40
0.239505895683999
40
0.368426444928801
40
0.500072183930365
40
0.631705934787574
40
0.760593415031941
40
1
40
1
40
1
40
1
41
1
10
-1.49503997793924
20
13.825267079015
30
0
41
1
10
-1.5211092651064
20
13.8248649608707
30
0
41
1
10
-1.55883864920243
20
13.8310345631992
30
0
41
1
10
-1.60627567894025
20
13.8540679479737
30
0
41
1
10
-1.63886244004749
20
13.8792239231524
30
0
41
1
10
-1.66563490779616
20
13.9104916208042
30
0
41
1
10
-1.69103207618366
20
13.9566898348376
30
0
41
1
10
-1.69909121850783
20
13.9940471489176
30
0
41
1
10
-1.69999999999995
20
14.0200943498874
30
0
0
SPLINE
5
1D3
100
AcDbEntity
8
SK1
62
256
6
ByLayer
370
18
48
1
60
0
100
AcDbSpline
70
4
71
2
72
6
73
3
40
0
40
0
40
0
40
1
40
1
40
1
41
1
10
-1.69999999999995
20
14.0158106259661
30
0
41
1
10
-12.0999999986038
20
13.7547061446863
30
0
41
1
10
-22.5
20
13.4936007996939
30
0
0
SPLINE
5
1D4
100
AcDbEntity
8
SK1
62
256
6
ByLayer
370
18
48
1
60
0
100
AcDbSpline
70
4
71
2
72
6
73
3
40
0
40
0
40
0
40
1
40
1
40
1
41
1
10
-22.5000000000001
20
-13.4936010331934
30
0
41
1
10
-12.0999999986036
20
-13.7547063780669
30
0
41
1
10
-1.70000000000005
20
-14.0158108591592
30
0
0
LINE
5
A2
100
AcDbEntity
8
80
62
256
6
ByLayer
370
18
48
1
60
0
100
AcDbLine
10
0
20
0
30
0
11
-5
21
0
31
0
39
0
210
0
220
0
230
1
0
LINE
5
A3
100
AcDbEntity
8
SK4
62
256
6
ByLayer
370
18
48
0.05
60
0
100
AcDbLine
10
4
20
0
30
0
11
302
21
0
31
0
39
0
210
0
220
0
230
1
0
LINE
5
A5
100
AcDbEntity
8
81
62
256
6
ByLayer
370
18
48
1
60
0
100
AcDbLine
10
288
20
0
30
0
11
293
21
0
31
0
39
0
210
0
220
0
230
1
0
LINE
5
A6
100
AcDbEntity
8
4
62
256
6
ByLayer
370
18
48
0.05
60
0
100
AcDbLine
10
0
20
0
30
0
11
288
21
0
31
0
39
0
210
0
220
0
230
1
0
LINE
5
A8
100
AcDbEntity
8
1
62
256
6
ByLayer
370
18
48
1
60
0
100
AcDbLine
10
292.8
20
12.899495
30
0
11
292.8
21
6.899495
31
0
39
0
210
0
220
0
230
1
0
LINE
5
A9
100
AcDbEntity
8
1
62
256
6
ByLayer
370
13
48
1
60
0
100
AcDbLine
10
288.324503
20
7.453995
30
0
11
292.8
21
7.453995
31
0
39
0
210
0
220
0
230
1
0
LINE
5
AA
100
AcDbEntity
8
1
62
256
6
ByLayer
370
13
48
1
60
0
100
AcDbLine
10
288.324503
20
12.344995
30
0
11
292.8
21
12.344995
31
0
39
0
210
0
220
0
230
1
0
LINE
5
AB
100
AcDbEntity
8
1
62
256
6
ByLayer
370
18
48
1
60
0
100
AcDbLine
10
292.8
20
-6.899495
30
0
11
292.8
21
-12.899495
31
0
39
0
210
0
220
0
230
1
0
LINE
5
AC
100
AcDbEntity
8
1
62
256
6
ByLayer
370
13
48
1
60
0
100
AcDbLine
10
288.324503
20
-12.344995
30
0
11
292.8
21
-12.344995
31
0
39
0
210
0
220
0
230
1
0
LINE
5
AD
100
AcDbEntity
8
1
62
256
6
ByLayer
370
13
48
1
60
0
100
AcDbLine
10
288.324503
20
-7.453995
30
0
11
292.8
21
-7.453995
31
0
39
0
210
0
220
0
230
1
0
LINE
5
AE
100
AcDbEntity
8
1
62
256
6
ByLayer
370
13
48
1
60
0
100
AcDbLine
10
9.076795
20
-5.85989
30
0
11
9.076795
21
-19.122283
31
0
39
0
210
0
220
0
230
1
0
LINE
5
AF
100
AcDbEntity
8
1
62
256
6
ByLayer
370
13
48
1
60
0
100
AcDbLine
10
9.336603
20
-6.16973
30
0
11
9.336603
21
-19.024574
31
0
39
0
210
0
220
0
230
1
0
LINE
5
B0
100
AcDbEntity
8
1
62
256
6
ByLayer
370
13
48
1
60
0
100
AcDbLine
10
6.663397
20
19.024574
30
0
11
6.663397
21
6.16973
31
0
39
0
210
0
220
0
230
1
0
LINE
5
B1
100
AcDbEntity
8
1
62
256
6
ByLayer
370
13
48
1
60
0
100
AcDbLine
10
6.923205
20
19.122283
30
0
11
6.923205
21
5.85989
31
0
39
0
210
0
220
0
230
1
0
LINE
5
B2
100
AcDbEntity
8
1
62
256
6
ByLayer
370
13
48
1
60
0
100
AcDbLine
10
9.076795
20
19.122283
30
0
11
9.076795
21
5.85989
31
0
39
0
210
0
220
0
230
1
0
LINE
5
B3
100
AcDbEntity
8
1
62
256
6
ByLayer
370
13
48
1
60
0
100
AcDbLine
10
9.336603
20
19.024574
30
0
11
9.336603
21
6.16973
31
0
39
0
210
0
220
0
230
1
0
LINE
5
B4
100
AcDbEntity
8
1
62
256
6
ByLayer
370
13
48
1
60
0
100
AcDbLine
10
6.663397
20
-6.16973
30
0
11
6.663397
21
-19.024574
31
0
39
0
210
0
220
0
230
1
0
LINE
5
B5
100
AcDbEntity
8
1
62
256
6
ByLayer
370
13
48
1
60
0
100
AcDbLine
10
6.923205
20
-5.85989
30
0
11
6.923205
21
-19.122283
31
0
39
0
210
0
220
0
230
1
0
LINE
5
B6
100
AcDbEntity
8
1
62
256
6
ByLayer
370
18
48
1
60
0
100
AcDbLine
10
0
20
-19.7
30
0
11
0
21
19.7
31
0
39
0
210
0
220
0
230
1
0
LINE
5
B7
100
AcDbEntity
8
1
62
256
6
ByLayer
370
18
48
1
60
0
100
AcDbLine
10
0.3
20
-20
30
0
11
0.3
21
20
31
0
39
0
210
0
220
0
230
1
0
LINE
5
B8
100
AcDbEntity
8
1
62
256
6
ByLayer
370
18
48
1
60
0
100
AcDbLine
10
9.076795
20
5.85989
30
0
11
6.923205
21
5.85989
31
0
39
0
210
0
220
0
230
1
0
LINE
5
B9
100
AcDbEntity
8
1
62
256
6
ByLayer
370
18
48
1
60
0
100
AcDbLine
10
6.923205
20
19.122283
30
0
11
9.076795
21
19.122283
31
0
39
0
210
0
220
0
230
1
0
LINE
5
BA
100
AcDbEntity
8
1
62
256
6
ByLayer
370
18
48
1
60
0
100
AcDbLine
10
6.923205
20
-5.85989
30
0
11
9.076795
21
-5.85989
31
0
39
0
210
0
220
0
230
1
0
LINE
5
BB
100
AcDbEntity
8
1
62
256
6
ByLayer
370
18
48
1
60
0
100
AcDbLine
10
9.076795
20
-19.122283
30
0
11
6.923205
21
-19.122283
31
0
39
0
210
0
220
0
230
1
0
LINE
5
BC
100
AcDbEntity
8
1
62
256
6
ByLayer
370
13
48
1
60
0
100
AcDbLine
10
285.8
20
20
30
0
11
285.8
21
-20
31
0
39
0
210
0
220
0
230
1
0
LINE
5
BD
100
AcDbEntity
8
1
62
256
6
ByLayer
370
18
48
1
60
0
100
AcDbLine
10
286
20
19.8
30
0
11
286
21
-19.8
31
0
39
0
210
0
220
0
230
1
0
LINE
5
BE
100
AcDbEntity
8
SK1
62
256
6
ByLayer
370
18
48
1
60
0
100
AcDbLine
10
-0.2
20
-5.678452
30
0
11
-0.2
21
-14.083485
31
0
39
0
210
0
220
0
230
1
0
LINE
5
C0
100
AcDbEntity
8
SK1
62
256
6
ByLayer
370
18
48
1
60
0
100
AcDbLine
10
-0.2
20
14.083485
30
0
11
-0.2
21
5.678452
31
0
39
0
210
0
220
0
230
1
0
LINE
5
C1
100
AcDbEntity
8
SK1
62
256
6
ByLayer
370
13
48
1
60
0
100
AcDbLine
10
-1.307107
20
3.628534
30
0
11
-1.307107
21
-3.628532
31
0
39
0
210
0
220
0
230
1
0
LINE
5
C2
100
AcDbEntity
8
1
62
256
6
ByLayer
370
18
48
1
60
0
100
AcDbLine
10
288.32476
20
18.887542
30
0
11
288.32476
21
18.976857
31
0
39
0
210
0
220
0
230
1
0
LINE
5
C3
100
AcDbEntity
8
1
62
256
6
ByLayer
370
18
48
1
60
0
100
AcDbLine
10
288.32476
20
-18.976857
30
0
11
288.32476
21
-18.887542
31
0
39
0
210
0
220
0
230
1
0
LINE
5
C4
100
AcDbEntity
8
1
62
256
6
ByLayer
370
13
48
1
60
0
100
AcDbLine
10
287.650481
20
19.602807
30
0
11
287.650481
21
19.629489
31
0
39
0
210
0
220
0
230
1
0
LINE
5
C5
100
AcDbEntity
8
1
62
256
6
ByLayer
370
13
48
1
60
0
100
AcDbLine
10
287.650481
20
-19.629489
30
0
11
287.650481
21
-19.602807
31
0
39
0
210
0
220
0
230
1
0
LINE
5
C6
100
AcDbEntity
8
1
62
256
6
ByLayer
370
18
48
1
60
0
100
AcDbLine
10
288.32476
20
18.662842
30
0
11
288.32476
21
18.842999
31
0
39
0
210
0
220
0
230
1
0
LINE
5
C7
100
AcDbEntity
8
1
62
256
6
ByLayer
370
18
48
1
60
0
100
AcDbLine
10
288.32476
20
-18.842999
30
0
11
288.32476
21
-18.662842
31
0
39
0
210
0
220
0
230
1
0
LINE
5
C8
100
AcDbEntity
8
1
62
256
6
ByLayer
370
13
48
1
60
0
100
AcDbLine
10
287.650481
20
-19.470143
30
0
11
287.650481
21
-19.416627
31
0
39
0
210
0
220
0
230
1
0
LINE
5
C9
100
AcDbEntity
8
1
62
256
6
ByLayer
370
13
48
1
60
0
100
AcDbLine
10
287.650481
20
19.416627
30
0
11
287.650481
21
19.470143
31
0
39
0
210
0
220
0
230
1
0
LINE
5
CA
100
AcDbEntity
8
1
62
256
6
ByLayer
370
18
48
1
60
0
100
AcDbLine
10
288.32476
20
18.31313
30
0
11
288.32476
21
18.587525
31
0
39
0
210
0
220
0
230
1
0
LINE
5
CB
100
AcDbEntity
8
1
62
256
6
ByLayer
370
18
48
1
60
0
100
AcDbLine
10
288.32476
20
-18.587525
30
0
11
288.32476
21
-18.31313
31
0
39
0
210
0
220
0
230
1
0
LINE
5
CC
100
AcDbEntity
8
1
62
256
6
ByLayer
370
13
48
1
60
0
100
AcDbLine
10
287.650481
20
19.111162
30
0
11
287.650481
21
19.192605
31
0
39
0
210
0
220
0
230
1
0
LINE
5
CD
100
AcDbEntity
8
1
62
256
6
ByLayer
370
13
48
1
60
0
100
AcDbLine
10
287.650481
20
-19.192605
30
0
11
287.650481
21
-19.111162
31
0
39
0
210
0
220
0
230
1
0
LINE
5
CE
100
AcDbEntity
8
1
62
256
6
ByLayer
370
18
48
1
60
0
100
AcDbLine
10
288.32476
20
-18.205318
30
0
11
288.32476
21
-17.830489
31
0
39
0
210
0
220
0
230
1
0
LINE
5
CF
100
AcDbEntity
8
1
62
256
6
ByLayer
370
18
48
1
60
0
100
AcDbLine
10
288.32476
20
17.830489
30
0
11
288.32476
21
18.205318
31
0
39
0
210
0
220
0
230
1
0
LINE
5
D0
100
AcDbEntity
8
1
62
256
6
ByLayer
370
13
48
1
60
0
100
AcDbLine
10
287.650481
20
-18.791639
30
0
11
287.650481
21
-18.680651
31
0
39
0
210
0
220
0
230
1
0
LINE
5
D1
100
AcDbEntity
8
1
62
256
6
ByLayer
370
13
48
1
60
0
100
AcDbLine
10
287.650481
20
18.680651
30
0
11
287.650481
21
18.791639
31
0
39
0
210
0
220
0
230
1
0
LINE
5
D2
100
AcDbEntity
8
1
62
256
6
ByLayer
370
18
48
1
60
0
100
AcDbLine
10
288.32476
20
17.204449
30
0
11
288.32476
21
17.688163
31
0
39
0
210
0
220
0
230
1
0
LINE
5
D3
100
AcDbEntity
8
1
62
256
6
ByLayer
370
18
48
1
60
0
100
AcDbLine
10
288.32476
20
-17.688163
30
0
11
288.32476
21
-17.204449
31
0
39
0
210
0
220
0
230
1
0
LINE
5
D4
100
AcDbEntity
8
1
62
256
6
ByLayer
370
13
48
1
60
0
100
AcDbLine
10
287.650481
20
-18.259116
30
0
11
287.650481
21
-18.116188
31
0
39
0
210
0
220
0
230
1
0
LINE
5
D5
100
AcDbEntity
8
1
62
256
6
ByLayer
370
13
48
1
60
0
100
AcDbLine
10
287.650481
20
18.116188
30
0
11
287.650481
21
18.259116
31
0
39
0
210
0
220
0
230
1
0
LINE
5
D6
100
AcDbEntity
8
1
62
256
6
ByLayer
370
18
48
1
60
0
100
AcDbLine
10
288.32476
20
-17.023766
30
0
11
288.32476
21
-16.418191
31
0
39
0
210
0
220
0
230
1
0
LINE
5
D7
100
AcDbEntity
8
1
62
256
6
ByLayer
370
18
48
1
60
0
100
AcDbLine
10
288.32476
20
16.418191
30
0
11
288.32476
21
17.023766
31
0
39
0
210
0
220
0
230
1
0
LINE
5
D8
100
AcDbEntity
8
1
62
256
6
ByLayer
370
13
48
1
60
0
100
AcDbLine
10
287.650481
20
17.404844
30
0
11
287.650481
21
17.583086
31
0
39
0
210
0
220
0
230
1
0
LINE
5
D9
100
AcDbEntity
8
1
62
256
6
ByLayer
370
13
48
1
60
0
100
AcDbLine
10
287.650481
20
-17.583086
30
0
11
287.650481
21
-17.404844
31
0
39
0
210
0
220
0
230
1
0
LINE
5
DA
100
AcDbEntity
8
1
62
256
6
ByLayer
370
18
48
1
60
0
100
AcDbLine
10
288.32476
20
-16.194014
30
0
11
288.32476
21
-15.447336
31
0
39
0
210
0
220
0
230
1
0
LINE
5
DB
100
AcDbEntity
8
1
62
256
6
ByLayer
370
18
48
1
60
0
100
AcDbLine
10
288.32476
20
15.447336
30
0
11
288.32476
21
16.194014
31
0
39
0
210
0
220
0
230
1
0
LINE
5
DC
100
AcDbEntity
8
1
62
256
6
ByLayer
370
13
48
1
60
0
100
AcDbLine
10
287.650481
20
-16.74618
30
0
11
287.650481
21
-16.527523
31
0
39
0
210
0
220
0
230
1
0
LINE
5
DD
100
AcDbEntity
8
1
62
256
6
ByLayer
370
13
48
1
60
0
100
AcDbLine
10
287.650481
20
16.527523
30
0
11
287.650481
21
16.74618
31
0
39
0
210
0
220
0
230
1
0
LINE
5
DE
100
AcDbEntity
8
1
62
256
6
ByLayer
370
18
48
1
60
0
100
AcDbLine
10
288.32476
20
-15.171803
30
0
11
288.32476
21
-14.254246
31
0
39
0
210
0
220
0
230
1
0
LINE
5
DF
100
AcDbEntity
8
1
62
256
6
ByLayer
370
18
48
1
60
0
100
AcDbLine
10
288.32476
20
14.254246
30
0
11
288.32476
21
15.171803
31
0
39
0
210
0
220
0
230
1
0
LINE
5
E0
100
AcDbEntity
8
1
62
256
6
ByLayer
370
13
48
1
60
0
100
AcDbLine
10
287.650481
20
-15.722727
30
0
11
287.650481
21
-15.456027
31
0
39
0
210
0
220
0
230
1
0
LINE
5
E1
100
AcDbEntity
8
1
62
256
6
ByLayer
370
13
48
1
60
0
100
AcDbLine
10
287.650481
20
15.456027
30
0
11
287.650481
21
15.722727
31
0
39
0
210
0
220
0
230
1
0
LINE
5
E2
100
AcDbEntity
8
1
62
256
6
ByLayer
370
18
48
1
60
0
100
AcDbLine
10
288.32476
20
12.776776
30
0
11
288.32476
21
13.91478
31
0
39
0
210
0
220
0
230
1
0
LINE
5
E3
100
AcDbEntity
8
1
62
256
6
ByLayer
370
18
48
1
60
0
100
AcDbLine
10
288.32476
20
-13.91478
30
0
11
288.32476
21
-12.776776
31
0
39
0
210
0
220
0
230
1
0
LINE
5
E4
100
AcDbEntity
8
1
62
256
6
ByLayer
370
13
48
1
60
0
100
AcDbLine
10
287.650481
20
-14.473209
30
0
11
287.650481
21
-14.146205
31
0
39
0
210
0
220
0
230
1
0
LINE
5
E5
100
AcDbEntity
8
1
62
256
6
ByLayer
370
13
48
1
60
0
100
AcDbLine
10
287.650481
20
14.146205
30
0
11
287.650481
21
14.473209
31
0
39
0
210
0
220
0
230
1
0
LINE
5
E6
100
AcDbEntity
8
1
62
256
6
ByLayer
370
18
48
1
60
0
100
AcDbLine
10
288.32476
20
-12.351461
30
0
11
288.32476
21
-10.899779
31
0
39
0
210
0
220
0
230
1
0
LINE
5
E7
100
AcDbEntity
8
1
62
256
6
ByLayer
370
18
48
1
60
0
100
AcDbLine
10
288.32476
20
10.899779
30
0
11
288.32476
21
12.351461
31
0
39
0
210
0
220
0
230
1
0
LINE
5
E8
100
AcDbEntity
8
1
62
256
6
ByLayer
370
13
48
1
60
0
100
AcDbLine
10
287.650481
20
-12.932262
30
0
11
287.650481
21
-12.523683
31
0
39
0
210
0
220
0
230
1
0
LINE
5
E9
100
AcDbEntity
8
1
62
256
6
ByLayer
370
13
48
1
60
0
100
AcDbLine
10
287.650481
20
12.523683
30
0
11
287.650481
21
12.932262
31
0
39
0
210
0
220
0
230
1
0
LINE
5
EA
100
AcDbEntity
8
1
62
256
6
ByLayer
370
18
48
1
60
0
100
AcDbLine
10
288.32476
20
-10.343892
30
0
11
288.32476
21
-8.358834
31
0
39
0
210
0
220
0
230
1
0
LINE
5
EB
100
AcDbEntity
8
1
62
256
6
ByLayer
370
18
48
1
60
0
100
AcDbLine
10
288.32476
20
8.358834
30
0
11
288.32476
21
10.343892
31
0
39
0
210
0
220
0
230
1
0
LINE
5
EC
100
AcDbEntity
8
1
62
256
6
ByLayer
370
13
48
1
60
0
100
AcDbLine
10
287.650481
20
-10.977842
30
0
11
287.650481
21
-10.444044
31
0
39
0
210
0
220
0
230
1
0
LINE
5
ED
100
AcDbEntity
8
1
62
256
6
ByLayer
370
13
48
1
60
0
100
AcDbLine
10
287.650481
20
10.444044
30
0
11
287.650481
21
10.977842
31
0
39
0
210
0
220
0
230
1
0
LINE
5
EE
100
AcDbEntity
8
1
62
256
6
ByLayer
370
18
48
1
60
0
100
AcDbLine
10
288.32476
20
-7.545435
30
0
11
288.32476
21
-4.053785
31
0
39
0
210
0
220
0
230
1
0
LINE
5
EF
100
AcDbEntity
8
1
62
256
6
ByLayer
370
18
48
1
60
0
100
AcDbLine
10
288.32476
20
4.053785
30
0
11
288.32476
21
7.545435
31
0
39
0
210
0
220
0
230
1
0
LINE
5
F0
100
AcDbEntity
8
1
62
256
6
ByLayer
370
13
48
1
60
0
100
AcDbLine
10
287.650481
20
-8.323618
30
0
11
287.650481
21
-7.537296
31
0
39
0
210
0
220
0
230
1
0
LINE
5
F1
100
AcDbEntity
8
1
62
256
6
ByLayer
370
13
48
1
60
0
100
AcDbLine
10
287.650481
20
7.537296
30
0
11
287.650481
21
8.323618
31
0
39
0
210
0
220
0
230
1
0
LINE
5
F2
100
AcDbEntity
8
1
62
256
6
ByLayer
370
18
48
1
60
0
100
AcDbLine
10
288.32476
20
-1.539836
30
0
11
288.32476
21
1.539836
31
0
39
0
210
0
220
0
230
1
0
LINE
5
F3
100
AcDbEntity
8
1
62
256
6
ByLayer
370
13
48
1
60
0
100
AcDbLine
10
287.650481
20
-3.681336
30
0
11
287.650481
21
-0.209491
31
0
39
0
210
0
220
0
230
1
0
LINE
5
F4
100
AcDbEntity
8
1
62
256
6
ByLayer
370
13
48
1
60
0
100
AcDbLine
10
287.650481
20
0.209491
30
0
11
287.650481
21
3.681336
31
0
39
0
210
0
220
0
230
1
0
LINE
5
F5
100
AcDbEntity
8
1
62
256
6
ByLayer
370
18
48
1
60
0
100
AcDbLine
10
288.32476
20
-18.976857
30
0
11
288.32476
21
-18.991672
31
0
39
0
210
0
220
0
230
1
0
LINE
5
F6
100
AcDbEntity
8
1
62
256
6
ByLayer
370
18
48
1
60
0
100
AcDbLine
10
288.32476
20
-18.842999
30
0
11
288.32476
21
-18.887723
31
0
39
0
210
0
220
0
230
1
0
LINE
5
F7
100
AcDbEntity
8
1
62
256
6
ByLayer
370
18
48
1
60
0
100
AcDbLine
10
288.32476
20
-18.587525
30
0
11
288.32476
21
-18.663027
31
0
39
0
210
0
220
0
230
1
0
LINE
5
F8
100
AcDbEntity
8
1
62
256
6
ByLayer
370
18
48
1
60
0
100
AcDbLine
10
288.32476
20
-18.205318
30
0
11
288.32476
21
-18.31314
31
0
39
0
210
0
220
0
230
1
0
LINE
5
F9
100
AcDbEntity
8
1
62
256
6
ByLayer
370
18
48
1
60
0
100
AcDbLine
10
288.32476
20
-17.688163
30
0
11
288.32476
21
-17.830692
31
0
39
0
210
0
220
0
230
1
0
LINE
5
FA
100
AcDbEntity
8
1
62
256
6
ByLayer
370
18
48
1
60
0
100
AcDbLine
10
288.32476
20
-17.023766
30
0
11
288.32476
21
-17.204537
31
0
39
0
210
0
220
0
230
1
0
LINE
5
FB
100
AcDbEntity
8
1
62
256
6
ByLayer
370
18
48
1
60
0
100
AcDbLine
10
288.32476
20
-16.194014
30
0
11
288.32476
21
-16.41824
31
0
39
0
210
0
220
0
230
1
0
LINE
5
FC
100
AcDbEntity
8
1
62
256
6
ByLayer
370
18
48
1
60
0
100
AcDbLine
10
288.32476
20
-15.171803
30
0
11
288.32476
21
-15.447365
31
0
39
0
210
0
220
0
230
1
0
LINE
5
FD
100
AcDbEntity
8
1
62
256
6
ByLayer
370
18
48
1
60
0
100
AcDbLine
10
288.32476
20
-13.91478
30
0
11
288.32476
21
-14.254248
31
0
39
0
210
0
220
0
230
1
0
LINE
5
FE
100
AcDbEntity
8
1
62
256
6
ByLayer
370
18
48
1
60
0
100
AcDbLine
10
288.32476
20
-12.351461
30
0
11
288.32476
21
-12.776779
31
0
39
0
210
0
220
0
230
1
0
LINE
5
FF
100
AcDbEntity
8
1
62
256
6
ByLayer
370
18
48
1
60
0
100
AcDbLine
10
288.32476
20
-10.343892
30
0
11
288.32476
21
-10.899935
31
0
39
0
210
0
220
0
230
1
0
LINE
5
100
100
AcDbEntity
8
1
62
256
6
ByLayer
370
18
48
1
60
0
100
AcDbLine
10
288.32476
20
-7.545435
30
0
11
288.32476
21
-8.358893
31
0
39
0
210
0
220
0
230
1
0
LINE
5
101
100
AcDbEntity
8
1
62
256
6
ByLayer
370
18
48
1
60
0
100
AcDbLine
10
288.32476
20
-1.539836
30
0
11
288.32476
21
-4.053837
31
0
39
0
210
0
220
0
230
1
0
LINE
5
102
100
AcDbEntity
8
1
62
256
6
ByLayer
370
18
48
1
60
0
100
AcDbLine
10
288.32476
20
4.053837
30
0
11
288.32476
21
1.539836
31
0
39
0
210
0
220
0
230
1
0
LINE
5
103
100
AcDbEntity
8
1
62
256
6
ByLayer
370
18
48
1
60
0
100
AcDbLine
10
288.32476
20
8.358893
30
0
11
288.32476
21
7.545435
31
0
39
0
210
0
220
0
230
1
0
LINE
5
104
100
AcDbEntity
8
1
62
256
6
ByLayer
370
18
48
1
60
0
100
AcDbLine
10
288.32476
20
10.899935
30
0
11
288.32476
21
10.343892
31
0
39
0
210
0
220
0
230
1
0
LINE
5
105
100
AcDbEntity
8
1
62
256
6
ByLayer
370
18
48
1
60
0
100
AcDbLine
10
288.32476
20
12.776779
30
0
11
288.32476
21
12.351461
31
0
39
0
210
0
220
0
230
1
0
LINE
5
106
100
AcDbEntity
8
1
62
256
6
ByLayer
370
18
48
1
60
0
100
AcDbLine
10
288.32476
20
14.254248
30
0
11
288.32476
21
13.91478
31
0
39
0
210
0
220
0
230
1
0
LINE
5
107
100
AcDbEntity
8
1
62
256
6
ByLayer
370
18
48
1
60
0
100
AcDbLine
10
288.32476
20
15.447365
30
0
11
288.32476
21
15.171803
31
0
39
0
210
0
220
0
230
1
0
LINE
5
108
100
AcDbEntity
8
1
62
256
6
ByLayer
370
18
48
1
60
0
100
AcDbLine
10
288.32476
20
16.41824
30
0
11
288.32476
21
16.194014
31
0
39
0
210
0
220
0
230
1
0
LINE
5
109
100
AcDbEntity
8
1
62
256
6
ByLayer
370
18
48
1
60
0
100
AcDbLine
10
288.32476
20
17.204537
30
0
11
288.32476
21
17.023766
31
0
39
0
210
0
220
0
230
1
0
LINE
5
10A
100
AcDbEntity
8
1
62
256
6
ByLayer
370
18
48
1
60
0
100
AcDbLine
10
288.32476
20
17.830692
30
0
11
288.32476
21
17.688163
31
0
39
0
210
0
220
0
230
1
0
LINE
5
10B
100
AcDbEntity
8
1
62
256
6
ByLayer
370
18
48
1
60
0
100
AcDbLine
10
288.32476
20
18.31314
30
0
11
288.32476
21
18.205318
31
0
39
0
210
0
220
0
230
1
0
LINE
5
10C
100
AcDbEntity
8
1
62
256
6
ByLayer
370
18
48
1
60
0
100
AcDbLine
10
288.32476
20
18.663027
30
0
11
288.32476
21
18.587525
31
0
39
0
210
0
220
0
230
1
0
LINE
5
10D
100
AcDbEntity
8
1
62
256
6
ByLayer
370
18
48
1
60
0
100
AcDbLine
10
288.32476
20
18.887723
30
0
11
288.32476
21
18.842999
31
0
39
0
210
0
220
0
230
1
0
LINE
5
10E
100
AcDbEntity
8
1
62
256
6
ByLayer
370
18
48
1
60
0
100
AcDbLine
10
288.32476
20
18.991672
30
0
11
288.32476
21
18.976857
31
0
39
0
210
0
220
0
230
1
0
LINE
5
10F
100
AcDbEntity
8
1
62
256
6
ByLayer
370
18
48
1
60
0
100
AcDbLine
10
286
20
19.8
30
0
11
286
21
-19.8
31
0
39
0
210
0
220
0
230
1
0
LINE
5
110
100
AcDbEntity
8
1
62
256
6
ByLayer
370
13
48
1
60
0
100
AcDbLine
10
286.2
20
20
30
0
11
286.2
21
-20
31
0
39
0
210
0
220
0
230
1
0
LINE
5
111
100
AcDbEntity
8
1
62
256
6
ByLayer
370
18
48
1
60
0
100
AcDbLine
10
287.32476
20
-20
30
0
11
287.32476
21
20
31
0
39
0
210
0
220
0
230
1
0
LINE
5
112
100
AcDbEntity
8
1
62
256
6
ByLayer
370
13
48
1
60
0
100
AcDbLine
10
292.8
20
12.899495
30
0
11
292.8
21
6.899495
31
0
39
0
210
0
220
0
230
1
0
LINE
5
113
100
AcDbEntity
8
1
62
256
6
ByLayer
370
18
48
1
60
0
100
AcDbLine
10
293
20
14.899495
30
0
11
293
21
4.899495
31
0
39
0
210
0
220
0
230
1
0
LINE
5
114
100
AcDbEntity
8
1
62
256
6
ByLayer
370
13
48
1
60
0
100
AcDbLine
10
298.4
20
14.899495
30
0
11
298.4
21
4.899495
31
0
39
0
210
0
220
0
230
1
0
LINE
5
115
100
AcDbEntity
8
1
62
256
6
ByLayer
370
18
48
1
60
0
100
AcDbLine
10
299
20
14.299495
30
0
11
299
21
5.499495
31
0
39
0
210
0
220
0
230
1
0
LINE
5
116
100
AcDbEntity
8
1
62
256
6
ByLayer
370
13
48
1
60
0
100
AcDbLine
10
292.8
20
-6.899495
30
0
11
292.8
21
-9.899495
31
0
39
0
210
0
220
0
230
1
0
LINE
5
117
100
AcDbEntity
8
1
62
256
6
ByLayer
370
13
48
1
60
0
100
AcDbLine
10
292.8
20
-9.899495
30
0
11
292.8
21
-12.899495
31
0
39
0
210
0
220
0
230
1
0
LINE
5
118
100
AcDbEntity
8
1
62
256
6
ByLayer
370
18
48
1
60
0
100
AcDbLine
10
293
20
-14.899495
30
0
11
293
21
-9.899495
31
0
39
0
210
0
220
0
230
1
0
LINE
5
119
100
AcDbEntity
8
1
62
256
6
ByLayer
370
18
48
1
60
0
100
AcDbLine
10
293
20
-9.899495
30
0
11
293
21
-4.899495
31
0
39
0
210
0
220
0
230
1
0
LINE
5
11A
100
AcDbEntity
8
1
62
256
6
ByLayer
370
13
48
1
60
0
100
AcDbLine
10
298.4
20
-4.899495
30
0
11
298.4
21
-9.899495
31
0
39
0
210
0
220
0
230
1
0
LINE
5
11B
100
AcDbEntity
8
1
62
256
6
ByLayer
370
13
48
1
60
0
100
AcDbLine
10
298.4
20
-9.899495
30
0
11
298.4
21
-14.899495
31
0
39
0
210
0
220
0
230
1
0
LINE
5
11C
100
AcDbEntity
8
1
62
256
6
ByLayer
370
18
48
1
60
0
100
AcDbLine
10
299
20
-14.299495
30
0
11
299
21
-9.899495
31
0
39
0
210
0
220
0
230
1
0
LINE
5
11D
100
AcDbEntity
8
1
62
256
6
ByLayer
370
18
48
1
60
0
100
AcDbLine
10
299
20
-9.899495
30
0
11
299
21
-5.499495
31
0
39
0
210
0
220
0
230
1
0
LINE
5
11E
100
AcDbEntity
8
1
62
256
6
ByLayer
370
18
48
1
60
0
100
AcDbLine
10
0
20
-19.7
30
0
11
0.3
21
-20
31
0
39
0
210
0
220
0
230
1
0
LINE
5
11F
100
AcDbEntity
8
1
62
256
6
ByLayer
370
18
48
1
60
0
100
AcDbLine
10
0.3
20
20
30
0
11
0
21
19.7
31
0
39
0
210
0
220
0
230
1
0
LINE
5
120
100
AcDbEntity
8
1
62
256
6
ByLayer
370
18
48
1
60
0
100
AcDbLine
10
285.8
20
20
30
0
11
0.3
21
20
31
0
39
0
210
0
220
0
230
1
0
LINE
5
121
100
AcDbEntity
8
1
62
256
6
ByLayer
370
18
48
1
60
0
100
AcDbLine
10
0.3
20
-20
30
0
11
285.8
21
-20
31
0
39
0
210
0
220
0
230
1
0
LINE
5
122
100
AcDbEntity
8
1
62
256
6
ByLayer
370
18
48
1
60
0
100
AcDbLine
10
287.552123
20
19.772637
30
0
11
287.32476
21
20
31
0
39
0
210
0
220
0
230
1
0
LINE
5
123
100
AcDbEntity
8
1
62
256
6
ByLayer
370
18
48
1
60
0
100
AcDbLine
10
287.32476
20
-20
30
0
11
287.552123
21
-19.772637
31
0
39
0
210
0
220
0
230
1
0
LINE
5
124
100
AcDbEntity
8
1
62
256
6
ByLayer
370
18
48
1
60
0
100
AcDbLine
10
287.32476
20
20
30
0
11
286.2
21
20
31
0
39
0
210
0
220
0
230
1
0
LINE
5
125
100
AcDbEntity
8
1
62
256
6
ByLayer
370
18
48
1
60
0
100
AcDbLine
10
286.2
20
-20
30
0
11
287.32476
21
-20
31
0
39
0
210
0
220
0
230
1
0
LINE
5
126
100
AcDbEntity
8
1
62
256
6
ByLayer
370
18
48
1
60
0
100
AcDbLine
10
288.324609
20
6.899495
30
0
11
292.8
21
6.899495
31
0
39
0
210
0
220
0
230
1
0
LINE
5
127
100
AcDbEntity
8
1
62
256
6
ByLayer
370
18
48
1
60
0
100
AcDbLine
10
292.8
20
12.899495
30
0
11
288.324609
21
12.899495
31
0
39
0
210
0
220
0
230
1
0
LINE
5
128
100
AcDbEntity
8
1
62
256
6
ByLayer
370
18
48
1
60
0
100
AcDbLine
10
293
20
4.899495
30
0
11
298.4
21
4.899495
31
0
39
0
210
0
220
0
230
1
0
LINE
5
129
100
AcDbEntity
8
1
62
256
6
ByLayer
370
18
48
1
60
0
100
AcDbLine
10
298.4
20
14.899495
30
0
11
293
21
14.899495
31
0
39
0
210
0
220
0
230
1
0
LINE
5
12A
100
AcDbEntity
8
1
62
256
6
ByLayer
370
18
48
1
60
0
100
AcDbLine
10
288.324609
20
-12.899495
30
0
11
292.8
21
-12.899495
31
0
39
0
210
0
220
0
230
1
0
LINE
5
12B
100
AcDbEntity
8
1
62
256
6
ByLayer
370
18
48
1
60
0
100
AcDbLine
10
292.8
20
-6.899495
30
0
11
288.324609
21
-6.899495
31
0
39
0
210
0
220
0
230
1
0
LINE
5
12C
100
AcDbEntity
8
1
62
256
6
ByLayer
370
18
48
1
60
0
100
AcDbLine
10
293
20
-14.899495
30
0
11
298.4
21
-14.899495
31
0
39
0
210
0
220
0
230
1
0
LINE
5
12D
100
AcDbEntity
8
1
62
256
6
ByLayer
370
18
48
1
60
0
100
AcDbLine
10
298.4
20
-4.899495
30
0
11
293
21
-4.899495
31
0
39
0
210
0
220
0
230
1
0
LINE
5
12E
100
AcDbEntity
8
1
62
256
6
ByLayer
370
13
48
0.05
60
0
100
AcDbLine
10
292.3
20
0
30
0
11
-6.5
21
0
31
0
39
0
210
0
220
0
230
1
0
LINE
5
12F
100
AcDbEntity
8
SK2
62
256
6
ByLayer
370
18
48
1
60
0
100
AcDbLine
10
-30.6
20
-20
30
0
11
-30.6
21
20
31
0
39
0
210
0
220
0
230
1
0
LINE
5
131
100
AcDbEntity
8
SK2
62
256
6
ByLayer
370
18
48
1
60
0
100
AcDbLine
10
-1.2875
20
20
30
0
11
-32.6
21
20
31
0
39
0
210
0
220
0
230
1
0
LINE
5
132
100
AcDbEntity
8
SK2
62
256
6
ByLayer
370
18
48
1
60
0
100
AcDbLine
10
-1.2875
20
-20
30
0
11
-32.6
21
-20
31
0
39
0
210
0
220
0
230
1
0
LINE
5
133
100
AcDbEntity
8
1
62
256
6
ByLayer
370
18
48
1
60
1
100
AcDbLine
10
-30.6
20
20
30
0
11
-30.139216
21
16.500002
31
0
39
0
210
0
220
0
230
1
0
LINE
5
134
100
AcDbEntity
8
1
62
256
6
ByLayer
370
18
48
1
60
1
100
AcDbLine
10
-30.139216
20
16.500002
30
0
11
-31.060784
21
16.499998
31
0
39
0
210
0
220
0
230
1
0
LINE
5
135
100
AcDbEntity
8
1
62
256
6
ByLayer
370
18
48
1
60
1
100
AcDbLine
10
-31.060784
20
16.499998
30
0
11
-30.6
21
20
31
0
39
0
210
0
220
0
230
1
0
LINE
5
136
100
AcDbEntity
8
1
62
256
6
ByLayer
370
18
48
1
60
1
100
AcDbLine
10
-30.6
20
-20
30
0
11
-31.060784
21
-16.500002
31
0
39
0
210
0
220
0
230
1
0
LINE
5
137
100
AcDbEntity
8
1
62
256
6
ByLayer
370
18
48
1
60
1
100
AcDbLine
10
-31.060784
20
-16.500002
30
0
11
-30.139216
21
-16.499998
31
0
39
0
210
0
220
0
230
1
0
LINE
5
138
100
AcDbEntity
8
1
62
256
6
ByLayer
370
18
48
1
60
1
100
AcDbLine
10
-30.139216
20
-16.499998
30
0
11
-30.6
21
-20
31
0
39
0
210
0
220
0
230
1
0
LINE
5
139
100
AcDbEntity
8
SK2
62
256
6
ByLayer
370
18
48
1
60
0
100
AcDbLine
10
310.748181
20
-20
30
0
11
310.748181
21
20
31
0
39
0
210
0
220
0
230
1
0
LINE
5
13A
100
AcDbEntity
8
SK2
62
256
6
ByLayer
370
18
48
1
60
0
100
AcDbLine
10
287.3875
20
20
30
0
11
312.748181
21
20
31
0
39
0
210
0
220
0
230
1
0
LINE
5
13B
100
AcDbEntity
8
SK2
62
256
6
ByLayer
370
18
48
1
60
0
100
AcDbLine
10
287.3875
20
-20
30
0
11
312.748181
21
-20
31
0
39
0
210
0
220
0
230
1
0
LINE
5
13C
100
AcDbEntity
8
1
62
256
6
ByLayer
370
18
48
1
60
1
100
AcDbLine
10
310.748181
20
20
30
0
11
311.208964
21
16.500002
31
0
39
0
210
0
220
0
230
1
0
LINE
5
13D
100
AcDbEntity
8
1
62
256
6
ByLayer
370
18
48
1
60
1
100
AcDbLine
10
311.208964
20
16.500002
30
0
11
310.287397
21
16.499998
31
0
39
0
210
0
220
0
230
1
0
LINE
5
13E
100
AcDbEntity
8
1
62
256
6
ByLayer
370
18
48
1
60
1
100
AcDbLine
10
310.287397
20
16.499998
30
0
11
310.748181
21
20
31
0
39
0
210
0
220
0
230
1
0
LINE
5
13F
100
AcDbEntity
8
1
62
256
6
ByLayer
370
18
48
1
60
1
100
AcDbLine
10
310.748181
20
-20
30
0
11
310.287397
21
-16.500002
31
0
39
0
210
0
220
0
230
1
0
LINE
5
140
100
AcDbEntity
8
1
62
256
6
ByLayer
370
18
48
1
60
1
100
AcDbLine
10
310.287397
20
-16.500002
30
0
11
311.208964
21
-16.499998
31
0
39
0
210
0
220
0
230
1
0
LINE
5
141
100
AcDbEntity
8
1
62
256
6
ByLayer
370
18
48
1
60
1
100
AcDbLine
10
311.208964
20
-16.499998
30
0
11
310.748181
21
-20
31
0
39
0
210
0
220
0
230
1
0
LINE
5
142
100
AcDbEntity
8
SK2
62
256
6
ByLayer
370
18
48
1
60
0
100
AcDbLine
10
0
20
25.6
30
0
11
288
21
25.6
31
0
39
0
210
0
220
0
230
1
0
LINE
5
143
100
AcDbEntity
8
SK2
62
256
6
ByLayer
370
18
48
1
60
0
100
AcDbLine
10
288
20
21.5875
30
0
11
288
21
27.6
31
0
39
0
210
0
220
0
230
1
0
LINE
5
144
100
AcDbEntity
8
SK2
62
256
6
ByLayer
370
18
48
1
60
0
100
AcDbLine
10
0
20
21.2875
30
0
11
0
21
27.6
31
0
39
0
210
0
220
0
230
1
0
LINE
5
145
100
AcDbEntity
8
1
62
256
6
ByLayer
370
18
48
1
60
1
100
AcDbLine
10
288
20
25.6
30
0
11
284.500002
21
25.139216
31
0
39
0
210
0
220
0
230
1
0
LINE
5
146
100
AcDbEntity
8
1
62
256
6
ByLayer
370
18
48
1
60
1
100
AcDbLine
10
284.500002
20
25.139216
30
0
11
284.499998
21
26.060784
31
0
39
0
210
0
220
0
230
1
0
LINE
5
147
100
AcDbEntity
8
1
62
256
6
ByLayer
370
18
48
1
60
1
100
AcDbLine
10
284.499998
20
26.060784
30
0
11
288
21
25.6
31
0
39
0
210
0
220
0
230
1
0
LINE
5
148
100
AcDbEntity
8
1
62
256
6
ByLayer
370
18
48
1
60
1
100
AcDbLine
10
0
20
25.6
30
0
11
3.499998
21
26.060784
31
0
39
0
210
0
220
0
230
1
0
LINE
5
149
100
AcDbEntity
8
1
62
256
6
ByLayer
370
18
48
1
60
1
100
AcDbLine
10
3.499998
20
26.060784
30
0
11
3.500002
21
25.139216
31
0
39
0
210
0
220
0
230
1
0
LINE
5
14A
100
AcDbEntity
8
1
62
256
6
ByLayer
370
18
48
1
60
1
100
AcDbLine
10
3.500002
20
25.139216
30
0
11
0
21
25.6
31
0
39
0
210
0
220
0
230
1
0
LINE
5
1D5
100
AcDbEntity
8
1
62
256
6
ByLayer
370
13
48
0.05
60
0
100
AcDbLine
10
275.05
20
-9.899495
30
0
11
299.3
21
-9.899495
31
0
39
0
210
0
220
0
230
1
0
LINE
5
1D6
100
AcDbEntity
8
1
62
256
6
ByLayer
370
13
48
0.05
60
0
100
AcDbLine
10
293.82476
20
0
30
0
11
279.7
21
0
31
0
39
0
210
0
220
0
230
1
0
LINE
5
1D7
100
AcDbEntity
8
1
62
256
6
ByLayer
370
13
48
0.05
60
0
100
AcDbLine
10
275.05
20
9.899495
30
0
11
299.3
21
9.899495
31
0
39
0
210
0
220
0
230
1
0
LINE
5
1DC
100
AcDbEntity
8
1
62
256
6
ByLayer
370
18
48
1
60
1
100
AcDbLine
10
-30.6
20
20
30
0
11
-30.139216
21
16.500002
31
0
39
0
210
0
220
0
230
1
0
LINE
5
1DD
100
AcDbEntity
8
1
62
256
6
ByLayer
370
18
48
1
60
1
100
AcDbLine
10
-30.139216
20
16.500002
30
0
11
-31.060784
21
16.499998
31
0
39
0
210
0
220
0
230
1
0
LINE
5
1DE
100
AcDbEntity
8
1
62
256
6
ByLayer
370
18
48
1
60
1
100
AcDbLine
10
-31.060784
20
16.499998
30
0
11
-30.6
21
20
31
0
39
0
210
0
220
0
230
1
0
LINE
5
1E0
100
AcDbEntity
8
1
62
256
6
ByLayer
370
18
48
1
60
1
100
AcDbLine
10
-30.6
20
-20
30
0
11
-31.060784
21
-16.500002
31
0
39
0
210
0
220
0
230
1
0
LINE
5
1E1
100
AcDbEntity
8
1
62
256
6
ByLayer
370
18
48
1
60
1
100
AcDbLine
10
-31.060784
20
-16.500002
30
0
11
-30.139216
21
-16.499998
31
0
39
0
210
0
220
0
230
1
0
LINE
5
1E2
100
AcDbEntity
8
1
62
256
6
ByLayer
370
18
48
1
60
1
100
AcDbLine
10
-30.139216
20
-16.499998
30
0
11
-30.6
21
-20
31
0
39
0
210
0
220
0
230
1
0
LINE
5
1E6
100
AcDbEntity
8
1
62
256
6
ByLayer
370
18
48
1
60
1
100
AcDbLine
10
310.748181
20
20
30
0
11
311.208964
21
16.500002
31
0
39
0
210
0
220
0
230
1
0
LINE
5
1E7
100
AcDbEntity
8
1
62
256
6
ByLayer
370
18
48
1
60
1
100
AcDbLine
10
311.208964
20
16.500002
30
0
11
310.287397
21
16.499998
31
0
39
0
210
0
220
0
230
1
0
LINE
5
1E8
100
AcDbEntity
8
1
62
256
6
ByLayer
370
18
48
1
60
1
100
AcDbLine
10
310.287397
20
16.499998
30
0
11
310.748181
21
20
31
0
39
0
210
0
220
0
230
1
0
LINE
5
1EA
100
AcDbEntity
8
1
62
256
6
ByLayer
370
18
48
1
60
1
100
AcDbLine
10
310.748181
20
-20
30
0
11
310.287397
21
-16.500002
31
0
39
0
210
0
220
0
230
1
0
LINE
5
1EB
100
AcDbEntity
8
1
62
256
6
ByLayer
370
18
48
1
60
1
100
AcDbLine
10
310.287397
20
-16.500002
30
0
11
311.208964
21
-16.499998
31
0
39
0
210
0
220
0
230
1
0
LINE
5
1EC
100
AcDbEntity
8
1
62
256
6
ByLayer
370
18
48
1
60
1
100
AcDbLine
10
311.208964
20
-16.499998
30
0
11
310.748181
21
-20
31
0
39
0
210
0
220
0
230
1
0
LINE
5
1EF
100
AcDbEntity
8
1
62
256
6
ByLayer
370
18
48
1
60
1
100
AcDbLine
10
288
20
25.6
30
0
11
284.500002
21
25.139216
31
0
39
0
210
0
220
0
230
1
0
LINE
5
1F0
100
AcDbEntity
8
1
62
256
6
ByLayer
370
18
48
1
60
1
100
AcDbLine
10
284.500002
20
25.139216
30
0
11
284.499998
21
26.060784
31
0
39
0
210
0
220
0
230
1
0
LINE
5
1F1
100
AcDbEntity
8
1
62
256
6
ByLayer
370
18
48
1
60
1
100
AcDbLine
10
284.499998
20
26.060784
30
0
11
288
21
25.6
31
0
39
0
210
0
220
0
230
1
0
LINE
5
1F3
100
AcDbEntity
8
1
62
256
6
ByLayer
370
18
48
1
60
1
100
AcDbLine
10
0
20
25.6
30
0
11
3.499998
21
26.060784
31
0
39
0
210
0
220
0
230
1
0
LINE
5
1F4
100
AcDbEntity
8
1
62
256
6
ByLayer
370
18
48
1
60
1
100
AcDbLine
10
3.499998
20
26.060784
30
0
11
3.500002
21
25.139216
31
0
39
0
210
0
220
0
230
1
0
LINE
5
1F5
100
AcDbEntity
8
1
62
256
6
ByLayer
370
18
48
1
60
1
100
AcDbLine
10
3.500002
20
25.139216
30
0
11
0
21
25.6
31
0
39
0
210
0
220
0
230
1
0
MTEXT
5
1D8
100
AcDbEntity
8
SK2
62
256
6
ByLayer
370
18
48
1
60
0
100
AcDbMText
10
-32.164634
20
-4.714889
30
0
210
0
220
0
230
1
1
%%c
40
3.5
41
0
44
1.084337
50
90
71
7
72
5
7
iso_b_vert
0
MTEXT
5
1DB
100
AcDbEntity
8
SK2
62
256
6
ByLayer
370
18
48
1
60
0
100
AcDbMText
10
-32.164634
20
2.257767
30
0
210
0
220
0
230
1
1
\W0.7361;40
40
3.5
41
0
44
1.084337
50
90
71
7
72
5
7
iso_b_vert
0
MTEXT
5
1E4
100
AcDbEntity
8
SK2
62
256
6
ByLayer
370
18
48
1
60
0
100
AcDbMText
10
309.183547
20
-4.714889
30
0
210
0
220
0
230
1
1
%%c
40
3.5
41
0
44
1.084337
50
90
71
7
72
5
7
iso_b_vert
0
MTEXT
5
1E5
100
AcDbEntity
8
SK2
62
256
6
ByLayer
370
18
48
1
60
0
100
AcDbMText
10
309.183547
20
2.257767
30
0
210
0
220
0
230
1
1
\W0.7361;40
40
3.5
41
0
44
1.084337
50
90
71
7
72
5
7
iso_b_vert
0
MTEXT
5
1EE
100
AcDbEntity
8
SK2
62
256
6
ByLayer
370
18
48
1
60
0
100
AcDbMText
10
140.787301
20
26.632634
30
0
210
0
220
0
230
1
1
\W0.7138;288
40
3.5
41
0
44
1.084337
50
0
71
7
72
5
7
iso_b_vert
0
MTEXT
5
1F7
100
AcDbEntity
8
SK6
62
256
6
ByLayer
370
18
48
1
60
0
100
AcDbMText
10
114.083627
20
-45.567366
30
0
210
0
220
0
230
1
1
\W0.7633;HT30D-C4 40 288-40
40
3.5
41
0
44
1.084337
50
0
71
7
72
5
7
iso_b_vert
0
HATCH
5
1DF
100
AcDbEntity
8
SK2
62
256
6
ByLayer
370
13
48
1
60
0
100
AcDbHatch
10
0
20
0
30
0
210
0
220
0
230
1
2
ANSI31
70
0
71
0
91
1
92
5
93
3
72
1
10
-30.6000000000001
20
19.9999999999989
11
-30.1392162584473
21
16.5000016925521
72
1
10
-30.1392162584473
20
16.5000016925521
11
-31.0607837415529
21
16.4999983074458
72
1
10
-31.0607837415529
20
16.4999983074458
11
-30.6000000000001
21
19.9999999999989
97
0
75
0
76
1
52
0
41
0.0062
77
0
78
1
53
45
43
0
44
0
45
-0.0139193969876572
46
0.0139193969876572
79
0
47
0
98
1
10
0
20
0
0
HATCH
5
1E3
100
AcDbEntity
8
SK2
62
256
6
ByLayer
370
13
48
1
60
0
100
AcDbHatch
10
0
20
0
30
0
210
0
220
0
230
1
2
ANSI31
70
0
71
0
91
1
92
5
93
3
72
1
10
-30.6000000000001
20
-20.0000000000011
11
-31.0607837415529
21
-16.5000016925542
72
1
10
-31.0607837415529
20
-16.5000016925542
11
-30.1392162584473
21
-16.4999983074479
72
1
10
-30.1392162584473
20
-16.4999983074479
11
-30.6000000000001
21
-20.0000000000011
97
0
75
0
76
1
52
0
41
0.0062
77
0
78
1
53
45
43
0
44
0
45
-0.0139193969876572
46
0.0139193969876572
79
0
47
0
98
1
10
0
20
0
0
HATCH
5
1E9
100
AcDbEntity
8
SK2
62
256
6
ByLayer
370
13
48
1
60
0
100
AcDbHatch
10
0
20
0
30
0
210
0
220
0
230
1
2
ANSI31
70
0
71
0
91
1
92
5
93
3
72
1
10
310.748180566759
20
19.9999999999989
11
311.208964308312
21
16.5000016925521
72
1
10
311.208964308312
20
16.5000016925521
11
310.287396825206
21
16.4999983074458
72
1
10
310.287396825206
20
16.4999983074458
11
310.748180566759
21
19.9999999999989
97
0
75
0
76
1
52
0
41
0.0062
77
0
78
1
53
45
43
0
44
0
45
-0.0139193969876572
46
0.0139193969876572
79
0
47
0
98
1
10
0
20
0
0
HATCH
5
1ED
100
AcDbEntity
8
SK2
62
256
6
ByLayer
370
13
48
1
60
0
100
AcDbHatch
10
0
20
0
30
0
210
0
220
0
230
1
2
ANSI31
70
0
71
0
91
1
92
5
93
3
72
1
10
310.748180566759
20
-20.0000000000011
11
310.287396825206
21
-16.5000016925542
72
1
10
310.287396825206
20
-16.5000016925542
11
311.208964308312
21
-16.4999983074479
72
1
10
311.208964308312
20
-16.4999983074479
11
310.748180566759
21
-20.0000000000011
97
0
75
0
76
1
52
0
41
0.0062
77
0
78
1
53
45
43
0
44
0
45
-0.0139193969876572
46
0.0139193969876572
79
0
47
0
98
1
10
0
20
0
0
HATCH
5
1F2
100
AcDbEntity
8
SK2
62
256
6
ByLayer
370
13
48
1
60
0
100
AcDbHatch
10
0
20
0
30
0
210
0
220
0
230
1
2
ANSI31
70
0
71
0
91
1
92
5
93
3
72
1
10
288
20
25.6000000000001
11
284.500001692553
21
25.1392162584473
72
1
10
284.500001692553
20
25.1392162584473
11
284.499998307447
21
26.0607837415529
72
1
10
284.499998307447
20
26.0607837415529
11
288
21
25.6000000000001
97
0
75
0
76
1
52
0
41
0.0062
77
0
78
1
53
45
43
0
44
0
45
-0.0139193969876572
46
0.0139193969876572
79
0
47
0
98
1
10
0
20
0
0
HATCH
5
1F6
100
AcDbEntity
8
SK2
62
256
6
ByLayer
370
13
48
1
60
0
100
AcDbHatch
10
0
20
0
30
0
210
0
220
0
230
1
2
ANSI31
70
0
71
0
91
1
92
5
93
3
72
1
10
0
20
25.6000000000001
11
3.4999983074468
21
26.0607837415529
72
1
10
3.4999983074468
20
26.0607837415529
11
3.5000016925532
21
25.1392162584473
72
1
10
3.5000016925532
20
25.1392162584473
11
0
21
25.6000000000001
97
0
75
0
76
1
52
0
41
0.0062
77
0
78
1
53
45
43
0
44
0
45
-0.0139193969876572
46
0.0139193969876572
79
0
47
0
98
1
10
0
20
0
0
ENDSEC
0
SECTION
2
OBJECTS
0
DICTIONARY
5
266
330
0
100
AcDbDictionary
280
0
281
1
3
ACAD_GROUP
350
267
3
ACAD_MLINESTYLE
350
268
0
DICTIONARY
5
267
330
0
100
AcDbDictionary
280
0
281
1
0
DICTIONARY
5
268
330
0
100
AcDbDictionary
280
0
281
1
3
Standard
350
18
0
MLINESTYLE
5
18
330
268
100
AcDbMlineStyle
2
Standard
70
0
3

62
256
51
90
52
90
71
2
49
-0.5
62
256
6
ByLayer
49
0.5
62
256
6
ByLayer
0
RASTERVARIABLES
5
254
330

100
AcDbRasterVariables
90
0
70
1
71
1
72
1
0
ENDSEC
0
EOF
